  0
SECTION
  2
HEADER
  9
$ACADVER
  1
AC1015
  9
$ACADMAINTVER
 70
     6
  9
$DWGCODEPAGE
  3
ANSI_1252
  9
$INSBASE
 10
0.0
 20
0.0
 30
0.0
  9
$EXTMIN
 10
-102.1003195640514
 20
-119.7948284934332
 30
-0.000000000000015
  9
$EXTMAX
 10
206.6917766300512
 20
103.5665601663249
 30
0.0000000000000155
  9
$LIMMIN
 10
-656.35
 20
-384.35
  9
$LIMMAX
 10
2061.85
 20
268.85
  9
$ORTHOMODE
 70
     1
  9
$REGENMODE
 70
     1
  9
$FILLMODE
 70
     1
  9
$QTEXTMODE
 70
     0
  9
$MIRRTEXT
 70
     1
  9
$LTSCALE
 40
10.0
  9
$ATTMODE
 70
     1
  9
$TEXTSIZE
 40
0.0
  9
$TRACEWID
 40
0.05
  9
$TEXTSTYLE
  7
Standard
  9
$CLAYER
  8
0
  9
$CELTYPE
  6
Continuous
  9
$CECOLOR
 62
   256
  9
$CELTSCALE
 40
1.0
  9
$DISPSILH
 70
     0
  9
$DIMSCALE
 40
1.0
  9
$DIMASZ
 40
1.25
  9
$DIMEXO
 40
0.0
  9
$DIMDLI
 40
0.38
  9
$DIMRND
 40
0.0
  9
$DIMDLE
 40
0.0
  9
$DIMEXE
 40
0.75
  9
$DIMTP
 40
0.0
  9
$DIMTM
 40
0.0
  9
$DIMTXT
 40
2.5
  9
$DIMCEN
 40
0.09
  9
$DIMTSZ
 40
0.0
  9
$DIMTOL
 70
     0
  9
$DIMLIM
 70
     0
  9
$DIMTIH
 70
     0
  9
$DIMTOH
 70
     0
  9
$DIMSE1
 70
     0
  9
$DIMSE2
 70
     0
  9
$DIMTAD
 70
     1
  9
$DIMZIN
 70
     0
  9
$DIMBLK
  1

  9
$DIMASO
 70
     1
  9
$DIMSHO
 70
     1
  9
$DIMPOST
  1

  9
$DIMAPOST
  1

  9
$DIMALT
 70
     0
  9
$DIMALTD
 70
     2
  9
$DIMALTF
 40
25.4
  9
$DIMLFAC
 40
1.0
  9
$DIMTOFL
 70
     0
  9
$DIMTVP
 40
0.0
  9
$DIMTIX
 70
     0
  9
$DIMSOXD
 70
     0
  9
$DIMSAH
 70
     0
  9
$DIMBLK1
  1

  9
$DIMBLK2
  1

  9
$DIMSTYLE
  2
Standard
  9
$DIMCLRD
 70
     7
  9
$DIMCLRE
 70
     7
  9
$DIMCLRT
 70
     7
  9
$DIMTFAC
 40
0.8
  9
$DIMGAP
 40
1.25
  9
$DIMJUST
 70
     0
  9
$DIMSD1
 70
     0
  9
$DIMSD2
 70
     0
  9
$DIMTOLJ
 70
     1
  9
$DIMTZIN
 70
     0
  9
$DIMALTZ
 70
     0
  9
$DIMALTTZ
 70
     0
  9
$DIMUPT
 70
     0
  9
$DIMDEC
 70
     2
  9
$DIMTDEC
 70
     4
  9
$DIMALTU
 70
     2
  9
$DIMALTTD
 70
     2
  9
$DIMTXSTY
  7
Standard
  9
$DIMAUNIT
 70
     0
  9
$DIMADEC
 70
     0
  9
$DIMALTRND
 40
0.0
  9
$DIMAZIN
 70
     0
  9
$DIMDSEP
 70
    46
  9
$DIMATFIT
 70
     3
  9
$DIMFRAC
 70
     0
  9
$DIMLDRBLK
  1

  9
$DIMLUNIT
 70
     2
  9
$DIMLWD
 70
     0
  9
$DIMLWE
 70
     0
  9
$DIMTMOVE
 70
     0
  9
$LUNITS
 70
     2
  9
$LUPREC
 70
     4
  9
$SKETCHINC
 40
0.1
  9
$FILLETRAD
 40
5.0
  9
$AUNITS
 70
     0
  9
$AUPREC
 70
     0
  9
$MENU
  1
acad
  9
$ELEVATION
 40
0.0
  9
$PELEVATION
 40
0.0
  9
$THICKNESS
 40
0.0
  9
$LIMCHECK
 70
     0
  9
$CHAMFERA
 40
0.0
  9
$CHAMFERB
 40
0.0
  9
$CHAMFERC
 40
0.0
  9
$CHAMFERD
 40
0.0
  9
$SKPOLY
 70
     0
  9
$TDCREATE
 40
2455323.528193981
  9
$TDUCREATE
 40
2455323.486527315
  9
$TDUPDATE
 40
2456713.4584525
  9
$TDUUPDATE
 40
2456713.416785833
  9
$TDINDWG
 40
0.1204818056
  9
$TDUSRTIMER
 40
2456713.415290949
  9
$USRTIMER
 70
     1
  9
$ANGBASE
 50
0.0
  9
$ANGDIR
 70
     0
  9
$PDMODE
 70
     0
  9
$PDSIZE
 40
0.0
  9
$PLINEWID
 40
0.0
  9
$SPLFRAME
 70
     0
  9
$SPLINETYPE
 70
     6
  9
$SPLINESEGS
 70
     8
  9
$HANDSEED
  5
57FD
  9
$SURFTAB1
 70
     6
  9
$SURFTAB2
 70
     6
  9
$SURFTYPE
 70
     6
  9
$SURFU
 70
     6
  9
$SURFV
 70
     6
  9
$UCSBASE
  2

  9
$UCSNAME
  2

  9
$UCSORG
 10
0.0
 20
0.0
 30
0.0
  9
$UCSXDIR
 10
1.0
 20
0.0
 30
0.0
  9
$UCSYDIR
 10
0.0
 20
1.0
 30
0.0
  9
$UCSORTHOREF
  2

  9
$UCSORTHOVIEW
 70
     0
  9
$UCSORGTOP
 10
0.0
 20
0.0
 30
0.0
  9
$UCSORGBOTTOM
 10
0.0
 20
0.0
 30
0.0
  9
$UCSORGLEFT
 10
0.0
 20
0.0
 30
0.0
  9
$UCSORGRIGHT
 10
0.0
 20
0.0
 30
0.0
  9
$UCSORGFRONT
 10
0.0
 20
0.0
 30
0.0
  9
$UCSORGBACK
 10
0.0
 20
0.0
 30
0.0
  9
$PUCSBASE
  2

  9
$PUCSNAME
  2

  9
$PUCSORG
 10
0.0
 20
0.0
 30
0.0
  9
$PUCSXDIR
 10
1.0
 20
0.0
 30
0.0
  9
$PUCSYDIR
 10
0.0
 20
1.0
 30
0.0
  9
$PUCSORTHOREF
  2

  9
$PUCSORTHOVIEW
 70
     0
  9
$PUCSORGTOP
 10
0.0
 20
0.0
 30
0.0
  9
$PUCSORGBOTTOM
 10
0.0
 20
0.0
 30
0.0
  9
$PUCSORGLEFT
 10
0.0
 20
0.0
 30
0.0
  9
$PUCSORGRIGHT
 10
0.0
 20
0.0
 30
0.0
  9
$PUCSORGFRONT
 10
0.0
 20
0.0
 30
0.0
  9
$PUCSORGBACK
 10
0.0
 20
0.0
 30
0.0
  9
$USERI1
 70
     0
  9
$USERI2
 70
     0
  9
$USERI3
 70
     0
  9
$USERI4
 70
     0
  9
$USERI5
 70
     0
  9
$USERR1
 40
0.0
  9
$USERR2
 40
0.0
  9
$USERR3
 40
0.0
  9
$USERR4
 40
0.0
  9
$USERR5
 40
0.0
  9
$WORLDVIEW
 70
     1
  9
$SHADEDGE
 70
     3
  9
$SHADEDIF
 70
    70
  9
$TILEMODE
 70
     1
  9
$MAXACTVP
 70
    16
  9
$PINSBASE
 10
0.0
 20
0.0
 30
0.0
  9
$PLIMCHECK
 70
     0
  9
$PEXTMIN
 10
1.000000000000000E+20
 20
1.000000000000000E+20
 30
1.000000000000000E+20
  9
$PEXTMAX
 10
-1.000000000000000E+20
 20
-1.000000000000000E+20
 30
-1.000000000000000E+20
  9
$PLIMMIN
 10
0.0
 20
0.0
  9
$PLIMMAX
 10
0.0
 20
0.0
  9
$UNITMODE
 70
     0
  9
$VISRETAIN
 70
     0
  9
$PLINEGEN
 70
     1
  9
$PSLTSCALE
 70
     0
  9
$TREEDEPTH
 70
  3020
  9
$CMLSTYLE
  2
Standard
  9
$CMLJUST
 70
     0
  9
$CMLSCALE
 40
1.0
  9
$PROXYGRAPHICS
 70
     0
  9
$MEASUREMENT
 70
     1
  9
$CELWEIGHT
370
     0
  9
$ENDCAPS
280
     0
  9
$JOINSTYLE
280
     0
  9
$LWDISPLAY
290
     0
  9
$INSUNITS
 70
     0
  9
$HYPERLINKBASE
  1

  9
$STYLESHEET
  1

  9
$XEDIT
290
     1
  9
$CEPSNTYPE
380
     0
  9
$PSTYLEMODE
290
     1
  9
$FINGERPRINTGUID
  2

  9
$VERSIONGUID
  2
{45CDA16F-DB25-49FA-BAC8-0ED2019E3678}
  9
$EXTNAMES
290
     1
  9
$PSVPSCALE
 40
0.0
  9
$OLESTARTUP
290
     0
  0
ENDSEC
  0
SECTION
  2
CLASSES
  0
CLASS
  1
IMAGE
  2
AcDbRasterImage
  3
ISM
 90
      127
280
     0
281
     1
  0
CLASS
  1
DICTIONARYVAR
  2
AcDbDictionaryVar
  3
ObjectDBX Classes
 90
        0
280
     0
281
     0
  0
CLASS
  1
RASTERVARIABLES
  2
AcDbRasterVariables
  3
ISM
 90
        0
280
     0
281
     0
  0
CLASS
  1
IMAGEDEF
  2
AcDbRasterImageDef
  3
ISM
 90
        0
280
     0
281
     0
  0
CLASS
  1
IMAGEDEF_REACTOR
  2
AcDbRasterImageDefReactor
  3
ISM
 90
        1
280
     0
281
     0
  0
CLASS
  1
IDBUFFER
  2
AcDbIdBuffer
  3
ObjectDBX Classes
 90
        0
280
     0
281
     0
  0
CLASS
  1
SPATIAL_FILTER
  2
AcDbSpatialFilter
  3
ObjectDBX Classes
 90
        0
280
     0
281
     0
  0
CLASS
  1
SORTENTSTABLE
  2
AcDbSortentsTable
  3
ObjectDBX Classes
 90
        0
280
     0
281
     0
  0
CLASS
  1
LAYER_INDEX
  2
AcDbLayerIndex
  3
ObjectDBX Classes
 90
        0
280
     0
281
     0
  0
CLASS
  1
SPATIAL_INDEX
  2
AcDbSpatialIndex
  3
AutoCAD 2000
 90
        0
280
     0
281
     0
  0
CLASS
  1
OBJECT_PTR
  2
CAseDLPNTableRecord
  3
ASE-LPNTableRecord
 90
        1
280
     0
281
     0
  0
CLASS
  1
LAYOUT
  2
AcDbLayout
  3
ObjectDBX Classes
 90
        0
280
     0
281
     0
  0
CLASS
  1
PLOTSETTINGS
  2
AcDbPlotSettings
  3
ObjectDBX Classes
 90
        0
280
     0
281
     0
  0
CLASS
  1
ACDBDICTIONARYWDFLT
  2
AcDbDictionaryWithDefault
  3
ObjectDBX Classes
 90
        0
280
     0
281
     0
  0
CLASS
  1
ACDBPLACEHOLDER
  2
AcDbPlaceHolder
  3
ObjectDBX Classes
 90
        0
280
     0
281
     0
  0
CLASS
  1
VBA_PROJECT
  2
AcDbVbaProject
  3
ObjectDBX Classes
 90
        0
280
     0
281
     0
  0
CLASS
  1
WIPEOUT
  2
AcDbWipeout
  3
WipeOut|AutoCAD Express Tool|expresstools@autodesk.com
 90
      127
280
     0
281
     1
  0
CLASS
  1
WIPEOUTVARIABLES
  2
AcDbWipeoutVariables
  3
WipeOut|AutoCAD Express Tool|expresstools@autodesk.com
 90
        0
280
     0
281
     0
  0
CLASS
  1
RTEXT
  2
RText
  3
RText|AutoCAD Express Tool|expresstools@autodesk.com
 90
        0
280
     0
281
     1
  0
CLASS
  1
ARCALIGNEDTEXT
  2
AcDbArcAlignedText
  3
ATEXT|AutoCAD Express Tool|expresstools@autodesk.com
 90
        0
280
     0
281
     1
  0
CLASS
  1
MATERIAL
  2
AcDbMaterial
  3
ObjectDBX Classes
 90
     1153
280
     0
281
     0
  0
CLASS
  1
VISUALSTYLE
  2
AcDbVisualStyle
  3
ObjectDBX Classes
 90
     4095
280
     0
281
     0
  0
CLASS
  1
TABLESTYLE
  2
AcDbTableStyle
  3
ObjectDBX Classes
 90
     4095
280
     0
281
     0
  0
CLASS
  1
SCALE
  2
AcDbScale
  3
ObjectDBX Classes
 90
     1153
280
     0
281
     0
  0
CLASS
  1
MLEADERSTYLE
  2
AcDbMLeaderStyle
  3
ACDB_MLEADERSTYLE_CLASS
 90
     4095
280
     0
281
     0
  0
CLASS
  1
CELLSTYLEMAP
  2
AcDbCellStyleMap
  3
ObjectDBX Classes
 90
     1152
280
     0
281
     0
  0
ENDSEC
  0
SECTION
  2
TABLES
  0
TABLE
  2
VPORT
  5
7
330
0
100
AcDbSymbolTable
 70
     1
  0
VPORT
  5
15
330
7
100
AcDbSymbolTableRecord
100
AcDbViewportTableRecord
  2
*ACTIVE
 70
     0
 10
0.0
 20
0.0
 11
1.0
 21
1.0
 12
-4.913347043937449
 22
34.78021303191365
 13
0.0
 23
0.0
 14
1.0
 24
1.0
 15
0.0
 25
0.0
 16
0.0
 26
0.0
 36
1.0
 17
0.0
 27
0.0
 37
0.0
 40
359.2940666328995
 41
2.230492196878751
 42
50.0
 43
0.0
 44
0.0
 50
0.0
 51
0.0
 71
    16
 72
   100
 73
     1
 74
     1
 75
     0
 76
     1
 77
     0
 78
     0
281
     0
 65
     0
110
0.0
120
0.0
130
0.0
111
1.0
121
0.0
131
0.0
112
0.0
122
1.0
132
0.0
 79
     0
146
0.0
  0
ENDTAB
  0
TABLE
  2
LTYPE
  5
4
330
0
100
AcDbSymbolTable
 70
     2
  0
LTYPE
  5
11
330
4
100
AcDbSymbolTableRecord
100
AcDbLinetypeTableRecord
  2
ByBlock
 70
     0
  3

 72
    65
 73
     0
 40
0.0
  0
LTYPE
  5
12
330
4
100
AcDbSymbolTableRecord
100
AcDbLinetypeTableRecord
  2
ByLayer
 70
     0
  3

 72
    65
 73
     0
 40
0.0
  0
LTYPE
  5
13
330
4
100
AcDbSymbolTableRecord
100
AcDbLinetypeTableRecord
  2
Continuous
 70
     0
  3
Solid line
 72
    65
 73
     0
 40
0.0
  0
LTYPE
  5
690
330
4
100
AcDbSymbolTableRecord
100
AcDbLinetypeTableRecord
  2
CENTER
 70
     0
  3
____ _ ____ _ ____ _ ____ _ ____ _ ____ _ ____
 72
    65
 73
     4
 40
2.0
 49
1.25
 74
     0
 49
-0.25
 74
     0
 49
0.25
 74
     0
 49
-0.25
 74
     0
  0
ENDTAB
  0
TABLE
  2
LAYER
  5
2
330
0
100
AcDbSymbolTable
 70
     2
  0
LAYER
  5
14
102
{ACAD_XDICTIONARY
360
4441
102
}
330
2
100
AcDbSymbolTableRecord
100
AcDbLayerTableRecord
  2
0
 70
     0
 62
     7
  6
Continuous
370
    -3
390
1D
  0
LAYER
  5
5064
330
2
100
AcDbSymbolTableRecord
100
AcDbLayerTableRecord
  2
Defpoints
 70
     0
 62
     7
  6
Continuous
290
     0
370
    -3
390
1D
  0
ENDTAB
  0
TABLE
  2
STYLE
  5
3
330
0
100
AcDbSymbolTable
 70
     1
  0
STYLE
  5
17
330
3
100
AcDbSymbolTableRecord
100
AcDbTextStyleTableRecord
  2
Standard
 70
     0
 40
0.0
 41
1.0
 50
0.0
 71
     0
 42
0.0
  3
I011000D.TTF
  4

1001
ACAD
1000
IsonormD
1071
        0
  0
ENDTAB
  0
TABLE
  2
VIEW
  5
5
330
0
100
AcDbSymbolTable
 70
     0
  0
ENDTAB
  0
TABLE
  2
UCS
  5
6
330
0
100
AcDbSymbolTable
 70
     0
  0
ENDTAB
  0
TABLE
  2
APPID
  5
8
330
0
100
AcDbSymbolTable
 70
     6
  0
APPID
  5
16
330
8
100
AcDbSymbolTableRecord
100
AcDbRegAppTableRecord
  2
ACAD
 70
     0
  0
APPID
  5
26
330
8
100
AcDbSymbolTableRecord
100
AcDbRegAppTableRecord
  2
TopSolid_Draft
 70
     0
  0
APPID
  5
2336
330
8
100
AcDbSymbolTableRecord
100
AcDbRegAppTableRecord
  2
ACAD_MLEADERVER
 70
     0
  0
APPID
  5
443F
330
8
100
AcDbSymbolTableRecord
100
AcDbRegAppTableRecord
  2
DCO15
 70
     0
  0
APPID
  5
44BD
330
8
100
AcDbSymbolTableRecord
100
AcDbRegAppTableRecord
  2
ACAD_EXEMPT_FROM_CAD_STANDARDS
 70
     0
  0
APPID
  5
57FA
330
8
100
AcDbSymbolTableRecord
100
AcDbRegAppTableRecord
  2
ACAD_DSTYLE_DIMRADIAL_EXTENSION
 70
     0
  0
ENDTAB
  0
TABLE
  2
DIMSTYLE
  5
9
330
0
100
AcDbSymbolTable
 70
     2
100
AcDbDimStyleTable
  0
DIMSTYLE
105
18
330
9
100
AcDbSymbolTableRecord
100
AcDbDimStyleTableRecord
  2
Standard
 70
     0
 41
1.25
 42
0.0
 44
0.75
 73
     0
 74
     0
 77
     1
140
2.5
146
0.8
147
1.25
176
     7
177
     7
271
     2
178
     7
271
     2
340
17
  0
DIMSTYLE
105
44D2
330
9
100
AcDbSymbolTableRecord
100
AcDbDimStyleTableRecord
  2
ISO-25
 70
     0
 41
2.5
 42
0.625
 43
3.75
 44
1.25
 73
     0
 74
     0
 77
     1
 78
     8
140
2.5
141
2.5
143
0.03937007874016
147
0.625
171
     3
172
     1
178
     0
271
     2
272
     2
274
     3
278
    44
283
     0
284
     8
340
17
  0
ENDTAB
  0
TABLE
  2
BLOCK_RECORD
  5
1
330
0
100
AcDbSymbolTable
 70
     2
  0
BLOCK_RECORD
  5
A
102
{ACAD_XDICTIONARY
360
233E
102
}
330
1
100
AcDbSymbolTableRecord
100
AcDbBlockTableRecord
  2
*MODEL_SPACE
340
20
  0
BLOCK_RECORD
  5
B
330
1
100
AcDbSymbolTableRecord
100
AcDbBlockTableRecord
  2
*PAPER_SPACE
340
21
  0
ENDTAB
  0
ENDSEC
  0
SECTION
  2
BLOCKS
  0
BLOCK
  5
D
330
A
100
AcDbEntity
  8
0
100
AcDbBlockBegin
  2
*MODEL_SPACE
 70
     0
 10
0.0
 20
0.0
 30
0.0
  3
*MODEL_SPACE
  1

  0
ENDBLK
  5
E
330
A
100
AcDbEntity
  8
0
100
AcDbBlockEnd
  0
BLOCK
  5
F
330
B
100
AcDbEntity
 67
     1
  8
0
100
AcDbBlockBegin
  2
*PAPER_SPACE
 70
     0
 10
0.0
 20
0.0
 30
0.0
  3
*PAPER_SPACE
  1

  0
ENDBLK
  5
10
330
B
100
AcDbEntity
 67
     1
  8
0
100
AcDbBlockEnd
  0
ENDSEC
  0
SECTION
  2
ENTITIES
  0
CIRCLE
  5
5079
330
A
100
AcDbEntity
  8
0
  6
Continuous
370
     0
100
AcDbCircle
 10
216.2697182171847
 20
22.80143236963107
 30
0.0
 40
0.0
  0
CIRCLE
  5
507A
330
A
100
AcDbEntity
  8
0
  6
Continuous
370
     0
100
AcDbCircle
 10
216.2697182171847
 20
22.80143236963107
 30
0.0
 40
0.0
  0
CIRCLE
  5
507B
330
A
100
AcDbEntity
  8
0
  6
Continuous
370
     0
100
AcDbCircle
 10
216.2697182171847
 20
22.80143236963107
 30
0.0
 40
0.0
  0
TEXT
  5
5505
330
A
100
AcDbEntity
  8
0
  6
Continuous
 62
     7
370
     0
100
AcDbText
 10
-71.6524544315173
 20
158.9499685658226
 30
0.0
 40
21.0
  1
6840
100
AcDbText
  0
LINE
  5
5506
330
A
100
AcDbEntity
  8
0
  6
Continuous
 62
     7
370
    15
100
AcDbLine
 10
-0.2500000409781933
 20
52.86751859907437
 30
0.0
 11
0.0
 21
52.86751859907437
 31
0.0
  0
LINE
  5
5507
330
A
100
AcDbEntity
  8
0
  6
Continuous
 62
     7
370
    15
100
AcDbLine
 10
-0.2500000409781933
 20
127.8675215793066
 30
0.0
 11
0.0
 21
127.8675215793066
 31
0.0
  0
LINE
  5
5508
330
A
100
AcDbEntity
  8
0
  6
Continuous
 62
     7
370
    15
100
AcDbLine
 10
0.0
 20
127.8675215793066
 30
0.0
 11
0.0
 21
52.86751859907437
 31
0.0
  0
ARC
  5
5509
330
A
100
AcDbEntity
  8
0
  6
Continuous
 62
     7
370
    15
100
AcDbCircle
 10
-2.250000179294943
 20
137.6175223134806
 30
0.0
 40
2.0
100
AcDbArc
 50
0.0000000023563585
 51
90.00000000235474
  0
LINE
  5
550A
330
A
100
AcDbEntity
  8
0
  6
Continuous
 62
     7
370
    15
100
AcDbLine
 10
-2.249999903142452
 20
42.1175228906088
 30
0.0
 11
-77.24999822676182
 21
42.1175228906088
 31
0.0
  0
LINE
  5
550B
330
A
100
AcDbEntity
  8
0
  6
Continuous
 62
     7
370
    15
100
AcDbLine
 10
-77.24999822676182
 20
139.6175193143301
 30
0.0
 11
-2.249999903142452
 21
139.6175193143301
 31
0.0
  0
ARC
  5
550C
330
A
100
AcDbEntity
  8
0
  6
Continuous
 62
     7
370
    15
100
AcDbCircle
 10
-77.25000017539492
 20
46.61752231039787
 30
0.0
 40
4.5
100
AcDbArc
 50
180.0000000023558
 51
270.0000000023565
  0
LINE
  5
550D
330
A
100
AcDbEntity
  8
0
  6
Continuous
 62
     7
370
    15
100
AcDbLine
 10
-81.74999989569187
 20
46.61752455953885
 30
0.0
 11
-81.74999989569187
 21
135.1175176454001
 31
0.0
  0
LINE
  5
550E
330
A
100
AcDbEntity
  8
0
  6
CENTER
 62
     1
100
AcDbLine
 10
-72.2500000409782
 20
120.8675211024695
 30
0.0
 11
-72.2500000409782
 21
60.86752110246945
 31
0.0
  0
ARC
  5
550F
330
A
100
AcDbEntity
  8
0
  6
Continuous
 62
     7
370
    15
100
AcDbCircle
 10
-2.250000175451703
 20
44.11752231348063
 30
0.0
 40
1.999999999999972
100
AcDbArc
 50
270.0000000023531
 51
0.00000000235473
  0
ARC
  5
5510
330
A
100
AcDbEntity
  8
0
  6
Continuous
 62
     7
370
    15
100
AcDbCircle
 10
-77.25000017903255
 20
135.1175223103979
 30
0.0
 40
4.5
100
AcDbArc
 50
90.00000000235582
 51
180.0000000023566
  0
ARC
  5
5511
330
A
100
AcDbEntity
  8
0
  6
Continuous
 62
     7
370
     0
100
AcDbCircle
 10
-2.250000179294943
 20
137.6175223134806
 30
0.0
 40
1.0
100
AcDbArc
 50
0.00000000235473
 51
90.00000000235474
  0
LINE
  5
5512
330
A
100
AcDbEntity
  8
0
  6
Continuous
 62
     7
370
     0
100
AcDbLine
 10
-2.249999903142452
 20
138.6175172877722
 30
0.0
 11
-2.249999903142452
 21
139.6175193143301
 31
0.0
  0
LINE
  5
5513
330
A
100
AcDbEntity
  8
0
  6
Continuous
 62
     7
370
     0
100
AcDbLine
 10
-1.250000204890966
 20
137.6175152612143
 30
0.0
 11
-0.2500000409781933
 21
137.6175152612143
 31
0.0
  0
LINE
  5
5514
330
A
100
AcDbEntity
  8
0
  6
Continuous
 62
     7
370
     0
100
AcDbLine
 10
-77.24999822676182
 20
42.1175228906088
 30
0.0
 11
-77.24999822676182
 21
43.11752491716672
 31
0.0
  0
LINE
  5
5515
330
A
100
AcDbEntity
  8
0
  6
Continuous
 62
     7
370
     0
100
AcDbLine
 10
-77.24999822676182
 20
43.11752491716672
 30
0.0
 11
-2.249999903142452
 21
43.11752491716672
 31
0.0
  0
LINE
  5
5516
330
A
100
AcDbEntity
  8
0
  6
Continuous
 62
     7
370
     0
100
AcDbLine
 10
-2.249999903142452
 20
42.1175228906088
 30
0.0
 11
-2.249999903142452
 21
43.11752491716672
 31
0.0
  0
LINE
  5
5517
330
A
100
AcDbEntity
  8
0
  6
Continuous
 62
     7
370
     0
100
AcDbLine
 10
-2.249999903142452
 20
138.6175172877722
 30
0.0
 11
-77.24999822676182
 21
138.6175172877722
 31
0.0
  0
LINE
  5
5518
330
A
100
AcDbEntity
  8
0
  6
Continuous
 62
     7
370
     0
100
AcDbLine
 10
-77.24999822676182
 20
138.6175172877722
 30
0.0
 11
-77.24999822676182
 21
139.6175193143301
 31
0.0
  0
LINE
  5
5519
330
A
100
AcDbEntity
  8
0
  6
Continuous
 62
     7
370
     0
100
AcDbLine
 10
-81.74999989569187
 20
46.61752455953885
 30
0.0
 11
-80.74999786913395
 21
46.61752455953885
 31
0.0
  0
ARC
  5
551A
330
A
100
AcDbEntity
  8
0
  6
Continuous
 62
     7
370
     0
100
AcDbCircle
 10
-77.25000017539492
 20
46.61752231039787
 30
0.0
 40
3.5
100
AcDbArc
 50
180.0000000023566
 51
270.0000000023561
  0
LINE
  5
551B
330
A
100
AcDbEntity
  8
0
  6
Continuous
 62
     7
370
     0
100
AcDbLine
 10
-1.250000204890966
 20
44.11751949314404
 30
0.0
 11
-1.250000204890966
 21
137.6175152612143
 31
0.0
  0
ARC
  5
551C
330
A
100
AcDbEntity
  8
0
  6
Continuous
 62
     7
370
     0
100
AcDbCircle
 10
-2.250000175451703
 20
44.11752231348063
 30
0.0
 40
0.9999999999999432
100
AcDbArc
 50
270.0000000023547
 51
0.0000000023563585
  0
LINE
  5
551D
330
A
100
AcDbEntity
  8
0
  6
Continuous
 62
     7
370
     0
100
AcDbLine
 10
-80.74999786913395
 20
135.1175176454001
 30
0.0
 11
-80.74999786913395
 21
46.61752455953885
 31
0.0
  0
ARC
  5
551E
330
A
100
AcDbEntity
  8
0
  6
Continuous
 62
     7
370
     0
100
AcDbCircle
 10
-77.25000017903255
 20
135.1175223103979
 30
0.0
 40
3.5
100
AcDbArc
 50
90.00000000235613
 51
180.0000000023566
  0
LINE
  5
551F
330
A
100
AcDbEntity
  8
0
  6
Continuous
 62
     7
370
     0
100
AcDbLine
 10
-80.74999786913395
 20
135.1175176454001
 30
0.0
 11
-81.74999989569187
 21
135.1175176454001
 31
0.0
  0
LINE
  5
5520
330
A
100
AcDbEntity
  8
0
  6
Continuous
 62
     7
370
     0
100
AcDbLine
 10
-0.2500000409781933
 20
44.11751949314404
 30
0.0
 11
-1.250000204890966
 21
44.11751949314404
 31
0.0
  0
LINE
  5
5521
330
A
100
AcDbEntity
  8
0
  6
Continuous
 62
     7
370
    15
100
AcDbLine
 10
-121.509402837009
 20
127.8675215793066
 30
0.0
 11
-139.5094020621486
 21
127.8675215793066
 31
0.0
  0
LINE
  5
5522
330
A
100
AcDbEntity
  8
0
  6
Continuous
 62
     7
370
    15
100
AcDbLine
 10
-121.509402837009
 20
52.86751859907437
 30
0.0
 11
-121.509402837009
 21
127.8675215793066
 31
0.0
  0
LINE
  5
5523
330
A
100
AcDbEntity
  8
0
  6
Continuous
 62
     7
370
    15
100
AcDbLine
 10
-139.5094020621486
 20
52.86751859907437
 30
0.0
 11
-121.509402837009
 21
52.86751859907437
 31
0.0
  0
LINE
  5
5524
330
A
100
AcDbEntity
  8
0
  6
Continuous
 62
     7
370
    15
100
AcDbLine
 10
-139.5094020621486
 20
127.8675215793066
 30
0.0
 11
-139.5094020621486
 21
52.86751859907437
 31
0.0
  0
ARC
  5
5525
330
A
100
AcDbEntity
  8
0
  6
Continuous
 62
     7
370
    15
100
AcDbCircle
 10
-127.7594032029356
 20
102.8675223135731
 30
0.0
 40
2.500000000000028
100
AcDbArc
 50
0.0
 51
90.0
  0
LINE
  5
5526
330
A
100
AcDbEntity
  8
0
  6
Continuous
 62
     7
370
    15
100
AcDbLine
 10
-133.2594042973228
 20
105.3675281358175
 30
0.0
 11
-127.7594043271251
 21
105.3675281358175
 31
0.0
  0
ARC
  5
5527
330
A
100
AcDbEntity
  8
0
  6
Continuous
 62
     7
370
    15
100
AcDbCircle
 10
-133.2594032029356
 20
102.8675223135731
 30
0.0
 40
2.500000000000028
100
AcDbArc
 50
90.0
 51
180.0
  0
LINE
  5
5528
330
A
100
AcDbEntity
  8
0
  6
Continuous
 62
     7
370
    15
100
AcDbLine
 10
-135.759401913137
 20
77.86752455953885
 30
0.0
 11
-135.759401913137
 21
102.8675156188421
 31
0.0
  0
ARC
  5
5529
330
A
100
AcDbEntity
  8
0
  6
Continuous
 62
     7
370
    15
100
AcDbCircle
 10
-133.2594032029356
 20
77.86752231357312
 30
0.0
 40
2.5
100
AcDbArc
 50
180.0
 51
270.0
  0
LINE
  5
552A
330
A
100
AcDbEntity
  8
0
  6
Continuous
 62
     7
370
    15
100
AcDbLine
 10
-127.7594043271251
 20
75.36751949314404
 30
0.0
 11
-133.2594042973228
 21
75.36751949314404
 31
0.0
  0
ARC
  5
552B
330
A
100
AcDbEntity
  8
0
  6
Continuous
 62
     7
370
    15
100
AcDbCircle
 10
-127.7594032029356
 20
77.86752231357312
 30
0.0
 40
2.5
100
AcDbArc
 50
270.0
 51
0.0
  0
LINE
  5
552C
330
A
100
AcDbEntity
  8
0
  6
Continuous
 62
     7
370
    15
100
AcDbLine
 10
-125.2594067113109
 20
102.8675156188421
 30
0.0
 11
-125.2594067113109
 21
77.86752455953885
 31
0.0
  0
CIRCLE
  5
552D
330
A
100
AcDbEntity
  8
0
  6
Continuous
 62
     7
370
    15
100
AcDbCircle
 10
-130.5094032029356
 20
57.36752231357309
 30
0.0
 40
4.200000000000003
  0
CIRCLE
  5
552E
330
A
100
AcDbEntity
  8
0
  6
Continuous
 62
     7
370
    15
100
AcDbCircle
 10
-130.5094032029356
 20
123.3675223135731
 30
0.0
 40
4.200000000000003
  0
LINE
  5
552F
330
A
100
AcDbEntity
  8
0
  6
Continuous
 62
     7
370
    15
100
AcDbLine
 10
-124.709404851646
 20
43.86752271179486
 30
0.0
 11
-125.209405864925
 21
43.86752271179486
 31
0.0
  0
LINE
  5
5530
330
A
100
AcDbEntity
  8
0
  6
Continuous
 62
     7
370
    15
100
AcDbLine
 10
-125.209405864925
 20
43.86752271179486
 30
0.0
 11
-125.209405864925
 21
44.86752473835278
 31
0.0
  0
LINE
  5
5531
330
A
100
AcDbEntity
  8
0
  6
Continuous
 62
     7
370
    15
100
AcDbLine
 10
-125.209405864925
 20
44.86752473835278
 30
0.0
 11
-125.209405864925
 21
50.86752199653912
 31
0.0
  0
LINE
  5
5532
330
A
100
AcDbEntity
  8
0
  6
Continuous
 62
     7
370
    15
100
AcDbLine
 10
-124.709404851646
 20
51.86752402309705
 30
0.0
 11
-125.209405864925
 21
51.86752402309705
 31
0.0
  0
LINE
  5
5533
330
A
100
AcDbEntity
  8
0
  6
Continuous
 62
     7
370
    15
100
AcDbLine
 10
-125.209405864925
 20
50.86752199653912
 30
0.0
 11
-125.209405864925
 21
51.86752402309705
 31
0.0
  0
LINE
  5
5534
330
A
100
AcDbEntity
  8
0
  6
Continuous
 62
     7
370
    15
100
AcDbLine
 10
-124.709404851646
 20
129.8675256324225
 30
0.0
 11
-125.209405864925
 21
129.8675256324225
 31
0.0
  0
LINE
  5
5535
330
A
100
AcDbEntity
  8
0
  6
Continuous
 62
     7
370
    15
100
AcDbLine
 10
-125.209405864925
 20
129.8675256324225
 30
0.0
 11
-125.209405864925
 21
130.8675276589804
 31
0.0
  0
LINE
  5
5536
330
A
100
AcDbEntity
  8
0
  6
Continuous
 62
     7
370
    15
100
AcDbLine
 10
-125.209405864925
 20
130.8675276589804
 30
0.0
 11
-125.209405864925
 21
136.8675249171667
 31
0.0
  0
LINE
  5
5537
330
A
100
AcDbEntity
  8
0
  6
Continuous
 62
     7
370
    15
100
AcDbLine
 10
-124.709404851646
 20
137.8675269437246
 30
0.0
 11
-125.209405864925
 21
137.8675269437246
 31
0.0
  0
LINE
  5
5538
330
A
100
AcDbEntity
  8
0
  6
Continuous
 62
     7
370
    15
100
AcDbLine
 10
-125.209405864925
 20
136.8675249171667
 30
0.0
 11
-125.209405864925
 21
137.8675269437246
 31
0.0
  0
LINE
  5
5539
330
A
100
AcDbEntity
  8
0
  6
Continuous
 62
     7
370
    15
100
AcDbLine
 10
-125.209405864925
 20
51.86752402309705
 30
0.0
 11
-125.209405864925
 21
52.36752503637601
 31
0.0
  0
LINE
  5
553A
330
A
100
AcDbEntity
  8
0
  6
Continuous
 62
     7
370
    15
100
AcDbLine
 10
-125.209405864925
 20
128.8675236058645
 30
0.0
 11
-125.209405864925
 21
129.8675256324225
 31
0.0
  0
LINE
  5
553B
330
A
100
AcDbEntity
  8
0
  6
Continuous
 62
     7
370
    15
100
AcDbLine
 10
-125.209405864925
 20
128.367515142005
 30
0.0
 11
-125.209405864925
 21
128.8675236058645
 31
0.0
  0
LINE
  5
553C
330
A
100
AcDbEntity
  8
0
  6
Continuous
 62
     7
370
    15
100
AcDbLine
 10
-133.2094034509368
 20
43.86752271179486
 30
0.0
 11
-135.1094020859904
 21
43.86752271179486
 31
0.0
  0
LINE
  5
553D
330
A
100
AcDbEntity
  8
0
  6
Continuous
 62
     7
370
    15
100
AcDbLine
 10
-134.6094047980018
 20
43.86752271179486
 30
0.0
 11
-134.6094047980018
 21
44.86752473835278
 31
0.0
  0
LINE
  5
553E
330
A
100
AcDbEntity
  8
0
  6
Continuous
 62
     7
370
    15
100
AcDbLine
 10
-133.2094034509368
 20
43.86752271179486
 30
0.0
 11
-133.2094034509368
 21
44.86752473835278
 31
0.0
  0
LINE
  5
553F
330
A
100
AcDbEntity
  8
0
  6
Continuous
 62
     7
370
    15
100
AcDbLine
 10
-134.6094047980018
 20
44.86752473835278
 30
0.0
 11
-134.6094047980018
 21
50.86752199653912
 31
0.0
  0
LINE
  5
5540
330
A
100
AcDbEntity
  8
0
  6
Continuous
 62
     7
370
    15
100
AcDbLine
 10
-133.2094034509368
 20
44.86752473835278
 30
0.0
 11
-133.2094034509368
 21
50.86752199653912
 31
0.0
  0
LINE
  5
5541
330
A
100
AcDbEntity
  8
0
  6
Continuous
 62
     7
370
    15
100
AcDbLine
 10
-133.2094034509368
 20
51.86752402309705
 30
0.0
 11
-135.1094020859904
 21
51.86752402309705
 31
0.0
  0
LINE
  5
5542
330
A
100
AcDbEntity
  8
0
  6
Continuous
 62
     7
370
    15
100
AcDbLine
 10
-134.6094047980018
 20
50.86752199653912
 30
0.0
 11
-134.6094047980018
 21
51.86752402309705
 31
0.0
  0
LINE
  5
5543
330
A
100
AcDbEntity
  8
0
  6
Continuous
 62
     7
370
    15
100
AcDbLine
 10
-133.2094034509368
 20
50.86752199653912
 30
0.0
 11
-133.2094034509368
 21
51.86752402309705
 31
0.0
  0
LINE
  5
5544
330
A
100
AcDbEntity
  8
0
  6
Continuous
 62
     7
370
    15
100
AcDbLine
 10
-133.2094034509368
 20
129.8675256324225
 30
0.0
 11
-135.1094020859904
 21
129.8675256324225
 31
0.0
  0
LINE
  5
5545
330
A
100
AcDbEntity
  8
0
  6
Continuous
 62
     7
370
    15
100
AcDbLine
 10
-134.6094047980018
 20
129.8675256324225
 30
0.0
 11
-134.6094047980018
 21
130.8675276589804
 31
0.0
  0
LINE
  5
5546
330
A
100
AcDbEntity
  8
0
  6
Continuous
 62
     7
370
    15
100
AcDbLine
 10
-133.2094034509368
 20
129.8675256324225
 30
0.0
 11
-133.2094034509368
 21
130.8675276589804
 31
0.0
  0
LINE
  5
5547
330
A
100
AcDbEntity
  8
0
  6
Continuous
 62
     7
370
    15
100
AcDbLine
 10
-134.6094047980018
 20
130.8675276589804
 30
0.0
 11
-134.6094047980018
 21
136.8675249171667
 31
0.0
  0
LINE
  5
5548
330
A
100
AcDbEntity
  8
0
  6
Continuous
 62
     7
370
    15
100
AcDbLine
 10
-133.2094034509368
 20
130.8675276589804
 30
0.0
 11
-133.2094034509368
 21
136.8675249171667
 31
0.0
  0
LINE
  5
5549
330
A
100
AcDbEntity
  8
0
  6
Continuous
 62
     7
370
    15
100
AcDbLine
 10
-133.2094034509368
 20
137.8675269437246
 30
0.0
 11
-135.1094020859904
 21
137.8675269437246
 31
0.0
  0
LINE
  5
554A
330
A
100
AcDbEntity
  8
0
  6
Continuous
 62
     7
370
    15
100
AcDbLine
 10
-134.6094047980018
 20
136.8675249171667
 30
0.0
 11
-134.6094047980018
 21
137.8675269437246
 31
0.0
  0
LINE
  5
554B
330
A
100
AcDbEntity
  8
0
  6
Continuous
 62
     7
370
    15
100
AcDbLine
 10
-133.2094034509368
 20
136.8675249171667
 30
0.0
 11
-133.2094034509368
 21
137.8675269437246
 31
0.0
  0
LINE
  5
554C
330
A
100
AcDbEntity
  8
0
  6
Continuous
 62
     7
370
    15
100
AcDbLine
 10
-134.6094047980018
 20
51.86752402309705
 30
0.0
 11
-134.6094047980018
 21
52.36752503637601
 31
0.0
  0
LINE
  5
554D
330
A
100
AcDbEntity
  8
0
  6
Continuous
 62
     7
370
    15
100
AcDbLine
 10
-133.2094034509368
 20
51.86752402309705
 30
0.0
 11
-133.2094034509368
 21
52.36752503637601
 31
0.0
  0
LINE
  5
554E
330
A
100
AcDbEntity
  8
0
  6
Continuous
 62
     7
370
    15
100
AcDbLine
 10
-134.6094047980018
 20
128.8675236058645
 30
0.0
 11
-134.6094047980018
 21
129.8675256324225
 31
0.0
  0
LINE
  5
554F
330
A
100
AcDbEntity
  8
0
  6
Continuous
 62
     7
370
    15
100
AcDbLine
 10
-133.2094034509368
 20
128.8675236058645
 30
0.0
 11
-133.2094034509368
 21
129.8675256324225
 31
0.0
  0
LINE
  5
5550
330
A
100
AcDbEntity
  8
0
  6
Continuous
 62
     7
370
    15
100
AcDbLine
 10
-134.6094047980018
 20
128.367515142005
 30
0.0
 11
-134.6094047980018
 21
128.8675236058645
 31
0.0
  0
LINE
  5
5551
330
A
100
AcDbEntity
  8
0
  6
Continuous
 62
     7
370
    15
100
AcDbLine
 10
-133.2094034509368
 20
128.367515142005
 30
0.0
 11
-133.2094034509368
 21
128.8675236058645
 31
0.0
  0
CIRCLE
  5
5552
330
A
100
AcDbEntity
  8
0
  6
Continuous
 62
     7
370
    15
100
AcDbCircle
 10
-130.5094032029356
 20
57.36752231356493
 30
0.0
 40
4.0
  0
LINE
  5
5553
330
A
100
AcDbEntity
  8
0
  6
Continuous
 62
     7
370
    15
100
AcDbLine
 10
-130.1094031290717
 20
56.96752094749738
 30
0.0
 11
-128.2952426330752
 21
56.96752094749738
 31
0.0
  0
ARC
  5
5554
330
A
100
AcDbEntity
  8
0
  6
Continuous
 62
     7
370
    15
100
AcDbCircle
 10
-130.5094032029356
 20
57.36752231356493
 30
0.0
 40
2.249999999999996
100
AcDbArc
 50
349.7596516752591
 51
10.24034831763037
  0
LINE
  5
5555
330
A
100
AcDbEntity
  8
0
  6
Continuous
 62
     7
370
    15
100
AcDbLine
 10
-128.2952426330752
 20
57.76751958851148
 30
0.0
 11
-130.1094031290717
 21
57.76751958851148
 31
0.0
  0
LINE
  5
5556
330
A
100
AcDbEntity
  8
0
  6
Continuous
 62
     7
370
    15
100
AcDbLine
 10
-130.1094031290717
 20
57.76751958851148
 30
0.0
 11
-130.1094031290717
 21
59.58168380979825
 31
0.0
  0
ARC
  5
5557
330
A
100
AcDbEntity
  8
0
  6
Continuous
 62
     7
370
    15
100
AcDbCircle
 10
-130.5094032029356
 20
57.36752231356493
 30
0.0
 40
2.249999999999996
100
AcDbArc
 50
79.75965167525906
 51
100.2403483176304
  0
LINE
  5
5558
330
A
100
AcDbEntity
  8
0
  6
Continuous
 62
     7
370
    15
100
AcDbLine
 10
-130.9094017700858
 20
59.58168380979825
 30
0.0
 11
-130.9094017700858
 21
57.76751958851148
 31
0.0
  0
LINE
  5
5559
330
A
100
AcDbEntity
  8
0
  6
Continuous
 62
     7
370
    15
100
AcDbLine
 10
-130.9094017700858
 20
57.76751958851148
 30
0.0
 11
-132.7235622660823
 21
57.76751958851148
 31
0.0
  0
ARC
  5
555A
330
A
100
AcDbEntity
  8
0
  6
Continuous
 62
     7
370
    15
100
AcDbCircle
 10
-130.5094032029356
 20
57.36752231356493
 30
0.0
 40
2.250000000000011
100
AcDbArc
 50
169.7596516752585
 51
190.2403483176318
  0
LINE
  5
555B
330
A
100
AcDbEntity
  8
0
  6
Continuous
 62
     7
370
    15
100
AcDbLine
 10
-132.7235622660823
 20
56.96752094749738
 30
0.0
 11
-130.9094017700858
 21
56.96752094749738
 31
0.0
  0
LINE
  5
555C
330
A
100
AcDbEntity
  8
0
  6
Continuous
 62
     7
370
    15
100
AcDbLine
 10
-130.9094017700858
 20
56.96752094749738
 30
0.0
 11
-130.9094017700858
 21
55.1533641767912
 31
0.0
  0
ARC
  5
555D
330
A
100
AcDbEntity
  8
0
  6
Continuous
 62
     7
370
    15
100
AcDbCircle
 10
-130.5094032029356
 20
57.36752231356493
 30
0.0
 40
2.250000000000004
100
AcDbArc
 50
259.7596516752591
 51
280.2403483176304
  0
LINE
  5
555E
330
A
100
AcDbEntity
  8
0
  6
Continuous
 62
     7
370
    15
100
AcDbLine
 10
-130.1094031290717
 20
55.1533641767912
 30
0.0
 11
-130.1094031290717
 21
56.96752094749738
 31
0.0
  0
ARC
  5
555F
330
A
100
AcDbEntity
  8
0
  6
Continuous
 62
     7
370
    15
100
AcDbCircle
 10
-130.5094032029356
 20
57.36752231350326
 30
0.0
 40
1.704044648600711
100
AcDbArc
 50
256.4239602085626
 51
283.5760397843296
  0
ARC
  5
5560
330
A
100
AcDbEntity
  8
0
  6
Continuous
 62
     7
370
    15
100
AcDbCircle
 10
-130.5094032029356
 20
57.36752231350326
 30
0.0
 40
1.70404464860069
100
AcDbArc
 50
346.4239602085635
 51
13.5760397843277
  0
ARC
  5
5561
330
A
100
AcDbEntity
  8
0
  6
Continuous
 62
     7
370
    15
100
AcDbCircle
 10
-130.5094032029356
 20
57.36752231350326
 30
0.0
 40
1.704044648600704
100
AcDbArc
 50
166.4239602085607
 51
193.5760397843286
  0
ARC
  5
5562
330
A
100
AcDbEntity
  8
0
  6
Continuous
 62
     7
370
    15
100
AcDbCircle
 10
-130.5094032029356
 20
57.36752231350326
 30
0.0
 40
1.704044648600717
100
AcDbArc
 50
76.42396020856073
 51
103.5760397843275
  0
CIRCLE
  5
5563
330
A
100
AcDbEntity
  8
0
  6
Continuous
 62
     7
370
    15
100
AcDbCircle
 10
-130.5094032029356
 20
123.3675223135649
 30
0.0
 40
4.0
  0
LINE
  5
5564
330
A
100
AcDbEntity
  8
0
  6
Continuous
 62
     7
370
    15
100
AcDbLine
 10
-130.1094031290717
 20
122.9675280404501
 30
0.0
 11
-128.2952426330752
 21
122.9675280404501
 31
0.0
  0
ARC
  5
5565
330
A
100
AcDbEntity
  8
0
  6
Continuous
 62
     7
370
    15
100
AcDbCircle
 10
-130.5094032029356
 20
123.3675223135649
 30
0.0
 40
2.249999999999996
100
AcDbArc
 50
349.7596516752591
 51
10.24034831763108
  0
LINE
  5
5566
330
A
100
AcDbEntity
  8
0
  6
Continuous
 62
     7
370
    15
100
AcDbLine
 10
-128.2952426330752
 20
123.7675266814642
 30
0.0
 11
-130.1094031290717
 21
123.7675266814642
 31
0.0
  0
LINE
  5
5567
330
A
100
AcDbEntity
  8
0
  6
Continuous
 62
     7
370
    15
100
AcDbLine
 10
-130.1094031290717
 20
123.7675266814642
 30
0.0
 11
-130.1094031290717
 21
125.5816834521704
 31
0.0
  0
ARC
  5
5568
330
A
100
AcDbEntity
  8
0
  6
Continuous
 62
     7
370
    15
100
AcDbCircle
 10
-130.5094032029356
 20
123.3675223135649
 30
0.0
 40
2.250000000000062
100
AcDbArc
 50
79.7596516752594
 51
100.2403483176301
  0
LINE
  5
5569
330
A
100
AcDbEntity
  8
0
  6
Continuous
 62
     7
370
    15
100
AcDbLine
 10
-130.9094017700858
 20
125.5816834521704
 30
0.0
 11
-130.9094017700858
 21
123.7675266814642
 31
0.0
  0
LINE
  5
556A
330
A
100
AcDbEntity
  8
0
  6
Continuous
 62
     7
370
    15
100
AcDbLine
 10
-130.9094017700858
 20
123.7675266814642
 30
0.0
 11
-132.7235622660823
 21
123.7675266814642
 31
0.0
  0
ARC
  5
556B
330
A
100
AcDbEntity
  8
0
  6
Continuous
 62
     7
370
    15
100
AcDbCircle
 10
-130.5094032029356
 20
123.3675223135649
 30
0.0
 40
2.250000000000011
100
AcDbArc
 50
169.7596516752585
 51
190.2403483176303
  0
LINE
  5
556C
330
A
100
AcDbEntity
  8
0
  6
Continuous
 62
     7
370
    15
100
AcDbLine
 10
-132.7235622660823
 20
122.9675280404501
 30
0.0
 11
-130.9094017700858
 21
122.9675280404501
 31
0.0
  0
LINE
  5
556D
330
A
100
AcDbEntity
  8
0
  6
Continuous
 62
     7
370
    15
100
AcDbLine
 10
-130.9094017700858
 20
122.9675280404501
 30
0.0
 11
-130.9094017700858
 21
121.1533563685827
 31
0.0
  0
ARC
  5
556E
330
A
100
AcDbEntity
  8
0
  6
Continuous
 62
     7
370
    15
100
AcDbCircle
 10
-130.5094032029356
 20
123.3675223135649
 30
0.0
 40
2.249999999999976
100
AcDbArc
 50
259.759651675259
 51
280.2403483176305
  0
LINE
  5
556F
330
A
100
AcDbEntity
  8
0
  6
Continuous
 62
     7
370
    15
100
AcDbLine
 10
-130.1094031290717
 20
121.1533563685827
 30
0.0
 11
-130.1094031290717
 21
122.9675280404501
 31
0.0
  0
ARC
  5
5570
330
A
100
AcDbEntity
  8
0
  6
Continuous
 62
     7
370
    15
100
AcDbCircle
 10
-130.5094032029356
 20
123.3675223135033
 30
0.0
 40
1.704044648600717
100
AcDbArc
 50
256.4239602085607
 51
283.5760397843295
  0
ARC
  5
5571
330
A
100
AcDbEntity
  8
0
  6
Continuous
 62
     7
370
    15
100
AcDbCircle
 10
-130.5094032029356
 20
123.3675223135033
 30
0.0
 40
1.704044648600701
100
AcDbArc
 50
346.4239602085617
 51
13.5760397843277
  0
ARC
  5
5572
330
A
100
AcDbEntity
  8
0
  6
Continuous
 62
     7
370
    15
100
AcDbCircle
 10
-130.5094032029356
 20
123.3675223135033
 30
0.0
 40
1.704044648600704
100
AcDbArc
 50
166.4239602085617
 51
193.5760397843286
  0
ARC
  5
5573
330
A
100
AcDbEntity
  8
0
  6
Continuous
 62
     7
370
    15
100
AcDbCircle
 10
-130.5094032029356
 20
123.3675223135033
 30
0.0
 40
1.704044648600708
100
AcDbArc
 50
76.42396020856073
 51
103.5760397843276
  0
LINE
  5
5574
330
A
100
AcDbEntity
  8
0
  6
Continuous
 62
     7
370
    15
100
AcDbLine
 10
-116.7094035403438
 20
44.11751949314404
 30
0.0
 11
-116.7094035403438
 21
43.11752491716672
 31
0.0
  0
ARC
  5
5575
330
A
100
AcDbEntity
  8
0
  6
Continuous
 62
     7
370
    15
100
AcDbCircle
 10
-117.7094032029356
 20
43.11752231348063
 30
0.0
 40
1.0
100
AcDbArc
 50
270.0
 51
0.0
  0
LINE
  5
5576
330
A
100
AcDbEntity
  8
0
  6
Continuous
 62
     7
370
    15
100
AcDbLine
 10
-124.709404851646
 20
42.1175228906088
 30
0.0
 11
-124.709404851646
 21
44.11751949314404
 31
0.0
  0
LINE
  5
5577
330
A
100
AcDbEntity
  8
0
  6
Continuous
 62
     7
370
    15
100
AcDbLine
 10
-117.7094055669018
 20
42.1175228906088
 30
0.0
 11
-124.709404851646
 21
42.1175228906088
 31
0.0
  0
LINE
  5
5578
330
A
100
AcDbEntity
  8
0
  6
Continuous
 62
     7
370
    15
100
AcDbLine
 10
-116.7094035403438
 20
137.6175152612143
 30
0.0
 11
-116.7094035403438
 21
44.11751949314404
 31
0.0
  0
LINE
  5
5579
330
A
100
AcDbEntity
  8
0
  6
Continuous
 62
     7
370
    15
100
AcDbLine
 10
-121.509402837009
 20
53.36751961235333
 30
0.0
 11
-120.209403182716
 21
53.36751961235333
 31
0.0
  0
LINE
  5
557A
330
A
100
AcDbEntity
  8
0
  6
Continuous
 62
     7
370
    15
100
AcDbLine
 10
-120.209403182716
 20
128.367515142005
 30
0.0
 11
-120.209403182716
 21
53.36751961235333
 31
0.0
  0
LINE
  5
557B
330
A
100
AcDbEntity
  8
0
  6
Continuous
 62
     7
370
    15
100
AcDbLine
 10
-124.709404851646
 20
128.367515142005
 30
0.0
 11
-120.209403182716
 21
128.367515142005
 31
0.0
  0
LINE
  5
557C
330
A
100
AcDbEntity
  8
0
  6
Continuous
 62
     7
370
    15
100
AcDbLine
 10
-124.709404851646
 20
44.11751949314404
 30
0.0
 11
-124.709404851646
 21
52.86751859907437
 31
0.0
  0
LINE
  5
557D
330
A
100
AcDbEntity
  8
0
  6
Continuous
 62
     7
370
    15
100
AcDbLine
 10
-124.709404851646
 20
128.367515142005
 30
0.0
 11
-124.709404851646
 21
137.6175152612143
 31
0.0
  0
ARC
  5
557E
330
A
100
AcDbEntity
  8
0
  6
Continuous
 62
     7
370
    15
100
AcDbCircle
 10
-117.7094032029356
 20
138.6175223134806
 30
0.0
 40
1.0
100
AcDbArc
 50
0.0
 51
90.0
  0
LINE
  5
557F
330
A
100
AcDbEntity
  8
0
  6
Continuous
 62
     7
370
    15
100
AcDbLine
 10
-116.7094035403438
 20
138.6175172877722
 30
0.0
 11
-116.7094035403438
 21
137.6175152612143
 31
0.0
  0
LINE
  5
5580
330
A
100
AcDbEntity
  8
0
  6
Continuous
 62
     7
370
    15
100
AcDbLine
 10
-117.7094055669018
 20
139.6175193143301
 30
0.0
 11
-124.709404851646
 21
139.6175193143301
 31
0.0
  0
LINE
  5
5581
330
A
100
AcDbEntity
  8
0
  6
Continuous
 62
     7
370
    15
100
AcDbLine
 10
-124.709404851646
 20
137.6175152612143
 30
0.0
 11
-124.709404851646
 21
139.6175193143301
 31
0.0
  0
LINE
  5
5582
330
A
100
AcDbEntity
  8
0
  6
Continuous
 62
     7
370
    15
100
AcDbLine
 10
-142.1094013707347
 20
42.1175228906088
 30
0.0
 11
-135.1094020859904
 21
42.1175228906088
 31
0.0
  0
LINE
  5
5583
330
A
100
AcDbEntity
  8
0
  6
Continuous
 62
     7
370
    15
100
AcDbLine
 10
-135.1094020859904
 20
44.11751949314404
 30
0.0
 11
-135.1094020859904
 21
42.1175228906088
 31
0.0
  0
ARC
  5
5584
330
A
100
AcDbEntity
  8
0
  6
Continuous
 62
     7
370
    15
100
AcDbCircle
 10
-142.1094032029357
 20
43.11752231348069
 30
0.0
 40
1.000000000000028
100
AcDbArc
 50
180.0
 51
270.0000000000032
  0
LINE
  5
5585
330
A
100
AcDbEntity
  8
0
  6
Continuous
 62
     7
370
    15
100
AcDbLine
 10
-143.1094033972926
 20
43.11752491716672
 30
0.0
 11
-143.1094033972926
 21
44.11751949314404
 31
0.0
  0
LINE
  5
5586
330
A
100
AcDbEntity
  8
0
  6
Continuous
 62
     7
370
    15
100
AcDbLine
 10
-135.1094020859904
 20
128.367515142005
 30
0.0
 11
-139.6094037549205
 21
128.367515142005
 31
0.0
  0
LINE
  5
5587
330
A
100
AcDbEntity
  8
0
  6
Continuous
 62
     7
370
    15
100
AcDbLine
 10
-139.6094037549205
 20
53.36751961235333
 30
0.0
 11
-139.6094037549205
 21
128.367515142005
 31
0.0
  0
LINE
  5
5588
330
A
100
AcDbEntity
  8
0
  6
Continuous
 62
     7
370
    15
100
AcDbLine
 10
-139.5094020621486
 20
53.36751961235333
 30
0.0
 11
-139.6094037549205
 21
53.36751961235333
 31
0.0
  0
LINE
  5
5589
330
A
100
AcDbEntity
  8
0
  6
Continuous
 62
     7
370
    15
100
AcDbLine
 10
-135.1094020859904
 20
137.6175152612143
 30
0.0
 11
-135.1094020859904
 21
128.367515142005
 31
0.0
  0
LINE
  5
558A
330
A
100
AcDbEntity
  8
0
  6
Continuous
 62
     7
370
    15
100
AcDbLine
 10
-135.1094020859904
 20
52.86751859907437
 30
0.0
 11
-135.1094020859904
 21
44.11751949314404
 31
0.0
  0
LINE
  5
558B
330
A
100
AcDbEntity
  8
0
  6
Continuous
 62
     7
370
    15
100
AcDbLine
 10
-143.1094033972926
 20
44.11751949314404
 30
0.0
 11
-143.1094033972926
 21
137.6175152612143
 31
0.0
  0
LINE
  5
558C
330
A
100
AcDbEntity
  8
0
  6
Continuous
 62
     7
370
    15
100
AcDbLine
 10
-142.1094013707347
 20
139.6175193143301
 30
0.0
 11
-135.1094020859904
 21
139.6175193143301
 31
0.0
  0
LINE
  5
558D
330
A
100
AcDbEntity
  8
0
  6
Continuous
 62
     7
370
    15
100
AcDbLine
 10
-135.1094020859904
 20
139.6175193143301
 30
0.0
 11
-135.1094020859904
 21
137.6175152612143
 31
0.0
  0
LINE
  5
558E
330
A
100
AcDbEntity
  8
0
  6
Continuous
 62
     7
370
    15
100
AcDbLine
 10
-143.1094033972926
 20
137.6175152612143
 30
0.0
 11
-143.1094033972926
 21
138.6175172877722
 31
0.0
  0
ARC
  5
558F
330
A
100
AcDbEntity
  8
0
  6
Continuous
 62
     7
370
    15
100
AcDbCircle
 10
-142.1094032029357
 20
138.6175223134806
 30
0.0
 40
1.0
100
AcDbArc
 50
90.0
 51
180.0
  0
LINE
  5
5590
330
A
100
AcDbEntity
  8
0
  6
Continuous
 62
     7
370
    15
100
AcDbLine
 10
-139.5094020621486
 20
128.367515142005
 30
0.0
 11
-139.5094020621486
 21
127.8675215793066
 31
0.0
  0
LINE
  5
5591
330
A
100
AcDbEntity
  8
0
  6
Continuous
 62
     7
370
    15
100
AcDbLine
 10
-136.0094024197764
 20
127.8675215793066
 30
0.0
 11
-136.0094024197764
 21
128.367515142005
 31
0.0
  0
LINE
  5
5592
330
A
100
AcDbEntity
  8
0
  6
Continuous
 62
     7
370
    15
100
AcDbLine
 10
-130.5094024495788
 20
52.36752503637601
 30
0.0
 11
-135.1094020859904
 21
52.36752503637601
 31
0.0
  0
LINE
  5
5593
330
A
100
AcDbEntity
  8
0
  6
Continuous
 62
     7
370
    15
100
AcDbLine
 10
-130.5094024495788
 20
52.86751859907437
 30
0.0
 11
-130.5094024495788
 21
52.36752503637601
 31
0.0
  0
LINE
  5
5594
330
A
100
AcDbEntity
  8
0
  6
Continuous
 62
     7
370
    15
100
AcDbLine
 10
-130.5094024495788
 20
128.367515142005
 30
0.0
 11
-135.1094020859904
 21
128.367515142005
 31
0.0
  0
LINE
  5
5595
330
A
100
AcDbEntity
  8
0
  6
Continuous
 62
     7
370
    15
100
AcDbLine
 10
-130.5094024495788
 20
128.367515142005
 30
0.0
 11
-130.5094024495788
 21
127.8675215793066
 31
0.0
  0
LINE
  5
5596
330
A
100
AcDbEntity
  8
0
  6
Continuous
 62
     7
370
    15
100
AcDbLine
 10
-130.5094024495788
 20
105.3675281358175
 30
0.0
 11
-130.5094024495788
 21
75.36751949314404
 31
0.0
  0
LINE
  5
5597
330
A
100
AcDbEntity
  8
0
  6
Continuous
 62
     7
370
    15
100
AcDbLine
 10
-123.80940451786
 20
128.367515142005
 30
0.0
 11
-123.80940451786
 21
127.8675215793066
 31
0.0
  0
LINE
  5
5598
330
A
100
AcDbEntity
  8
0
  6
Continuous
 62
     7
370
    15
100
AcDbLine
 10
-129.3094044880576
 20
52.36752503637601
 30
0.0
 11
-124.709404851646
 21
52.36752503637601
 31
0.0
  0
LINE
  5
5599
330
A
100
AcDbEntity
  8
0
  6
Continuous
 62
     7
370
    15
100
AcDbLine
 10
-129.3094044880576
 20
52.36752503637601
 30
0.0
 11
-129.3094044880576
 21
52.86751859907437
 31
0.0
  0
LINE
  5
559A
330
A
100
AcDbEntity
  8
0
  6
Continuous
 62
     7
370
    15
100
AcDbLine
 10
-129.3094044880576
 20
128.367515142005
 30
0.0
 11
-124.709404851646
 21
128.367515142005
 31
0.0
  0
LINE
  5
559B
330
A
100
AcDbEntity
  8
0
  6
Continuous
 62
     7
370
    15
100
AcDbLine
 10
-129.3094044880576
 20
127.8675215793066
 30
0.0
 11
-129.3094044880576
 21
128.367515142005
 31
0.0
  0
LINE
  5
559C
330
A
100
AcDbEntity
  8
0
  6
Continuous
 62
     7
370
    15
100
AcDbLine
 10
-129.3094044880576
 20
75.36751949314404
 30
0.0
 11
-129.3094044880576
 21
105.3675281358175
 31
0.0
  0
LINE
  5
559D
330
A
100
AcDbEntity
  8
0
  6
Continuous
 62
     7
370
     0
100
AcDbLine
 10
-124.709404851646
 20
44.86752473835278
 30
0.0
 11
-125.209405864925
 21
44.86752473835278
 31
0.0
  0
LINE
  5
559E
330
A
100
AcDbEntity
  8
0
  6
Continuous
 62
     7
370
     0
100
AcDbLine
 10
-124.709404851646
 20
50.86752199653912
 30
0.0
 11
-125.209405864925
 21
50.86752199653912
 31
0.0
  0
LINE
  5
559F
330
A
100
AcDbEntity
  8
0
  6
Continuous
 62
     7
370
     0
100
AcDbLine
 10
-124.709404851646
 20
130.8675276589804
 30
0.0
 11
-125.209405864925
 21
130.8675276589804
 31
0.0
  0
LINE
  5
55A0
330
A
100
AcDbEntity
  8
0
  6
Continuous
 62
     7
370
     0
100
AcDbLine
 10
-124.709404851646
 20
136.8675249171667
 30
0.0
 11
-125.209405864925
 21
136.8675249171667
 31
0.0
  0
LINE
  5
55A1
330
A
100
AcDbEntity
  8
0
  6
Continuous
 62
     7
370
     0
100
AcDbLine
 10
-124.709404851646
 20
128.8675236058645
 30
0.0
 11
-125.209405864925
 21
128.8675236058645
 31
0.0
  0
LINE
  5
55A2
330
A
100
AcDbEntity
  8
0
  6
Continuous
 62
     7
370
     0
100
AcDbLine
 10
-133.2094034509368
 20
44.86752473835278
 30
0.0
 11
-135.1094020859904
 21
44.86752473835278
 31
0.0
  0
LINE
  5
55A3
330
A
100
AcDbEntity
  8
0
  6
Continuous
 62
     7
370
     0
100
AcDbLine
 10
-133.2094034509368
 20
50.86752199653912
 30
0.0
 11
-135.1094020859904
 21
50.86752199653912
 31
0.0
  0
LINE
  5
55A4
330
A
100
AcDbEntity
  8
0
  6
Continuous
 62
     7
370
     0
100
AcDbLine
 10
-133.2094034509368
 20
130.8675276589804
 30
0.0
 11
-135.1094020859904
 21
130.8675276589804
 31
0.0
  0
LINE
  5
55A5
330
A
100
AcDbEntity
  8
0
  6
Continuous
 62
     7
370
     0
100
AcDbLine
 10
-133.2094034509368
 20
136.8675249171667
 30
0.0
 11
-135.1094020859904
 21
136.8675249171667
 31
0.0
  0
LINE
  5
55A6
330
A
100
AcDbEntity
  8
0
  6
Continuous
 62
     7
370
     0
100
AcDbLine
 10
-133.2094034509368
 20
128.8675236058645
 30
0.0
 11
-135.1094020859904
 21
128.8675236058645
 31
0.0
  0
LINE
  5
55A7
330
A
100
AcDbEntity
  8
0
  6
Continuous
 62
     7
370
     0
100
AcDbLine
 10
-117.7094055669018
 20
42.1175228906088
 30
0.0
 11
-117.7094055669018
 21
44.11751949314404
 31
0.0
  0
LINE
  5
55A8
330
A
100
AcDbEntity
  8
0
  6
Continuous
 62
     7
370
     0
100
AcDbLine
 10
-116.7094035403438
 20
44.11751949314404
 30
0.0
 11
-117.7094055669018
 21
44.11751949314404
 31
0.0
  0
LINE
  5
55A9
330
A
100
AcDbEntity
  8
0
  6
Continuous
 62
     7
370
     0
100
AcDbLine
 10
-117.7094055669018
 20
44.11751949314404
 30
0.0
 11
-124.709404851646
 21
44.11751949314404
 31
0.0
  0
LINE
  5
55AA
330
A
100
AcDbEntity
  8
0
  6
Continuous
 62
     7
370
     0
100
AcDbLine
 10
-117.7094055669018
 20
44.11751949314404
 30
0.0
 11
-117.7094055669018
 21
137.6175152612143
 31
0.0
  0
LINE
  5
55AB
330
A
100
AcDbEntity
  8
0
  6
Continuous
 62
     7
370
     0
100
AcDbLine
 10
-117.7094055669018
 20
137.6175152612143
 30
0.0
 11
-116.7094035403438
 21
137.6175152612143
 31
0.0
  0
LINE
  5
55AC
330
A
100
AcDbEntity
  8
0
  6
Continuous
 62
     7
370
     0
100
AcDbLine
 10
-117.7094055669018
 20
137.6175152612143
 30
0.0
 11
-124.709404851646
 21
137.6175152612143
 31
0.0
  0
LINE
  5
55AD
330
A
100
AcDbEntity
  8
0
  6
Continuous
 62
     7
370
     0
100
AcDbLine
 10
-117.7094055669018
 20
137.6175152612143
 30
0.0
 11
-117.7094055669018
 21
139.6175193143301
 31
0.0
  0
LINE
  5
55AE
330
A
100
AcDbEntity
  8
0
  6
Continuous
 62
     7
370
     0
100
AcDbLine
 10
-142.1094013707347
 20
44.11751949314404
 30
0.0
 11
-142.1094013707347
 21
42.1175228906088
 31
0.0
  0
LINE
  5
55AF
330
A
100
AcDbEntity
  8
0
  6
Continuous
 62
     7
370
     0
100
AcDbLine
 10
-142.1094013707347
 20
44.11751949314404
 30
0.0
 11
-135.1094020859904
 21
44.11751949314404
 31
0.0
  0
LINE
  5
55B0
330
A
100
AcDbEntity
  8
0
  6
Continuous
 62
     7
370
     0
100
AcDbLine
 10
-142.1094013707347
 20
44.11751949314404
 30
0.0
 11
-143.1094033972926
 21
44.11751949314404
 31
0.0
  0
LINE
  5
55B1
330
A
100
AcDbEntity
  8
0
  6
Continuous
 62
     7
370
     0
100
AcDbLine
 10
-142.1094013707347
 20
137.6175152612143
 30
0.0
 11
-142.1094013707347
 21
44.11751949314404
 31
0.0
  0
LINE
  5
55B2
330
A
100
AcDbEntity
  8
0
  6
Continuous
 62
     7
370
     0
100
AcDbLine
 10
-142.1094013707347
 20
137.6175152612143
 30
0.0
 11
-135.1094020859904
 21
137.6175152612143
 31
0.0
  0
LINE
  5
55B3
330
A
100
AcDbEntity
  8
0
  6
Continuous
 62
     7
370
     0
100
AcDbLine
 10
-143.1094033972926
 20
137.6175152612143
 30
0.0
 11
-142.1094013707347
 21
137.6175152612143
 31
0.0
  0
LINE
  5
55B4
330
A
100
AcDbEntity
  8
0
  6
Continuous
 62
     7
370
     0
100
AcDbLine
 10
-142.1094013707347
 20
139.6175193143301
 30
0.0
 11
-142.1094013707347
 21
137.6175152612143
 31
0.0
  0
LINE
  5
55B5
330
A
100
AcDbEntity
  8
0
  6
Continuous
 62
     7
370
    15
100
AcDbLine
 10
-9.000000543892384
 20
2.000000327825546
 30
0.0
 11
-9.700000286102295
 21
2.000000327825546
 31
0.0
  0
LINE
  5
55B6
330
A
100
AcDbEntity
  8
0
  6
Continuous
 62
     7
370
    15
100
AcDbLine
 10
-9.700000286102295
 20
-2.000000327825546
 30
0.0
 11
-9.000000543892384
 21
-2.000000327825546
 31
0.0
  0
LINE
  5
55B7
330
A
100
AcDbEntity
  8
0
  6
Continuous
 62
     7
370
    15
100
AcDbLine
 10
-9.700000286102295
 20
2.000000327825546
 30
0.0
 11
-10.19999943673611
 21
1.499999314546585
 31
0.0
  0
LINE
  5
55B8
330
A
100
AcDbEntity
  8
0
  6
Continuous
 62
     7
370
    15
100
AcDbLine
 10
-10.19999943673611
 20
-1.499999314546585
 30
0.0
 11
-9.700000286102295
 21
-2.000000327825546
 31
0.0
  0
LINE
  5
55B9
330
A
100
AcDbEntity
  8
0
  6
Continuous
 62
     7
370
    15
100
AcDbLine
 10
-20.15000022947788
 20
1.199997961521149
 30
0.0
 11
-20.15000022947788
 21
0.7999986410140991
 31
0.0
  0
LINE
  5
55BA
330
A
100
AcDbEntity
  8
0
  6
Continuous
 62
     7
370
    15
100
AcDbLine
 10
-13.84999975562096
 20
0.7999986410140991
 30
0.0
 11
-13.84999975562096
 21
1.199997961521149
 31
0.0
  0
LINE
  5
55BB
330
A
100
AcDbEntity
  8
0
  6
Continuous
 62
     7
370
    15
100
AcDbLine
 10
-57.84999765455723
 20
0.0
 30
0.0
 11
-57.84999765455723
 21
0.3999993205070496
 31
0.0
  0
LINE
  5
55BC
330
A
100
AcDbEntity
  8
0
  6
Continuous
 62
     7
370
    15
100
AcDbLine
 10
-64.1499999910593
 20
0.3999993205070496
 30
0.0
 11
-64.1499999910593
 21
0.0
 31
0.0
  0
LINE
  5
55BD
330
A
100
AcDbEntity
  8
0
  6
Continuous
 62
     7
370
    15
100
AcDbLine
 10
-13.84999975562096
 20
0.7999986410140991
 30
0.0
 11
-14.25000093877316
 21
1.199997961521149
 31
0.0
  0
LINE
  5
55BE
330
A
100
AcDbEntity
  8
0
  6
Continuous
 62
     7
370
    15
100
AcDbLine
 10
-19.75000090897083
 20
1.199997961521149
 30
0.0
 11
-20.15000022947788
 21
0.7999986410140991
 31
0.0
  0
LINE
  5
55BF
330
A
100
AcDbEntity
  8
0
  6
Continuous
 62
     7
370
    15
100
AcDbLine
 10
-13.84999975562096
 20
0.0
 30
0.0
 11
-13.84999975562096
 21
0.7999986410140991
 31
0.0
  0
LINE
  5
55C0
330
A
100
AcDbEntity
  8
0
  6
Continuous
 62
     7
370
    15
100
AcDbLine
 10
-20.15000022947788
 20
0.7999986410140991
 30
0.0
 11
-20.15000022947788
 21
0.0
 31
0.0
  0
LINE
  5
55C1
330
A
100
AcDbEntity
  8
0
  6
Continuous
 62
     7
370
    15
100
AcDbLine
 10
-64.1499999910593
 20
0.3999993205070496
 30
0.0
 11
-63.75000067055225
 21
0.0
 31
0.0
  0
LINE
  5
55C2
330
A
100
AcDbEntity
  8
0
  6
Continuous
 62
     7
370
    15
100
AcDbLine
 10
-58.24999697506428
 20
0.0
 30
0.0
 11
-57.84999765455723
 21
0.3999993205070496
 31
0.0
  0
LINE
  5
55C3
330
A
100
AcDbEntity
  8
0
  6
Continuous
 62
     7
370
    15
100
AcDbLine
 10
-64.1499999910593
 20
1.199997961521149
 30
0.0
 11
-64.1499999910593
 21
0.3999993205070496
 31
0.0
  0
LINE
  5
55C4
330
A
100
AcDbEntity
  8
0
  6
Continuous
 62
     7
370
    15
100
AcDbLine
 10
-57.84999765455723
 20
0.3999993205070496
 30
0.0
 11
-57.84999765455723
 21
1.199997961521149
 31
0.0
  0
LINE
  5
55C5
330
A
100
AcDbEntity
  8
0
  6
Continuous
 62
     7
370
    15
100
AcDbLine
 10
-0.2500000409781933
 20
-8.999999612569809
 30
0.0
 11
0.0
 21
-8.999999612569809
 31
0.0
  0
LINE
  5
55C6
330
A
100
AcDbEntity
  8
0
  6
Continuous
 62
     7
370
    15
100
AcDbLine
 10
-3.000000491738319
 20
5.299996584653854
 30
0.0
 11
-3.000000491738319
 21
-2.700001001358032
 31
0.0
  0
LINE
  5
55C7
330
A
100
AcDbEntity
  8
0
  6
Continuous
 62
     7
370
    15
100
AcDbLine
 10
-0.2500000409781933
 20
8.999999612569809
 30
0.0
 11
0.0
 21
8.999999612569809
 31
0.0
  0
LINE
  5
55C8
330
A
100
AcDbEntity
  8
0
  6
Continuous
 62
     7
370
    15
100
AcDbLine
 10
0.0
 20
8.999999612569809
 30
0.0
 11
0.0
 21
-8.999999612569809
 31
0.0
  0
LINE
  5
55C9
330
A
100
AcDbEntity
  8
0
  6
Continuous
 62
     7
370
    15
100
AcDbLine
 10
-2.500000409781933
 20
5.799997597932816
 30
0.0
 11
-2.500000409781933
 21
5.299996584653854
 31
0.0
  0
LINE
  5
55CA
330
A
100
AcDbEntity
  8
0
  6
Continuous
 62
     7
370
    15
100
AcDbLine
 10
-2.500000409781933
 20
5.299996584653854
 30
0.0
 11
-3.500000573694706
 21
5.299996584653854
 31
0.0
  0
LINE
  5
55CB
330
A
100
AcDbEntity
  8
0
  6
Continuous
 62
     7
370
    15
100
AcDbLine
 10
-3.500000573694706
 20
5.299996584653854
 30
0.0
 11
-72.49999977648258
 21
5.299996584653854
 31
0.0
  0
LINE
  5
55CC
330
A
100
AcDbEntity
  8
0
  6
Continuous
 62
     7
370
    15
100
AcDbLine
 10
-77.00000144541264
 20
5.799997597932816
 30
0.0
 11
-77.00000144541264
 21
5.299996584653854
 31
0.0
  0
LINE
  5
55CD
330
A
100
AcDbEntity
  8
0
  6
Continuous
 62
     7
370
    15
100
AcDbLine
 10
-72.49999977648258
 20
5.299996584653854
 30
0.0
 11
-77.00000144541264
 21
5.299996584653854
 31
0.0
  0
LINE
  5
55CE
330
A
100
AcDbEntity
  8
0
  6
Continuous
 62
     7
370
    15
100
AcDbLine
 10
-2.500000409781933
 20
-2.700001001358032
 30
0.0
 11
-2.500000409781933
 21
-4.599999636411667
 31
0.0
  0
LINE
  5
55CF
330
A
100
AcDbEntity
  8
0
  6
Continuous
 62
     7
370
    15
100
AcDbLine
 10
-2.500000409781933
 20
-4.100002348423004
 30
0.0
 11
-3.500000573694706
 21
-4.100002348423004
 31
0.0
  0
LINE
  5
55D0
330
A
100
AcDbEntity
  8
0
  6
Continuous
 62
     7
370
    15
100
AcDbLine
 10
-2.500000409781933
 20
-2.700001001358032
 30
0.0
 11
-3.500000573694706
 21
-2.700001001358032
 31
0.0
  0
LINE
  5
55D1
330
A
100
AcDbEntity
  8
0
  6
Continuous
 62
     7
370
    15
100
AcDbLine
 10
-3.500000573694706
 20
-4.100002348423004
 30
0.0
 11
-72.49999977648258
 21
-4.100002348423004
 31
0.0
  0
LINE
  5
55D2
330
A
100
AcDbEntity
  8
0
  6
Continuous
 62
     7
370
    15
100
AcDbLine
 10
-3.500000573694706
 20
-2.700001001358032
 30
0.0
 11
-72.49999977648258
 21
-2.700001001358032
 31
0.0
  0
LINE
  5
55D3
330
A
100
AcDbEntity
  8
0
  6
Continuous
 62
     7
370
    15
100
AcDbLine
 10
-77.00000144541264
 20
-2.700001001358032
 30
0.0
 11
-77.00000144541264
 21
-4.599999636411667
 31
0.0
  0
LINE
  5
55D4
330
A
100
AcDbEntity
  8
0
  6
Continuous
 62
     7
370
    15
100
AcDbLine
 10
-72.49999977648258
 20
-4.100002348423004
 30
0.0
 11
-77.00000144541264
 21
-4.100002348423004
 31
0.0
  0
LINE
  5
55D5
330
A
100
AcDbEntity
  8
0
  6
Continuous
 62
     7
370
    15
100
AcDbLine
 10
-72.49999977648258
 20
-2.700001001358032
 30
0.0
 11
-77.00000144541264
 21
-2.700001001358032
 31
0.0
  0
LINE
  5
55D6
330
A
100
AcDbEntity
  8
0
  6
Continuous
 62
     7
370
    15
100
AcDbLine
 10
-9.700000286102295
 20
2.000000327825546
 30
0.0
 11
-9.700000286102295
 21
-2.000000327825546
 31
0.0
  0
LINE
  5
55D7
330
A
100
AcDbEntity
  8
0
  6
Continuous
 62
     7
370
    15
100
AcDbLine
 10
-10.19999943673611
 20
-1.499999314546585
 30
0.0
 11
-10.19999943673611
 21
1.499999314546585
 31
0.0
  0
LINE
  5
55D8
330
A
100
AcDbEntity
  8
0
  6
Continuous
 62
     7
370
    15
100
AcDbLine
 10
-13.84999975562096
 20
0.7999986410140991
 30
0.0
 11
-20.15000022947788
 21
0.7999986410140991
 31
0.0
  0
LINE
  5
55D9
330
A
100
AcDbEntity
  8
0
  6
Continuous
 62
     7
370
    15
100
AcDbLine
 10
-58.27202089130878
 20
0.3999993205070496
 30
0.0
 11
-57.84999765455723
 21
0.3999993205070496
 31
0.0
  0
LINE
  5
55DA
330
A
100
AcDbEntity
  8
0
  6
Continuous
 62
     7
370
    15
100
AcDbLine
 10
-64.1499999910593
 20
0.3999993205070496
 30
0.0
 11
-58.27202089130878
 21
0.3999993205070496
 31
0.0
  0
LINE
  5
55DB
330
A
100
AcDbEntity
  8
0
  6
Continuous
 62
     7
370
    15
100
AcDbLine
 10
-0.2500000409781933
 20
5.799997597932816
 30
0.0
 11
-2.249999903142452
 21
5.799997597932816
 31
0.0
  0
LINE
  5
55DC
330
A
100
AcDbEntity
  8
0
  6
Continuous
 62
     7
370
    15
100
AcDbLine
 10
-0.2500000409781933
 20
12.79999688267708
 30
0.0
 11
-0.2500000409781933
 21
5.799997597932816
 31
0.0
  0
LINE
  5
55DD
330
A
100
AcDbEntity
  8
0
  6
Continuous
 62
     7
370
    15
100
AcDbLine
 10
-2.249999903142452
 20
13.799998909235
 30
0.0
 11
-1.250000204890966
 21
13.799998909235
 31
0.0
  0
ARC
  5
55DE
330
A
100
AcDbEntity
  8
0
  6
Continuous
 62
     7
370
    15
100
AcDbCircle
 10
-1.250000179294716
 20
12.79999924664315
 30
0.0
 40
1.0
100
AcDbArc
 50
0.00000000235473
 51
90.0
  0
LINE
  5
55DF
330
A
100
AcDbEntity
  8
0
  6
Continuous
 62
     7
370
    15
100
AcDbLine
 10
-46.00000195205212
 20
7.999997586011887
 30
0.0
 11
-36.00000031292439
 21
7.999997586011887
 31
0.0
  0
LINE
  5
55E0
330
A
100
AcDbEntity
  8
0
  6
Continuous
 62
     7
370
    15
100
AcDbLine
 10
-36.00000031292439
 20
7.999997586011887
 30
0.0
 11
-36.00000031292439
 21
10.99999621510506
 31
0.0
  0
ARC
  5
55E1
330
A
100
AcDbEntity
  8
0
  6
Continuous
 62
     7
370
    15
100
AcDbCircle
 10
-41.00000018277683
 20
-13.49489818118866
 30
0.0
 40
25.00000000000004
100
AcDbArc
 50
78.46304096718453
 51
101.5369590328155
  0
LINE
  5
55E2
330
A
100
AcDbEntity
  8
0
  6
Continuous
 62
     7
370
    15
100
AcDbLine
 10
-46.00000195205212
 20
10.99999621510506
 30
0.0
 11
-46.00000195205212
 21
7.999997586011887
 31
0.0
  0
LINE
  5
55E3
330
A
100
AcDbEntity
  8
0
  6
Continuous
 62
     7
370
    15
100
AcDbLine
 10
-2.249999903142452
 20
5.799997597932816
 30
0.0
 11
-77.24999822676182
 21
5.799997597932816
 31
0.0
  0
LINE
  5
55E4
330
A
100
AcDbEntity
  8
0
  6
Continuous
 62
     7
370
    15
100
AcDbLine
 10
-77.24999822676182
 20
13.799998909235
 30
0.0
 11
-2.249999903142452
 21
13.799998909235
 31
0.0
  0
LINE
  5
55E5
330
A
100
AcDbEntity
  8
0
  6
Continuous
 62
     7
370
    15
100
AcDbLine
 10
-81.74999989569187
 20
12.79999688267708
 30
0.0
 11
-81.74999989569187
 21
5.799997597932816
 31
0.0
  0
LINE
  5
55E6
330
A
100
AcDbEntity
  8
0
  6
Continuous
 62
     7
370
    15
100
AcDbLine
 10
-77.24999822676182
 20
5.799997597932816
 30
0.0
 11
-81.74999989569187
 21
5.799997597932816
 31
0.0
  0
ARC
  5
55E7
330
A
100
AcDbEntity
  8
0
  6
Continuous
 62
     7
370
    15
100
AcDbCircle
 10
-80.75000017903238
 20
12.79999924664315
 30
0.0
 40
1.0
100
AcDbArc
 50
90.0
 51
179.9999999976453
  0
LINE
  5
55E8
330
A
100
AcDbEntity
  8
0
  6
Continuous
 62
     7
370
    15
100
AcDbLine
 10
-80.74999786913395
 20
13.799998909235
 30
0.0
 11
-77.24999822676182
 21
13.799998909235
 31
0.0
  0
LINE
  5
55E9
330
A
100
AcDbEntity
  8
0
  6
Continuous
 62
     7
370
    15
100
AcDbLine
 10
-0.2500000409781933
 20
-11.59999892115593
 30
0.0
 11
-0.2500000409781933
 21
-4.599999636411667
 31
0.0
  0
LINE
  5
55EA
330
A
100
AcDbEntity
  8
0
  6
Continuous
 62
     7
370
    15
100
AcDbLine
 10
-2.249999903142452
 20
-4.599999636411667
 30
0.0
 11
-0.2500000409781933
 21
-4.599999636411667
 31
0.0
  0
LINE
  5
55EB
330
A
100
AcDbEntity
  8
0
  6
Continuous
 62
     7
370
    15
100
AcDbLine
 10
-1.250000204890966
 20
-12.60000094771385
 30
0.0
 11
-2.249999903142452
 21
-12.60000094771385
 31
0.0
  0
ARC
  5
55EC
330
A
100
AcDbEntity
  8
0
  6
Continuous
 62
     7
370
    15
100
AcDbCircle
 10
-1.250000179294943
 20
-11.60000075335682
 30
0.0
 40
1.0
100
AcDbArc
 50
270.0
 51
0.00000000235473
  0
LINE
  5
55ED
330
A
100
AcDbEntity
  8
0
  6
Continuous
 62
     7
370
    15
100
AcDbLine
 10
-36.00000031292439
 20
-6.799999624490738
 30
0.0
 11
-46.00000195205212
 21
-6.799999624490738
 31
0.0
  0
LINE
  5
55EE
330
A
100
AcDbEntity
  8
0
  6
Continuous
 62
     7
370
    15
100
AcDbLine
 10
-46.00000195205212
 20
-6.799999624490738
 30
0.0
 11
-46.00000195205212
 21
-9.800001978874207
 31
0.0
  0
ARC
  5
55EF
330
A
100
AcDbEntity
  8
0
  6
Continuous
 62
     7
370
    15
100
AcDbCircle
 10
-41.00000018277706
 20
14.69489667447499
 30
0.0
 40
25.00000000000004
100
AcDbArc
 50
258.4630409671853
 51
281.5369590328163
  0
LINE
  5
55F0
330
A
100
AcDbEntity
  8
0
  6
Continuous
 62
     7
370
    15
100
AcDbLine
 10
-36.00000031292439
 20
-9.800001978874207
 30
0.0
 11
-36.00000031292439
 21
-6.799999624490738
 31
0.0
  0
LINE
  5
55F1
330
A
100
AcDbEntity
  8
0
  6
Continuous
 62
     7
370
    15
100
AcDbLine
 10
-77.24999822676182
 20
-4.599999636411667
 30
0.0
 11
-2.249999903142452
 21
-4.599999636411667
 31
0.0
  0
LINE
  5
55F2
330
A
100
AcDbEntity
  8
0
  6
Continuous
 62
     7
370
    15
100
AcDbLine
 10
-2.249999903142452
 20
-12.60000094771385
 30
0.0
 11
-77.24999822676182
 21
-12.60000094771385
 31
0.0
  0
LINE
  5
55F3
330
A
100
AcDbEntity
  8
0
  6
Continuous
 62
     7
370
    15
100
AcDbLine
 10
-81.74999989569187
 20
-11.59999892115593
 30
0.0
 11
-81.74999989569187
 21
-4.599999636411667
 31
0.0
  0
LINE
  5
55F4
330
A
100
AcDbEntity
  8
0
  6
Continuous
 62
     7
370
    15
100
AcDbLine
 10
-81.74999989569187
 20
-4.599999636411667
 30
0.0
 11
-77.24999822676182
 21
-4.599999636411667
 31
0.0
  0
LINE
  5
55F5
330
A
100
AcDbEntity
  8
0
  6
Continuous
 62
     7
370
    15
100
AcDbLine
 10
-77.24999822676182
 20
-12.60000094771385
 30
0.0
 11
-80.74999786913395
 21
-12.60000094771385
 31
0.0
  0
ARC
  5
55F6
330
A
100
AcDbEntity
  8
0
  6
Continuous
 62
     7
370
    15
100
AcDbCircle
 10
-80.75000017903255
 20
-11.60000075335682
 30
0.0
 40
1.0
100
AcDbArc
 50
179.9999999976436
 51
270.0
  0
LINE
  5
55F7
330
A
100
AcDbEntity
  8
0
  6
Continuous
 62
     7
370
    15
100
AcDbLine
 10
-44.74999941885471
 20
-9.800001978874207
 30
0.0
 11
-37.24999912083149
 21
-9.800001978874207
 31
0.0
  0
LINE
  5
55F8
330
A
100
AcDbEntity
  8
0
  6
Continuous
 62
     7
370
    15
100
AcDbLine
 10
-44.74999941885471
 20
-6.799999624490738
 30
0.0
 11
-44.74999941885471
 21
-9.800001978874207
 31
0.0
  0
LINE
  5
55F9
330
A
100
AcDbEntity
  8
0
  6
Continuous
 62
     7
370
    15
100
AcDbLine
 10
-37.24999912083149
 20
-9.800001978874207
 30
0.0
 11
-37.24999912083149
 21
-6.799999624490738
 31
0.0
  0
LINE
  5
55FA
330
A
100
AcDbEntity
  8
0
  6
Continuous
 62
     7
370
    15
100
AcDbLine
 10
-21.17084339261055
 20
0.0
 30
0.0
 11
-11.50000095367432
 21
0.0
 31
0.0
  0
LINE
  5
55FB
330
A
100
AcDbEntity
  8
0
  6
Continuous
 62
     7
370
    15
100
AcDbLine
 10
-11.50000095367432
 20
0.0
 30
0.0
 11
-11.50000095367432
 21
-2.700001001358032
 31
0.0
  0
LINE
  5
55FC
330
A
100
AcDbEntity
  8
0
  6
Continuous
 62
     7
370
    15
100
AcDbLine
 10
-21.95385470986366
 20
0.0
 30
0.0
 11
-21.17084339261055
 21
0.0
 31
0.0
  0
LINE
  5
55FD
330
A
100
AcDbEntity
  8
0
  6
Continuous
 62
     7
370
    15
100
AcDbLine
 10
-56.32915534079075
 20
0.0
 30
0.0
 11
-55.54614402353764
 21
0.0
 31
0.0
  0
LINE
  5
55FE
330
A
100
AcDbEntity
  8
0
  6
Continuous
 62
     7
370
    15
100
AcDbLine
 10
-62.00000084936619
 20
0.0
 30
0.0
 11
-56.32915534079075
 21
0.0
 31
0.0
  0
LINE
  5
55FF
330
A
100
AcDbEntity
  8
0
  6
Continuous
 62
     7
370
    15
100
AcDbLine
 10
-67.0000035315752
 20
0.0
 30
0.0
 11
-67.0000035315752
 21
-2.700001001358032
 31
0.0
  0
LINE
  5
5600
330
A
100
AcDbEntity
  8
0
  6
Continuous
 62
     7
370
    15
100
AcDbLine
 10
-67.0000035315752
 20
0.0
 30
0.0
 11
-62.00000084936619
 21
0.0
 31
0.0
  0
LINE
  5
5601
330
A
100
AcDbEntity
  8
0
  6
Continuous
 62
     7
370
    15
100
AcDbLine
 10
-22.05825597047806
 20
0.0
 30
0.0
 11
-21.95385470986366
 21
0.0
 31
0.0
  0
LINE
  5
5602
330
A
100
AcDbEntity
  8
0
  6
Continuous
 62
     7
370
    15
100
AcDbLine
 10
-55.54614402353764
 20
0.0
 30
0.0
 11
-55.44174276292324
 21
0.0
 31
0.0
  0
LINE
  5
5603
330
A
100
AcDbEntity
  8
0
  6
Continuous
 62
     7
370
    15
100
AcDbLine
 10
-55.44174276292324
 20
0.0
 30
0.0
 11
-22.05825597047806
 21
0.0
 31
0.0
  0
LINE
  5
5604
330
A
100
AcDbEntity
  8
0
  6
Continuous
 62
     7
370
    15
100
AcDbLine
 10
-9.000000543892384
 20
5.299996584653854
 30
0.0
 11
-9.000000543892384
 21
-2.700001001358032
 31
0.0
  0
LINE
  5
5605
330
A
100
AcDbEntity
  8
0
  6
Continuous
 62
     7
370
    15
100
AcDbLine
 10
-38.25000114738941
 20
7.999997586011887
 30
0.0
 11
-38.25000114738941
 21
10.99999621510506
 31
0.0
  0
LINE
  5
5606
330
A
100
AcDbEntity
  8
0
  6
Continuous
 62
     7
370
    15
100
AcDbLine
 10
-45.75000144541264
 20
10.99999621510506
 30
0.0
 11
-45.75000144541264
 21
7.999997586011887
 31
0.0
  0
LINE
  5
5607
330
A
100
AcDbEntity
  8
0
  6
Continuous
 62
     7
370
    15
100
AcDbLine
 10
-38.25000114738941
 20
10.99999621510506
 30
0.0
 11
-45.75000144541264
 21
10.99999621510506
 31
0.0
  0
LINE
  5
5608
330
A
100
AcDbEntity
  8
0
  6
Continuous
 62
     7
370
    15
100
AcDbLine
 10
-11.50000095367432
 20
1.199997961521149
 30
0.0
 11
-11.50000095367432
 21
5.299996584653854
 31
0.0
  0
LINE
  5
5609
330
A
100
AcDbEntity
  8
0
  6
Continuous
 62
     7
370
    15
100
AcDbLine
 10
-11.50000095367432
 20
1.199997961521149
 30
0.0
 11
-22.12424203753471
 21
1.199997961521149
 31
0.0
  0
LINE
  5
560A
330
A
100
AcDbEntity
  8
0
  6
Continuous
 62
     7
370
    15
100
AcDbLine
 10
-22.12424203753471
 20
1.199997961521149
 30
0.0
 11
-22.90725149214268
 21
1.199997961521149
 31
0.0
  0
LINE
  5
560B
330
A
100
AcDbEntity
  8
0
  6
Continuous
 62
     7
370
    15
100
AcDbLine
 10
-56.4995426684618
 20
1.199997961521149
 30
0.0
 11
-57.28255398571491
 21
1.199997961521149
 31
0.0
  0
LINE
  5
560C
330
A
100
AcDbEntity
  8
0
  6
Continuous
 62
     7
370
    15
100
AcDbLine
 10
-57.28255398571491
 20
1.199997961521149
 30
0.0
 11
-62.00000084936619
 21
1.199997961521149
 31
0.0
  0
LINE
  5
560D
330
A
100
AcDbEntity
  8
0
  6
Continuous
 62
     7
370
    15
100
AcDbLine
 10
-67.0000035315752
 20
1.199997961521149
 30
0.0
 11
-67.0000035315752
 21
5.299996584653854
 31
0.0
  0
LINE
  5
560E
330
A
100
AcDbEntity
  8
0
  6
Continuous
 62
     7
370
    15
100
AcDbLine
 10
-62.00000084936619
 20
1.199997961521149
 30
0.0
 11
-67.0000035315752
 21
1.199997961521149
 31
0.0
  0
LINE
  5
560F
330
A
100
AcDbEntity
  8
0
  6
Continuous
 62
     7
370
    15
100
AcDbLine
 10
-22.90725149214268
 20
1.199997961521149
 30
0.0
 11
-23.01165275275707
 21
1.199997961521149
 31
0.0
  0
LINE
  5
5610
330
A
100
AcDbEntity
  8
0
  6
Continuous
 62
     7
370
    15
100
AcDbLine
 10
-56.3951414078474
 20
1.199997961521149
 30
0.0
 11
-56.4995426684618
 21
1.199997961521149
 31
0.0
  0
LINE
  5
5611
330
A
100
AcDbEntity
  8
0
  6
Continuous
 62
     7
370
    15
100
AcDbLine
 10
-23.01165275275707
 20
1.199997961521149
 30
0.0
 11
-56.3951414078474
 21
1.199997961521149
 31
0.0
  0
LINE
  5
5612
330
A
100
AcDbEntity
  8
0
  6
Continuous
 62
     7
370
     0
100
AcDbLine
 10
-3.500000573694706
 20
5.799997597932816
 30
0.0
 11
-3.500000573694706
 21
5.299996584653854
 31
0.0
  0
LINE
  5
5613
330
A
100
AcDbEntity
  8
0
  6
Continuous
 62
     7
370
     0
100
AcDbLine
 10
-72.49999977648258
 20
5.799997597932816
 30
0.0
 11
-72.49999977648258
 21
5.299996584653854
 31
0.0
  0
LINE
  5
5614
330
A
100
AcDbEntity
  8
0
  6
Continuous
 62
     7
370
     0
100
AcDbLine
 10
-3.500000573694706
 20
-2.700001001358032
 30
0.0
 11
-3.500000573694706
 21
-4.599999636411667
 31
0.0
  0
LINE
  5
5615
330
A
100
AcDbEntity
  8
0
  6
Continuous
 62
     7
370
     0
100
AcDbLine
 10
-72.49999977648258
 20
-2.700001001358032
 30
0.0
 11
-72.49999977648258
 21
-4.599999636411667
 31
0.0
  0
LINE
  5
5616
330
A
100
AcDbEntity
  8
0
  6
Continuous
 62
     7
370
     0
100
AcDbLine
 10
-2.249999903142452
 20
12.79999688267708
 30
0.0
 11
-2.249999903142452
 21
5.799997597932816
 31
0.0
  0
LINE
  5
5617
330
A
100
AcDbEntity
  8
0
  6
Continuous
 62
     7
370
     0
100
AcDbLine
 10
-0.2500000409781933
 20
12.79999688267708
 30
0.0
 11
-2.249999903142452
 21
12.79999688267708
 31
0.0
  0
LINE
  5
5618
330
A
100
AcDbEntity
  8
0
  6
Continuous
 62
     7
370
     0
100
AcDbLine
 10
-2.249999903142452
 20
12.79999688267708
 30
0.0
 11
-2.249999903142452
 21
13.799998909235
 31
0.0
  0
LINE
  5
5619
330
A
100
AcDbEntity
  8
0
  6
Continuous
 62
     7
370
     0
100
AcDbLine
 10
-77.24999822676182
 20
12.79999688267708
 30
0.0
 11
-77.24999822676182
 21
5.799997597932816
 31
0.0
  0
LINE
  5
561A
330
A
100
AcDbEntity
  8
0
  6
Continuous
 62
     7
370
     0
100
AcDbLine
 10
-2.249999903142452
 20
12.79999688267708
 30
0.0
 11
-77.24999822676182
 21
12.79999688267708
 31
0.0
  0
LINE
  5
561B
330
A
100
AcDbEntity
  8
0
  6
Continuous
 62
     7
370
     0
100
AcDbLine
 10
-77.24999822676182
 20
12.79999688267708
 30
0.0
 11
-77.24999822676182
 21
13.799998909235
 31
0.0
  0
LINE
  5
561C
330
A
100
AcDbEntity
  8
0
  6
Continuous
 62
     7
370
     0
100
AcDbLine
 10
-77.24999822676182
 20
12.79999688267708
 30
0.0
 11
-81.74999989569187
 21
12.79999688267708
 31
0.0
  0
LINE
  5
561D
330
A
100
AcDbEntity
  8
0
  6
Continuous
 62
     7
370
     0
100
AcDbLine
 10
-2.249999903142452
 20
-11.59999892115593
 30
0.0
 11
-0.2500000409781933
 21
-11.59999892115593
 31
0.0
  0
LINE
  5
561E
330
A
100
AcDbEntity
  8
0
  6
Continuous
 62
     7
370
     0
100
AcDbLine
 10
-2.249999903142452
 20
-11.59999892115593
 30
0.0
 11
-2.249999903142452
 21
-4.599999636411667
 31
0.0
  0
LINE
  5
561F
330
A
100
AcDbEntity
  8
0
  6
Continuous
 62
     7
370
     0
100
AcDbLine
 10
-2.249999903142452
 20
-12.60000094771385
 30
0.0
 11
-2.249999903142452
 21
-11.59999892115593
 31
0.0
  0
LINE
  5
5620
330
A
100
AcDbEntity
  8
0
  6
Continuous
 62
     7
370
     0
100
AcDbLine
 10
-77.24999822676182
 20
-11.59999892115593
 30
0.0
 11
-2.249999903142452
 21
-11.59999892115593
 31
0.0
  0
LINE
  5
5621
330
A
100
AcDbEntity
  8
0
  6
Continuous
 62
     7
370
     0
100
AcDbLine
 10
-77.24999822676182
 20
-11.59999892115593
 30
0.0
 11
-77.24999822676182
 21
-4.599999636411667
 31
0.0
  0
LINE
  5
5622
330
A
100
AcDbEntity
  8
0
  6
Continuous
 62
     7
370
     0
100
AcDbLine
 10
-77.24999822676182
 20
-12.60000094771385
 30
0.0
 11
-77.24999822676182
 21
-11.59999892115593
 31
0.0
  0
LINE
  5
5623
330
A
100
AcDbEntity
  8
0
  6
Continuous
 62
     7
370
     0
100
AcDbLine
 10
-81.74999989569187
 20
-11.59999892115593
 30
0.0
 11
-77.24999822676182
 21
-11.59999892115593
 31
0.0
  0
LINE
  5
5624
330
A
100
AcDbEntity
  8
0
  6
Continuous
 62
     7
370
     0
100
AcDbLine
 10
-21.17084339261055
 20
0.0
 30
0.0
 11
-21.17084339261055
 21
-2.700001001358032
 31
0.0
  0
LINE
  5
5625
330
A
100
AcDbEntity
  8
0
  6
Continuous
 62
     7
370
     0
100
AcDbLine
 10
-21.95385470986366
 20
0.0
 30
0.0
 11
-21.95385470986366
 21
-2.700001001358032
 31
0.0
  0
LINE
  5
5626
330
A
100
AcDbEntity
  8
0
  6
Continuous
 62
     7
370
     0
100
AcDbLine
 10
-56.32915534079075
 20
0.0
 30
0.0
 11
-56.32915534079075
 21
-2.700001001358032
 31
0.0
  0
LINE
  5
5627
330
A
100
AcDbEntity
  8
0
  6
Continuous
 62
     7
370
     0
100
AcDbLine
 10
-55.54614402353764
 20
0.0
 30
0.0
 11
-55.54614402353764
 21
-2.700001001358032
 31
0.0
  0
LINE
  5
5628
330
A
100
AcDbEntity
  8
0
  6
Continuous
 62
     7
370
     0
100
AcDbLine
 10
-62.00000084936619
 20
0.0
 30
0.0
 11
-62.00000084936619
 21
-2.700001001358032
 31
0.0
  0
LINE
  5
5629
330
A
100
AcDbEntity
  8
0
  6
Continuous
 62
     7
370
     0
100
AcDbLine
 10
-22.05825597047806
 20
0.0
 30
0.0
 11
-22.05825597047806
 21
-2.700001001358032
 31
0.0
  0
LINE
  5
562A
330
A
100
AcDbEntity
  8
0
  6
Continuous
 62
     7
370
     0
100
AcDbLine
 10
-55.44174276292324
 20
0.0
 30
0.0
 11
-55.44174276292324
 21
-2.700001001358032
 31
0.0
  0
LINE
  5
562B
330
A
100
AcDbEntity
  8
0
  6
Continuous
 62
     7
370
     0
100
AcDbLine
 10
-22.12424203753471
 20
1.199997961521149
 30
0.0
 11
-22.12424203753471
 21
5.299996584653854
 31
0.0
  0
LINE
  5
562C
330
A
100
AcDbEntity
  8
0
  6
Continuous
 62
     7
370
     0
100
AcDbLine
 10
-22.90725149214268
 20
1.199997961521149
 30
0.0
 11
-22.90725149214268
 21
5.299996584653854
 31
0.0
  0
LINE
  5
562D
330
A
100
AcDbEntity
  8
0
  6
Continuous
 62
     7
370
     0
100
AcDbLine
 10
-56.4995426684618
 20
1.199997961521149
 30
0.0
 11
-56.4995426684618
 21
5.299996584653854
 31
0.0
  0
LINE
  5
562E
330
A
100
AcDbEntity
  8
0
  6
Continuous
 62
     7
370
     0
100
AcDbLine
 10
-57.28255398571491
 20
1.199997961521149
 30
0.0
 11
-57.28255398571491
 21
5.299996584653854
 31
0.0
  0
LINE
  5
562F
330
A
100
AcDbEntity
  8
0
  6
Continuous
 62
     7
370
     0
100
AcDbLine
 10
-62.00000084936619
 20
1.199997961521149
 30
0.0
 11
-62.00000084936619
 21
5.299996584653854
 31
0.0
  0
LINE
  5
5630
330
A
100
AcDbEntity
  8
0
  6
Continuous
 62
     7
370
     0
100
AcDbLine
 10
-23.01165275275707
 20
1.199997961521149
 30
0.0
 11
-23.01165275275707
 21
5.299996584653854
 31
0.0
  0
LINE
  5
5631
330
A
100
AcDbEntity
  8
0
  6
Continuous
 62
     7
370
     0
100
AcDbLine
 10
-56.3951414078474
 20
1.199997961521149
 30
0.0
 11
-56.3951414078474
 21
5.299996584653854
 31
0.0
  0
LINE
  5
5632
330
A
100
AcDbEntity
  8
0
  6
Continuous
 62
     7
370
    15
100
AcDbLine
 10
45.10509401931665
 20
53.46752130512525
 30
0.0
 11
45.5050933398237
 21
53.46752130512525
 31
0.0
  0
LINE
  5
5633
330
A
100
AcDbEntity
  8
0
  6
Continuous
 62
     7
370
    15
100
AcDbLine
 10
45.5050933398237
 20
59.76752364162732
 30
0.0
 11
45.10509401931665
 21
59.76752364162732
 31
0.0
  0
LINE
  5
5634
330
A
100
AcDbEntity
  8
0
  6
Continuous
 62
     7
370
    15
100
AcDbLine
 10
46.3050919808378
 20
59.76752364162732
 30
0.0
 11
45.5050933398237
 21
59.76752364162732
 31
0.0
  0
LINE
  5
5635
330
A
100
AcDbEntity
  8
0
  6
Continuous
 62
     7
370
    15
100
AcDbLine
 10
45.5050933398237
 20
53.46752130512525
 30
0.0
 11
46.3050919808378
 21
53.46752130512525
 31
0.0
  0
LINE
  5
5636
330
A
100
AcDbEntity
  8
0
  6
Continuous
 62
     7
370
    15
100
AcDbLine
 10
45.5050933398237
 20
59.76752364162732
 30
0.0
 11
45.10509401931665
 21
59.36752432112027
 31
0.0
  0
LINE
  5
5637
330
A
100
AcDbEntity
  8
0
  6
Continuous
 62
     7
370
    15
100
AcDbLine
 10
45.10509401931665
 20
53.8675206256323
 30
0.0
 11
45.5050933398237
 21
53.46752130512525
 31
0.0
  0
LINE
  5
5638
330
A
100
AcDbEntity
  8
0
  6
Continuous
 62
     7
370
    15
100
AcDbLine
 10
46.3050919808378
 20
127.2675263238363
 30
0.0
 11
45.90509266033075
 21
127.2675263238363
 31
0.0
  0
LINE
  5
5639
330
A
100
AcDbEntity
  8
0
  6
Continuous
 62
     7
370
    15
100
AcDbLine
 10
45.90509266033075
 20
120.9675239873343
 30
0.0
 11
46.3050919808378
 21
120.9675239873343
 31
0.0
  0
LINE
  5
563A
330
A
100
AcDbEntity
  8
0
  6
Continuous
 62
     7
370
    15
100
AcDbLine
 10
45.10509401931665
 20
120.9675239873343
 30
0.0
 11
45.90509266033075
 21
120.9675239873343
 31
0.0
  0
LINE
  5
563B
330
A
100
AcDbEntity
  8
0
  6
Continuous
 62
     7
370
    15
100
AcDbLine
 10
45.90509266033075
 20
127.2675263238363
 30
0.0
 11
45.10509401931665
 21
127.2675263238363
 31
0.0
  0
LINE
  5
563C
330
A
100
AcDbEntity
  8
0
  6
Continuous
 62
     7
370
    15
100
AcDbLine
 10
45.90509266033075
 20
120.9675239873343
 30
0.0
 11
46.3050919808378
 21
121.3675158572607
 31
0.0
  0
LINE
  5
563D
330
A
100
AcDbEntity
  8
0
  6
Continuous
 62
     7
370
    15
100
AcDbLine
 10
46.3050919808378
 20
126.8675195527487
 30
0.0
 11
45.90509266033075
 21
127.2675263238363
 31
0.0
  0
LINE
  5
563E
330
A
100
AcDbEntity
  8
0
  6
Continuous
 62
     7
370
    15
100
AcDbLine
 10
46.3050919808378
 20
52.86751859907437
 30
0.0
 11
45.10509401931665
 21
52.86751859907437
 31
0.0
  0
LINE
  5
563F
330
A
100
AcDbEntity
  8
0
  6
Continuous
 62
     7
370
    15
100
AcDbLine
 10
45.10509401931665
 20
127.8675215793066
 30
0.0
 11
46.3050919808378
 21
127.8675215793066
 31
0.0
  0
LINE
  5
5640
330
A
100
AcDbEntity
  8
0
  6
Continuous
 62
     7
370
    15
100
AcDbLine
 10
46.3050919808378
 20
105.3675281358175
 30
0.0
 11
45.10509401931665
 21
105.3675281358175
 31
0.0
  0
LINE
  5
5641
330
A
100
AcDbEntity
  8
0
  6
Continuous
 62
     7
370
    15
100
AcDbLine
 10
45.10509401931665
 20
75.36751949314404
 30
0.0
 11
46.3050919808378
 21
75.36751949314404
 31
0.0
  0
LINE
  5
5642
330
A
100
AcDbEntity
  8
0
  6
Continuous
 62
     7
370
    15
100
AcDbLine
 10
40.50509438290499
 20
137.8675269437246
 30
0.0
 11
41.00509539618395
 21
137.8675269437246
 31
0.0
  0
LINE
  5
5643
330
A
100
AcDbEntity
  8
0
  6
Continuous
 62
     7
370
    15
100
AcDbLine
 10
41.00509539618395
 20
137.8675269437246
 30
0.0
 11
41.00509539618395
 21
133.3675252747946
 31
0.0
  0
LINE
  5
5644
330
A
100
AcDbEntity
  8
0
  6
Continuous
 62
     7
370
    15
100
AcDbLine
 10
41.00509539618395
 20
133.3675252747946
 30
0.0
 11
41.00509539618395
 21
48.36752438072492
 31
0.0
  0
LINE
  5
5645
330
A
100
AcDbEntity
  8
0
  6
Continuous
 62
     7
370
    15
100
AcDbLine
 10
40.50509438290499
 20
43.86752271179486
 30
0.0
 11
41.00509539618395
 21
43.86752271179486
 31
0.0
  0
LINE
  5
5646
330
A
100
AcDbEntity
  8
0
  6
Continuous
 62
     7
370
    15
100
AcDbLine
 10
41.00509539618395
 20
48.36752438072492
 30
0.0
 11
41.00509539618395
 21
43.86752271179486
 31
0.0
  0
LINE
  5
5647
330
A
100
AcDbEntity
  8
0
  6
Continuous
 62
     7
370
    15
100
AcDbLine
 10
49.00509298219583
 20
137.8675269437246
 30
0.0
 11
49.00509298219583
 21
133.3675252747946
 31
0.0
  0
LINE
  5
5648
330
A
100
AcDbEntity
  8
0
  6
Continuous
 62
     7
370
    15
100
AcDbLine
 10
49.00509298219583
 20
137.8675269437246
 30
0.0
 11
50.90509161724947
 21
137.8675269437246
 31
0.0
  0
LINE
  5
5649
330
A
100
AcDbEntity
  8
0
  6
Continuous
 62
     7
370
    15
100
AcDbLine
 10
50.40509432926081
 20
137.8675269437246
 30
0.0
 11
50.40509432926081
 21
133.3675252747946
 31
0.0
  0
LINE
  5
564A
330
A
100
AcDbEntity
  8
0
  6
Continuous
 62
     7
370
    15
100
AcDbLine
 10
50.40509432926081
 20
133.3675252747946
 30
0.0
 11
50.40509432926081
 21
48.36752438072492
 31
0.0
  0
LINE
  5
564B
330
A
100
AcDbEntity
  8
0
  6
Continuous
 62
     7
370
    15
100
AcDbLine
 10
49.00509298219583
 20
133.3675252747946
 30
0.0
 11
49.00509298219583
 21
48.36752438072492
 31
0.0
  0
LINE
  5
564C
330
A
100
AcDbEntity
  8
0
  6
Continuous
 62
     7
370
    15
100
AcDbLine
 10
49.00509298219583
 20
43.86752271179486
 30
0.0
 11
50.90509161724947
 21
43.86752271179486
 31
0.0
  0
LINE
  5
564D
330
A
100
AcDbEntity
  8
0
  6
Continuous
 62
     7
370
    15
100
AcDbLine
 10
50.40509432926081
 20
48.36752438072492
 30
0.0
 11
50.40509432926081
 21
43.86752271179486
 31
0.0
  0
LINE
  5
564E
330
A
100
AcDbEntity
  8
0
  6
Continuous
 62
     7
370
    15
100
AcDbLine
 10
49.00509298219583
 20
48.36752438072492
 30
0.0
 11
49.00509298219583
 21
43.86752271179486
 31
0.0
  0
LINE
  5
564F
330
A
100
AcDbEntity
  8
0
  6
Continuous
 62
     7
370
    15
100
AcDbLine
 10
45.5050933398237
 20
58.1925230575018
 30
0.0
 11
45.5050933398237
 21
53.46752130512525
 31
0.0
  0
LINE
  5
5650
330
A
100
AcDbEntity
  8
0
  6
Continuous
 62
     7
370
    15
100
AcDbLine
 10
45.5050933398237
 20
59.76752364162732
 30
0.0
 11
45.5050933398237
 21
58.1925230575018
 31
0.0
  0
LINE
  5
5651
330
A
100
AcDbEntity
  8
0
  6
Continuous
 62
     7
370
    15
100
AcDbLine
 10
45.90509266033075
 20
120.9675239873343
 30
0.0
 11
45.90509266033075
 21
127.2675263238363
 31
0.0
  0
LINE
  5
5652
330
A
100
AcDbEntity
  8
0
  6
Continuous
 62
     7
370
    15
100
AcDbLine
 10
32.5050930716028
 20
135.1175176454001
 30
0.0
 11
32.5050930716028
 21
138.6175172877722
 31
0.0
  0
ARC
  5
5653
330
A
100
AcDbEntity
  8
0
  6
Continuous
 62
     7
370
    15
100
AcDbCircle
 10
33.5050927341947
 20
138.6175223103978
 30
0.0
 40
1.0
100
AcDbArc
 50
90.0
 51
180.0
  0
LINE
  5
5654
330
A
100
AcDbEntity
  8
0
  6
Continuous
 62
     7
370
    15
100
AcDbLine
 10
40.50509438290499
 20
139.6175193143301
 30
0.0
 11
40.50509438290499
 21
135.1175176454001
 31
0.0
  0
LINE
  5
5655
330
A
100
AcDbEntity
  8
0
  6
Continuous
 62
     7
370
    15
100
AcDbLine
 10
33.50509509816072
 20
139.6175193143301
 30
0.0
 11
40.50509438290499
 21
139.6175193143301
 31
0.0
  0
LINE
  5
5656
330
A
100
AcDbEntity
  8
0
  6
Continuous
 62
     7
370
    15
100
AcDbLine
 10
32.5050930716028
 20
46.61752455953885
 30
0.0
 11
32.5050930716028
 21
135.1175176454001
 31
0.0
  0
LINE
  5
5657
330
A
100
AcDbEntity
  8
0
  6
Continuous
 62
     7
370
    15
100
AcDbLine
 10
40.50509438290499
 20
135.1175176454001
 30
0.0
 11
40.50509438290499
 21
46.61752455953885
 31
0.0
  0
LINE
  5
5658
330
A
100
AcDbEntity
  8
0
  6
Continuous
 62
     7
370
    15
100
AcDbLine
 10
32.5050930716028
 20
43.11752491716672
 30
0.0
 11
32.5050930716028
 21
46.61752455953885
 31
0.0
  0
ARC
  5
5659
330
A
100
AcDbEntity
  8
0
  6
Continuous
 62
     7
370
    15
100
AcDbCircle
 10
33.5050927341947
 20
43.11752231039782
 30
0.0
 40
1.0
100
AcDbArc
 50
180.0
 51
270.0
  0
LINE
  5
565A
330
A
100
AcDbEntity
  8
0
  6
Continuous
 62
     7
370
    15
100
AcDbLine
 10
33.50509509816072
 20
42.1175228906088
 30
0.0
 11
40.50509438290499
 21
42.1175228906088
 31
0.0
  0
LINE
  5
565B
330
A
100
AcDbEntity
  8
0
  6
Continuous
 62
     7
370
    15
100
AcDbLine
 10
40.50509438290499
 20
46.61752455953885
 30
0.0
 11
40.50509438290499
 21
42.1175228906088
 31
0.0
  0
LINE
  5
565C
330
A
100
AcDbEntity
  8
0
  6
Continuous
 62
     7
370
    15
100
AcDbLine
 10
57.90509090199373
 20
139.6175193143301
 30
0.0
 11
50.90509161724947
 21
139.6175193143301
 31
0.0
  0
LINE
  5
565D
330
A
100
AcDbEntity
  8
0
  6
Continuous
 62
     7
370
    15
100
AcDbLine
 10
50.90509161724947
 20
135.1175176454001
 30
0.0
 11
50.90509161724947
 21
139.6175193143301
 31
0.0
  0
LINE
  5
565E
330
A
100
AcDbEntity
  8
0
  6
Continuous
 62
     7
370
    15
100
AcDbLine
 10
58.90509292855165
 20
138.6175172877722
 30
0.0
 11
58.90509292855165
 21
135.1175176454001
 31
0.0
  0
ARC
  5
565F
330
A
100
AcDbEntity
  8
0
  6
Continuous
 62
     7
370
    15
100
AcDbCircle
 10
57.90509273419468
 20
138.6175223103978
 30
0.0
 40
1.0
100
AcDbArc
 50
0.0
 51
90.0
  0
LINE
  5
5660
330
A
100
AcDbEntity
  8
0
  6
Continuous
 62
     7
370
    15
100
AcDbLine
 10
50.90509161724947
 20
46.61752455953885
 30
0.0
 11
50.90509161724947
 21
135.1175176454001
 31
0.0
  0
LINE
  5
5661
330
A
100
AcDbEntity
  8
0
  6
Continuous
 62
     7
370
    15
100
AcDbLine
 10
58.90509292855165
 20
135.1175176454001
 30
0.0
 11
58.90509292855165
 21
46.61752455953885
 31
0.0
  0
LINE
  5
5662
330
A
100
AcDbEntity
  8
0
  6
Continuous
 62
     7
370
    15
100
AcDbLine
 10
57.90509090199373
 20
42.1175228906088
 30
0.0
 11
50.90509161724947
 21
42.1175228906088
 31
0.0
  0
LINE
  5
5663
330
A
100
AcDbEntity
  8
0
  6
Continuous
 62
     7
370
    15
100
AcDbLine
 10
50.90509161724947
 20
42.1175228906088
 30
0.0
 11
50.90509161724947
 21
46.61752455953885
 31
0.0
  0
LINE
  5
5664
330
A
100
AcDbEntity
  8
0
  6
Continuous
 62
     7
370
    15
100
AcDbLine
 10
58.90509292855165
 20
46.61752455953885
 30
0.0
 11
58.90509292855165
 21
43.11752491716672
 31
0.0
  0
ARC
  5
5665
330
A
100
AcDbEntity
  8
0
  6
Continuous
 62
     7
370
    15
100
AcDbCircle
 10
57.90509273419468
 20
43.11752231039787
 30
0.0
 40
1.0
100
AcDbArc
 50
270.0
 51
0.0
  0
LINE
  5
5666
330
A
100
AcDbEntity
  8
0
  6
Continuous
 62
     7
370
    15
100
AcDbLine
 10
46.3050919808378
 20
128.367515142005
 30
0.0
 11
49.00509298219583
 21
128.367515142005
 31
0.0
  0
LINE
  5
5667
330
A
100
AcDbEntity
  8
0
  6
Continuous
 62
     7
370
    15
100
AcDbLine
 10
46.3050919808378
 20
123.3675199103766
 30
0.0
 11
46.3050919808378
 21
128.367515142005
 31
0.0
  0
LINE
  5
5668
330
A
100
AcDbEntity
  8
0
  6
Continuous
 62
     7
370
    15
100
AcDbLine
 10
46.3050919808378
 20
57.36752026800443
 30
0.0
 11
46.3050919808378
 21
123.3675199103766
 31
0.0
  0
LINE
  5
5669
330
A
100
AcDbEntity
  8
0
  6
Continuous
 62
     7
370
    15
100
AcDbLine
 10
46.3050919808378
 20
52.36752503637601
 30
0.0
 11
49.00509298219583
 21
52.36752503637601
 31
0.0
  0
LINE
  5
566A
330
A
100
AcDbEntity
  8
0
  6
Continuous
 62
     7
370
    15
100
AcDbLine
 10
46.3050919808378
 20
52.36752503637601
 30
0.0
 11
46.3050919808378
 21
57.36752026800443
 31
0.0
  0
LINE
  5
566B
330
A
100
AcDbEntity
  8
0
  6
Continuous
 62
     7
370
    15
100
AcDbLine
 10
45.10509401931665
 20
127.5425272536688
 30
0.0
 11
46.3050919808378
 21
127.5425272536688
 31
0.0
  0
LINE
  5
566C
330
A
100
AcDbEntity
  8
0
  6
Continuous
 62
     7
370
    15
100
AcDbLine
 10
45.10509401931665
 20
120.042519505065
 30
0.0
 11
46.3050919808378
 21
120.042519505065
 31
0.0
  0
LINE
  5
566D
330
A
100
AcDbEntity
  8
0
  6
Continuous
 62
     7
370
    15
100
AcDbLine
 10
45.10509401931665
 20
53.19252037529279
 30
0.0
 11
46.3050919808378
 21
53.19252037529279
 31
0.0
  0
LINE
  5
566E
330
A
100
AcDbEntity
  8
0
  6
Continuous
 62
     7
370
    15
100
AcDbLine
 10
45.10509401931665
 20
60.69252067331601
 30
0.0
 11
46.3050919808378
 21
60.69252067331601
 31
0.0
  0
LINE
  5
566F
330
A
100
AcDbEntity
  8
0
  6
Continuous
 62
     7
370
    15
100
AcDbLine
 10
45.10509401931665
 20
128.367515142005
 30
0.0
 11
41.00509539618395
 21
128.367515142005
 31
0.0
  0
LINE
  5
5670
330
A
100
AcDbEntity
  8
0
  6
Continuous
 62
     7
370
    15
100
AcDbLine
 10
45.10509401931665
 20
128.367515142005
 30
0.0
 11
45.10509401931665
 21
123.3675199103766
 31
0.0
  0
LINE
  5
5671
330
A
100
AcDbEntity
  8
0
  6
Continuous
 62
     7
370
    15
100
AcDbLine
 10
45.10509401931665
 20
123.3675199103766
 30
0.0
 11
45.10509401931665
 21
57.36752026800443
 31
0.0
  0
LINE
  5
5672
330
A
100
AcDbEntity
  8
0
  6
Continuous
 62
     7
370
    15
100
AcDbLine
 10
45.10509401931665
 20
52.36752503637601
 30
0.0
 11
41.00509539618395
 21
52.36752503637601
 31
0.0
  0
LINE
  5
5673
330
A
100
AcDbEntity
  8
0
  6
Continuous
 62
     7
370
    15
100
AcDbLine
 10
45.10509401931665
 20
57.36752026800443
 30
0.0
 11
45.10509401931665
 21
52.36752503637601
 31
0.0
  0
LINE
  5
5674
330
A
100
AcDbEntity
  8
0
  6
Continuous
 62
     7
370
     0
100
AcDbLine
 10
40.50509438290499
 20
133.3675252747946
 30
0.0
 11
41.00509539618395
 21
133.3675252747946
 31
0.0
  0
LINE
  5
5675
330
A
100
AcDbEntity
  8
0
  6
Continuous
 62
     7
370
     0
100
AcDbLine
 10
40.50509438290499
 20
48.36752438072492
 30
0.0
 11
41.00509539618395
 21
48.36752438072492
 31
0.0
  0
LINE
  5
5676
330
A
100
AcDbEntity
  8
0
  6
Continuous
 62
     7
370
     0
100
AcDbLine
 10
49.00509298219583
 20
133.3675252747946
 30
0.0
 11
50.90509161724947
 21
133.3675252747946
 31
0.0
  0
LINE
  5
5677
330
A
100
AcDbEntity
  8
0
  6
Continuous
 62
     7
370
     0
100
AcDbLine
 10
49.00509298219583
 20
48.36752438072492
 30
0.0
 11
50.90509161724947
 21
48.36752438072492
 31
0.0
  0
LINE
  5
5678
330
A
100
AcDbEntity
  8
0
  6
Continuous
 62
     7
370
     0
100
AcDbLine
 10
33.50509509816072
 20
139.6175193143301
 30
0.0
 11
33.50509509816072
 21
135.1175176454001
 31
0.0
  0
LINE
  5
5679
330
A
100
AcDbEntity
  8
0
  6
Continuous
 62
     7
370
     0
100
AcDbLine
 10
33.50509509816072
 20
135.1175176454001
 30
0.0
 11
32.5050930716028
 21
135.1175176454001
 31
0.0
  0
LINE
  5
567A
330
A
100
AcDbEntity
  8
0
  6
Continuous
 62
     7
370
     0
100
AcDbLine
 10
33.50509509816072
 20
135.1175176454001
 30
0.0
 11
40.50509438290499
 21
135.1175176454001
 31
0.0
  0
LINE
  5
567B
330
A
100
AcDbEntity
  8
0
  6
Continuous
 62
     7
370
     0
100
AcDbLine
 10
33.50509509816072
 20
135.1175176454001
 30
0.0
 11
33.50509509816072
 21
46.61752455953885
 31
0.0
  0
LINE
  5
567C
330
A
100
AcDbEntity
  8
0
  6
Continuous
 62
     7
370
     0
100
AcDbLine
 10
32.5050930716028
 20
46.61752455953885
 30
0.0
 11
33.50509509816072
 21
46.61752455953885
 31
0.0
  0
LINE
  5
567D
330
A
100
AcDbEntity
  8
0
  6
Continuous
 62
     7
370
     0
100
AcDbLine
 10
33.50509509816072
 20
46.61752455953885
 30
0.0
 11
40.50509438290499
 21
46.61752455953885
 31
0.0
  0
LINE
  5
567E
330
A
100
AcDbEntity
  8
0
  6
Continuous
 62
     7
370
     0
100
AcDbLine
 10
33.50509509816072
 20
46.61752455953885
 30
0.0
 11
33.50509509816072
 21
42.1175228906088
 31
0.0
  0
LINE
  5
567F
330
A
100
AcDbEntity
  8
0
  6
Continuous
 62
     7
370
     0
100
AcDbLine
 10
57.90509090199373
 20
135.1175176454001
 30
0.0
 11
57.90509090199373
 21
139.6175193143301
 31
0.0
  0
LINE
  5
5680
330
A
100
AcDbEntity
  8
0
  6
Continuous
 62
     7
370
     0
100
AcDbLine
 10
57.90509090199373
 20
135.1175176454001
 30
0.0
 11
50.90509161724947
 21
135.1175176454001
 31
0.0
  0
LINE
  5
5681
330
A
100
AcDbEntity
  8
0
  6
Continuous
 62
     7
370
     0
100
AcDbLine
 10
58.90509292855165
 20
135.1175176454001
 30
0.0
 11
57.90509090199373
 21
135.1175176454001
 31
0.0
  0
LINE
  5
5682
330
A
100
AcDbEntity
  8
0
  6
Continuous
 62
     7
370
     0
100
AcDbLine
 10
57.90509090199373
 20
46.61752455953885
 30
0.0
 11
57.90509090199373
 21
135.1175176454001
 31
0.0
  0
LINE
  5
5683
330
A
100
AcDbEntity
  8
0
  6
Continuous
 62
     7
370
     0
100
AcDbLine
 10
57.90509090199373
 20
46.61752455953885
 30
0.0
 11
50.90509161724947
 21
46.61752455953885
 31
0.0
  0
LINE
  5
5684
330
A
100
AcDbEntity
  8
0
  6
Continuous
 62
     7
370
     0
100
AcDbLine
 10
57.90509090199373
 20
46.61752455953885
 30
0.0
 11
58.90509292855165
 21
46.61752455953885
 31
0.0
  0
LINE
  5
5685
330
A
100
AcDbEntity
  8
0
  6
Continuous
 62
     7
370
     0
100
AcDbLine
 10
57.90509090199373
 20
42.1175228906088
 30
0.0
 11
57.90509090199373
 21
46.61752455953885
 31
0.0
  0
LINE
  5
5686
330
A
100
AcDbEntity
  8
0
  6
Continuous
 62
     7
370
     0
100
AcDbLine
 10
46.3050919808378
 20
123.3675199103766
 30
0.0
 11
49.00509298219583
 21
123.3675199103766
 31
0.0
  0
LINE
  5
5687
330
A
100
AcDbEntity
  8
0
  6
Continuous
 62
     7
370
     0
100
AcDbLine
 10
46.3050919808378
 20
57.36752026800443
 30
0.0
 11
49.00509298219583
 21
57.36752026800443
 31
0.0
  0
LINE
  5
5688
330
A
100
AcDbEntity
  8
0
  6
Continuous
 62
     7
370
     0
100
AcDbLine
 10
45.10509401931665
 20
123.3675199103766
 30
0.0
 11
41.00509539618395
 21
123.3675199103766
 31
0.0
  0
LINE
  5
5689
330
A
100
AcDbEntity
  8
0
  6
Continuous
 62
     7
370
     0
100
AcDbLine
 10
45.10509401931665
 20
57.36752026800443
 30
0.0
 11
41.00509539618395
 21
57.36752026800443
 31
0.0
  0
LINE
  5
568A
330
A
100
AcDbEntity
  8
0
  6
Continuous
 62
     7
370
    15
100
AcDbLine
 10
104.5058193494552
 20
-22.56733779474126
 30
0.0
 11
105.4957697956352
 21
-21.99585156658799
 31
0.0
  0
LINE
  5
568B
330
A
100
AcDbEntity
  8
0
  6
Continuous
 62
     7
370
    15
100
AcDbLine
 10
53.95562286407085
 20
12.97484322896639
 30
0.0
 11
52.96567241789091
 21
12.40335700081312
 31
0.0
  0
LINE
  5
568C
330
A
100
AcDbEntity
  8
0
  6
Continuous
 62
     7
370
    15
100
AcDbLine
 10
104.5058193494552
 20
-92.78985000172736
 30
0.0
 11
105.4957697956352
 21
-92.21836377357408
 31
0.0
  0
LINE
  5
568D
330
A
100
AcDbEntity
  8
0
  6
Continuous
 62
     7
370
    15
100
AcDbLine
 10
104.5914877581374
 20
-81.76340108773752
 30
0.0
 11
104.2379343095922
 21
-81.55929902632698
 31
0.0
  0
LINE
  5
568E
330
A
100
AcDbEntity
  8
0
  6
Continuous
 62
     7
370
    15
100
AcDbLine
 10
100.2382563378251
 20
-88.48769276249482
 30
0.0
 11
100.5918097863703
 21
-88.69179482390541
 31
0.0
  0
LINE
  5
568F
330
A
100
AcDbEntity
  8
0
  6
Continuous
 62
     7
370
    15
100
AcDbLine
 10
104.5914877581374
 20
-27.87170779529578
 30
0.0
 11
104.2379343095922
 21
-27.66760573388518
 31
0.0
  0
LINE
  5
5690
330
A
100
AcDbEntity
  8
0
  6
Continuous
 62
     7
370
    15
100
AcDbLine
 10
100.2382563378251
 20
-34.59599947005302
 30
0.0
 11
100.5918097863703
 21
-34.80010153146364
 31
0.0
  0
SPLINE
  5
5691
330
A
100
AcDbEntity
  8
0
  6
Continuous
 62
     7
370
    15
100
AcDbSpline
210
0.0
220
0.0
230
1.0
 70
     8
 71
     3
 72
    13
 73
     9
 74
     0
 42
0.00000001
 43
0.00000001
 40
0.0
 40
0.0
 40
0.0
 40
0.0
 40
0.1185100446066919
 40
0.3011216056313881
 40
0.4869736479116636
 40
0.6758104863517103
 40
0.870892763434611
 40
1.0
 40
1.0
 40
1.0
 40
1.0
 10
111.9001549777099
 20
-14.04657467511385
 30
0.0
 10
111.8959214518425
 20
-13.95012953090702
 30
0.0
 10
111.8851645062107
 20
-13.70507252518834
 30
0.0
 10
111.7831641374476
 20
-13.30712185993389
 30
0.0
 10
111.5873140360245
 20
-12.86957481666431
 30
0.0
 10
111.3088581504921
 20
-12.46516650650372
 30
0.0
 10
111.0038226609482
 20
-12.15554138602053
 30
0.0
 10
110.7815325383345
 20
-12.01267585264404
 30
0.0
 10
110.6930063453574
 20
-11.95578019921243
 30
0.0
  0
LINE
  5
5692
330
A
100
AcDbEntity
  8
0
  6
Continuous
 62
     7
370
    15
100
AcDbLine
 10
111.9001549777098
 20
-90.39313713088808
 30
0.0
 11
111.9001549777098
 21
-14.04657467511385
 31
0.0
  0
LINE
  5
5693
330
A
100
AcDbEntity
  8
0
  6
Continuous
 62
     7
370
    15
100
AcDbLine
 10
110.6930063453574
 20
-11.95578019921243
 30
0.0
 11
57.65999894174649
 21
18.65952330983379
 31
0.0
  0
LINE
  5
5694
330
A
100
AcDbEntity
  8
0
  6
Continuous
 62
     7
370
    15
100
AcDbLine
 10
54.91021737270626
 20
18.83280853327352
 30
0.0
 11
49.96047041016254
 21
15.97538043386436
 31
0.0
  0
SPLINE
  5
5695
330
A
100
AcDbEntity
  8
0
  6
Continuous
 62
     7
370
    15
100
AcDbSpline
210
0.0
220
0.0
230
1.0
 70
     8
 71
     3
 72
    13
 73
     9
 74
     0
 42
0.00000001
 43
0.00000001
 40
0.0
 40
0.0
 40
0.0
 40
0.0
 40
0.1166742482165069
 40
0.3319607990575164
 40
0.5199526891546123
 40
0.6996559595999878
 40
0.8735542561225833
 40
0.9999999999999999
 40
0.9999999999999999
 40
0.9999999999999999
 40
0.9999999999999999
 10
57.65999894174649
 20
18.65952330983379
 30
0.0
 10
57.55635287467169
 20
18.7159387426849
 30
0.0
 10
57.26145977039857
 20
18.87645155896342
 30
0.0
 10
56.78366591453494
 20
19.04790233830397
 30
0.0
 10
56.23856764785205
 20
19.14168864817225
 30
0.0
 10
55.73438037753203
 20
19.12470680225226
 30
0.0
 10
55.29522264355546
 20
19.03065015093051
 30
0.0
 10
55.05209714545936
 20
18.89642952222209
 30
0.0
 10
54.94974057989737
 20
18.83992223405312
 30
0.0
  0
LINE
  5
5696
330
A
100
AcDbEntity
  8
0
  6
Continuous
 62
     7
370
    15
100
AcDbLine
 10
106.2432161658343
 20
-94.57446144236627
 30
0.0
 11
111.1929631283779
 21
-91.71703334295711
 31
0.0
  0
SPLINE
  5
5697
330
A
100
AcDbEntity
  8
0
  6
Continuous
 62
     7
370
    15
100
AcDbSpline
210
0.0
220
0.0
230
1.0
 70
     8
 71
     3
 72
    12
 73
     8
 74
     0
 42
0.00000001
 43
0.00000001
 40
0.0
 40
0.0
 40
0.0
 40
0.0
 40
0.178445636291346
 40
0.4168782998572744
 40
0.6486747855425444
 40
0.8859817042438378
 40
1.0
 40
1.0
 40
1.0
 40
1.0
 10
111.1838100182615
 20
-91.70758174851574
 30
0.0
 10
111.2653981316951
 20
-91.65990325423297
 30
0.0
 10
111.4560013581097
 20
-91.54851846472832
 30
0.0
 10
111.6718615381606
 20
-91.27496616779246
 30
0.0
 10
111.8302417521597
 20
-90.93940199072324
 30
0.0
 10
111.8931920949129
 20
-90.63826934969791
 30
0.0
 10
111.8984489347273
 20
-90.45319933700068
 30
0.0
 10
111.9001549777098
 20
-90.39313713088808
 30
0.0
  0
SPLINE
  5
5698
330
A
100
AcDbEntity
  8
0
  6
Continuous
 62
     7
370
    15
100
AcDbSpline
210
0.0
220
0.0
230
1.0
 70
     8
 71
     3
 72
    14
 73
    10
 74
     0
 42
0.00000001
 43
0.00000001
 40
0.0
 40
0.0
 40
0.0
 40
0.0
 40
0.0441014139001161
 40
0.2223276541246282
 40
0.3990741105467943
 40
0.5793128193219047
 40
0.767071104091402
 40
0.964151945473457
 40
1.0
 40
1.0
 40
1.0
 40
1.0
 10
37.65978886589068
 20
8.861487911295171
 30
0.0
 10
37.62252777667032
 20
8.843827808455217
 30
0.0
 10
37.43468412668568
 20
8.754798253872139
 30
0.0
 10
37.1565981552082
 20
8.494766562516531
 30
0.0
 10
36.84651496112713
 20
8.10021483083517
 30
0.0
 10
36.62186894539315
 20
7.631420752842587
 30
0.0
 10
36.47755010536872
 20
7.101896353791915
 30
0.0
 10
36.43404911012544
 20
6.680784012682238
 30
0.0
 10
36.43206196500097
 20
6.441018881608329
 30
0.0
 10
36.43175614082872
 20
6.404118721760085
 30
0.0
  0
LINE
  5
5699
330
A
100
AcDbEntity
  8
0
  6
Continuous
 62
     7
370
    15
100
AcDbLine
 10
42.60656184143625
 20
11.73005938133804
 30
0.0
 11
37.65681487889265
 21
8.872631281928875
 31
0.0
  0
LINE
  5
569A
330
A
100
AcDbEntity
  8
0
  6
Continuous
 62
     7
370
    15
100
AcDbLine
 10
36.43175614082872
 20
6.404118721760085
 30
0.0
 11
36.43175614082872
 21
-65.8597374844523
 31
0.0
  0
SPLINE
  5
569B
330
A
100
AcDbEntity
  8
0
  6
Continuous
 62
     7
370
    15
100
AcDbSpline
210
0.0
220
0.0
230
1.0
 70
     8
 71
     3
 72
    12
 73
     8
 74
     0
 42
0.00000001
 43
0.00000001
 40
0.0
 40
0.0
 40
0.0
 40
0.0
 40
0.1933753896488825
 40
0.4441694256494187
 40
0.6841381080121998
 40
0.9204066185673512
 40
1.0
 40
1.0
 40
1.0
 40
1.0
 10
92.43968040733489
 20
-101.6276994709941
 30
0.0
 10
92.5301449595903
 20
-101.6744197118121
 30
0.0
 10
92.73793555946918
 20
-101.7817327601171
 30
0.0
 10
93.09015662759953
 20
-101.8656681683298
 30
0.0
 10
93.47089784594937
 20
-101.8544765957705
 30
0.0
 10
93.76423798053588
 20
-101.7851995105106
 30
0.0
 10
93.90043965592304
 20
-101.6891083505679
 30
0.0
 10
93.93476083291785
 20
-101.6648945389634
 30
0.0
  0
LINE
  5
569C
330
A
100
AcDbEntity
  8
0
  6
Continuous
 62
     7
370
    15
100
AcDbLine
 10
93.93956063456426
 20
-101.6772105943018
 30
0.0
 11
98.88930759710797
 21
-98.81978249489259
 31
0.0
  0
LINE
  5
569D
330
A
100
AcDbEntity
  8
0
  6
Continuous
 62
     7
370
    15
100
AcDbLine
 10
39.40667300372399
 20
-71.01239596194785
 30
0.0
 11
92.43968040733489
 21
-101.6276994709941
 31
0.0
  0
SPLINE
  5
569E
330
A
100
AcDbEntity
  8
0
  6
Continuous
 62
     7
370
    15
100
AcDbSpline
210
0.0
220
0.0
230
1.0
 70
     8
 71
     3
 72
    17
 73
    13
 74
     0
 42
0.00000001
 43
0.00000001
 40
0.0
 40
0.0
 40
0.0
 40
0.0
 40
0.0619729016956489
 40
0.1744068389221629
 40
0.2864641625369309
 40
0.3980681366745072
 40
0.5093492862358895
 40
0.6206777606793867
 40
0.7324178245817894
 40
0.8450000500501907
 40
0.9588922923597447
 40
1.0
 40
1.0
 40
1.0
 40
1.0
 10
36.43175614082872
 20
-65.8597374844523
 30
0.0
 10
36.43465798771837
 20
-65.97823425787124
 30
0.0
 10
36.44282449161295
 20
-66.3117130382575
 30
0.0
 10
36.52926629188988
 20
-66.87859882008172
 30
0.0
 10
36.71222839067235
 20
-67.55127607437504
 30
0.0
 10
36.9758275666224
 20
-68.21632160794877
 30
0.0
 10
37.31063473136169
 20
-68.8578567951738
 30
0.0
 10
37.7089340770155
 20
-69.46126897597532
 30
0.0
 10
38.16235337404794
 20
-70.01297281438713
 30
0.0
 10
38.66317012321366
 20
-70.49831770614782
 30
0.0
 10
39.08589239699666
 20
-70.8200032114218
 30
0.0
 10
39.33943159377571
 20
-70.97206696593656
 30
0.0
 10
39.40667300372399
 20
-71.01239596194785
 30
0.0
  0
LINE
  5
569F
330
A
100
AcDbEntity
  8
0
  6
Continuous
 62
     7
370
    15
100
AcDbLine
 10
83.65251886415751
 20
1.327368801903134
 30
0.0
 11
79.90204467092326
 21
3.49247146815128
 31
0.0
  0
LINE
  5
56A0
330
A
100
AcDbEntity
  8
0
  6
Continuous
 62
     7
370
    15
100
AcDbLine
 10
52.51384766514207
 20
14.76080912270703
 30
0.0
 11
51.58432526301453
 21
14.22420726185061
 31
0.0
  0
LINE
  5
56A1
330
A
100
AcDbEntity
  8
0
  6
Continuous
 62
     7
370
    15
100
AcDbLine
 10
96.12162184925694
 20
-31.27407529773885
 30
0.0
 11
96.36910946080195
 21
-31.41694685477717
 31
0.0
  0
LINE
  5
56A2
330
A
100
AcDbEntity
  8
0
  6
Continuous
 62
     7
370
    15
100
AcDbLine
 10
105.7029755567158
 20
-23.57939591442695
 30
0.0
 11
99.30360091053012
 21
-27.27367626270171
 31
0.0
  0
LINE
  5
56A3
330
A
100
AcDbEntity
  8
0
  6
Continuous
 62
     7
370
    15
100
AcDbLine
 10
108.5666431787886
 20
-23.76308780771348
 30
0.0
 11
109.0970309742509
 21
-24.06927416467394
 31
0.0
  0
LINE
  5
56A4
330
A
100
AcDbEntity
  8
0
  6
Continuous
 62
     7
370
    15
100
AcDbLine
 10
109.0970309742509
 20
-24.06927416467394
 30
0.0
 11
96.36910946080195
 21
-31.41694685477717
 31
0.0
  0
LINE
  5
56A5
330
A
100
AcDbEntity
  8
0
  6
Continuous
 62
     7
370
    15
100
AcDbLine
 10
109.0970309742509
 20
-85.30983748958647
 30
0.0
 11
109.0970309742509
 21
-24.06927416467394
 31
0.0
  0
LINE
  5
56A6
330
A
100
AcDbEntity
  8
0
  6
Continuous
 62
     7
370
    15
100
AcDbLine
 10
96.36910946080195
 20
-92.65751017968967
 30
0.0
 11
109.0970309742509
 21
-85.30983748958647
 31
0.0
  0
LINE
  5
56A7
330
A
100
AcDbEntity
  8
0
  6
Continuous
 62
     7
370
    15
100
AcDbLine
 10
96.36910946080195
 20
-31.41694685477717
 30
0.0
 11
96.36910946080195
 21
-92.65751017968967
 31
0.0
  0
ARC
  5
56A8
330
A
100
AcDbEntity
  8
0
  6
Continuous
 62
     7
370
    15
100
AcDbCircle
 10
105.3676916127262
 20
-45.83874046485516
 30
0.0
 40
1.091774491023789
100
AcDbArc
 50
350.7855683581562
 51
129.2030884086114
  0
LINE
  5
56A9
330
A
100
AcDbEntity
  8
0
  6
Continuous
 62
     7
370
    15
100
AcDbLine
 10
100.7885252627111
 20
-47.23783533150899
 30
0.0
 11
104.6776125381637
 21
-44.99271303616197
 31
0.0
  0
ARC
  5
56AA
330
A
100
AcDbEntity
  8
0
  6
Continuous
 62
     7
370
    15
100
AcDbCircle
 10
102.8588121112682
 20
-50.47435481292413
 30
0.0
 40
3.842023684061397
100
AcDbArc
 50
122.6056069042888
 51
177.3945901309403
  0
LINE
  5
56AB
330
A
100
AcDbEntity
  8
0
  6
Continuous
 62
     7
370
    15
100
AcDbLine
 10
99.02075999561862
 20
-70.71321974508868
 30
0.0
 11
99.02075999561862
 21
-50.29970674838867
 31
0.0
  0
ARC
  5
56AC
330
A
100
AcDbEntity
  8
0
  6
Continuous
 62
     7
370
    15
100
AcDbCircle
 10
100.0984455588352
 20
-70.88804144809336
 30
0.0
 40
1.091773236989716
100
AcDbArc
 50
170.7857677974822
 51
309.2031847080895
  0
LINE
  5
56AD
330
A
100
AcDbEntity
  8
0
  6
Continuous
 62
     7
370
    15
100
AcDbLine
 10
104.6776125381637
 20
-69.48894444983011
 30
0.0
 11
100.7885252627111
 21
-71.73406674517713
 31
0.0
  0
ARC
  5
56AE
330
A
100
AcDbEntity
  8
0
  6
Continuous
 62
     7
370
    15
100
AcDbCircle
 10
102.6073498935966
 20
-66.25243859554848
 30
0.0
 40
3.841999162192621
100
AcDbArc
 50
302.6054123430454
 51
357.3946861019058
  0
LINE
  5
56AF
330
A
100
AcDbEntity
  8
0
  6
Continuous
 62
     7
370
    15
100
AcDbLine
 10
106.445377805256
 20
-46.01356611995351
 30
0.0
 11
106.445377805256
 21
-66.42707911665354
 31
0.0
  0
LINE
  5
56B0
330
A
100
AcDbEntity
  8
0
  6
Continuous
 62
     7
370
    15
100
AcDbLine
 10
96.19233273652935
 20
-92.55545914898437
 30
0.0
 11
96.36910946080195
 21
-92.65751017968967
 31
0.0
  0
ARC
  5
56B1
330
A
100
AcDbEntity
  8
0
  6
Continuous
 62
     7
370
    15
100
AcDbCircle
 10
103.4436555038363
 20
-29.10402182152512
 30
0.0
 40
1.857069605185534
100
AcDbArc
 50
12.39511079809464
 51
49.54286851105269
  0
ARC
  5
56B2
330
A
100
AcDbEntity
  8
0
  6
Continuous
 62
     7
370
    15
100
AcDbCircle
 10
101.0842994751769
 20
-33.22970333449331
 30
0.0
 40
1.819323842133536
100
AcDbArc
 50
250.0623937570304
 51
288.0098553873835
  0
LINE
  5
56B3
330
A
100
AcDbEntity
  8
0
  6
Continuous
 62
     7
370
    15
100
AcDbLine
 10
104.324057113985
 20
-45.19681737670672
 30
0.0
 11
104.324057113985
 21
-65.20246674818986
 31
0.0
  0
LINE
  5
56B4
330
A
100
AcDbEntity
  8
0
  6
Continuous
 62
     7
370
    15
100
AcDbLine
 10
102.5562918468925
 20
-68.26433208136643
 30
0.0
 11
99.02075867852955
 21
-70.30535193513322
 31
0.0
  0
ARC
  5
56B5
330
A
100
AcDbEntity
  8
0
  6
Continuous
 62
     7
370
    15
100
AcDbCircle
 10
100.4860292023254
 20
-65.0278262270848
 30
0.0
 40
3.841999162192671
100
AcDbArc
 50
302.6054123430463
 51
357.3946861019049
  0
ARC
  5
56B6
330
A
100
AcDbEntity
  8
0
  6
Continuous
 62
     7
370
    15
100
AcDbCircle
 10
103.4436413122745
 20
-82.99573210512386
 30
0.0
 40
1.85708711318551
100
AcDbArc
 50
12.39552881418006
 51
49.54275372049764
  0
ARC
  5
56B7
330
A
100
AcDbEntity
  8
0
  6
Continuous
 62
     7
370
    15
100
AcDbCircle
 10
101.0842896481187
 20
-87.12145791781535
 30
0.0
 40
1.819268592856752
100
AcDbArc
 50
250.0620918130721
 51
288.0107465222081
  0
LINE
  5
56B8
330
A
100
AcDbEntity
  8
0
  6
Continuous
 62
     7
370
    15
100
AcDbLine
 10
100.1157384126542
 20
-90.49462408965826
 30
0.0
 11
104.0058596029843
 21
-92.74034325135938
 31
0.0
  0
LINE
  5
56B9
330
A
100
AcDbEntity
  8
0
  6
Continuous
 62
     7
370
    15
100
AcDbLine
 10
52.03351056937549
 20
10.34305997053247
 30
0.0
 11
52.03351056937549
 21
7.486225985294652
 31
0.0
  0
ARC
  5
56BA
330
A
100
AcDbEntity
  8
0
  6
Continuous
 62
     7
370
    15
100
AcDbCircle
 10
53.98309588177472
 20
10.64084874125001
 30
0.0
 40
1.972197008994896
100
AcDbArc
 50
51.32625069296962
 51
188.6845010617797
  0
LINE
  5
56BB
330
A
100
AcDbEntity
  8
0
  6
Continuous
 62
     7
370
    15
100
AcDbLine
 10
104.0058596029843
 20
-15.98550347855553
 30
0.0
 11
55.21549226482671
 21
12.18057605390277
 31
0.0
  0
ARC
  5
56BC
330
A
100
AcDbEntity
  8
0
  6
Continuous
 62
     7
370
    15
100
AcDbCircle
 10
103.1777229631364
 20
-17.2801250186908
 30
0.0
 40
1.536832855726666
100
AcDbArc
 50
2.605957057950929
 51
57.39398146860418
  0
LINE
  5
56BD
330
A
100
AcDbEntity
  8
0
  6
Continuous
 62
     7
370
    15
100
AcDbLine
 10
104.7129665000747
 20
-22.10949270054149
 30
0.0
 11
104.7129665000747
 21
-17.21025006802975
 31
0.0
  0
ARC
  5
56BE
330
A
100
AcDbEntity
  8
0
  6
Continuous
 62
     7
370
    15
100
AcDbCircle
 10
104.2818941212649
 20
-22.17942473535493
 30
0.0
 40
0.4367080091615689
100
AcDbArc
 50
230.7962312837514
 51
9.21470530819753
  0
LINE
  5
56BF
330
A
100
AcDbEntity
  8
0
  6
Continuous
 62
     7
370
    15
100
AcDbLine
 10
98.3850511769947
 20
-19.2730074080626
 30
0.0
 11
104.0058596029843
 21
-22.51783104437328
 31
0.0
  0
LINE
  5
56C0
330
A
100
AcDbEntity
  8
0
  6
Continuous
 62
     7
370
    15
100
AcDbLine
 10
104.7129665000747
 20
-92.33200490752762
 30
0.0
 11
104.7129665000747
 21
-87.84069890467026
 31
0.0
  0
ARC
  5
56C1
330
A
100
AcDbEntity
  8
0
  6
Continuous
 62
     7
370
    15
100
AcDbCircle
 10
104.2818923325747
 20
-92.40193384492125
 30
0.0
 40
0.4367092787780966
100
AcDbArc
 50
230.7966699970449
 51
9.214266594894077
  0
ARC
  5
56C2
330
A
100
AcDbEntity
  8
0
  6
Continuous
 62
     7
370
    15
100
AcDbCircle
 10
104.1833891816306
 20
-16.70646384529607
 30
0.0
 40
1.521035146930334
100
AcDbArc
 50
2.551030111725733
 51
37.33439895663507
  0
LINE
  5
56C3
330
A
100
AcDbEntity
  8
0
  6
Continuous
 62
     7
370
    15
100
AcDbLine
 10
105.7029169462546
 20
-21.53800647238819
 30
0.0
 11
105.7029169462546
 21
-16.63876383987648
 31
0.0
  0
ARC
  5
56C4
330
A
100
AcDbEntity
  8
0
  6
Continuous
 62
     7
370
    15
100
AcDbCircle
 10
105.2064940832308
 20
-21.58918853126664
 30
0.0
 40
0.4990543678636407
100
AcDbArc
 50
305.4257669704596
 51
5.886495368267114
  0
ARC
  5
56C5
330
A
100
AcDbEntity
  8
0
  6
Continuous
 62
     7
370
    15
100
AcDbCircle
 10
54.8223171456799
 20
11.3261312193336
 30
0.0
 40
1.862635302060264
100
AcDbArc
 50
72.21914295332479
 51
117.7299894038036
  0
LINE
  5
56C6
330
A
100
AcDbEntity
  8
0
  6
Continuous
 62
     7
370
    15
100
AcDbLine
 10
105.7029169462546
 20
-91.76051867937434
 30
0.0
 11
105.7029169462546
 21
-87.26921267651699
 31
0.0
  0
ARC
  5
56C7
330
A
100
AcDbEntity
  8
0
  6
Continuous
 62
     7
370
    15
100
AcDbCircle
 10
105.2305209927611
 20
-91.82257145830727
 30
0.0
 40
0.476454073600361
100
AcDbArc
 50
303.828873850948
 51
7.483388487776871
  0
ARC
  5
56C8
330
A
100
AcDbEntity
  8
0
  6
Continuous
 62
     7
370
    15
100
AcDbCircle
 10
97.52087042059134
 20
-20.54575648058193
 30
0.0
 40
1.536832855726666
100
AcDbArc
 50
2.605957057951988
 51
57.39398146859948
  0
LINE
  5
56C9
330
A
100
AcDbEntity
  8
0
  6
Continuous
 62
     7
370
    15
100
AcDbLine
 10
99.05611395752965
 20
-20.4917478276829
 30
0.0
 11
99.05611395752965
 21
-20.47588152992085
 31
0.0
  0
LINE
  5
56CA
330
A
100
AcDbEntity
  8
0
  6
Continuous
 62
     7
370
    15
100
AcDbLine
 10
98.34900706043936
 20
-19.25113494044663
 30
0.0
 11
49.55863972228167
 21
8.914944592011636
 31
0.0
  0
LINE
  5
56CB
330
A
100
AcDbEntity
  8
0
  6
Continuous
 62
     7
370
    15
100
AcDbLine
 10
104.2379343095922
 20
-81.55929902632698
 30
0.0
 11
104.0642287076325
 21
-81.47510100585885
 31
0.0
  0
LINE
  5
56CC
330
A
100
AcDbEntity
  8
0
  6
Continuous
 62
     7
370
    15
100
AcDbLine
 10
100.0784750009423
 20
-88.37937112382326
 30
0.0
 11
100.2382563378251
 21
-88.48769276249482
 31
0.0
  0
LINE
  5
56CD
330
A
100
AcDbEntity
  8
0
  6
Continuous
 62
     7
370
    15
100
AcDbLine
 10
102.8744910042544
 20
-85.39093238074929
 30
0.0
 11
104.1572961931342
 21
-84.65038470820934
 31
0.0
  0
ARC
  5
56CE
330
A
100
AcDbEntity
  8
0
  6
Continuous
 62
     7
370
    15
100
AcDbCircle
 10
102.0695557130153
 20
-84.32376893828882
 30
0.0
 40
2.113134679448466
100
AcDbArc
 50
351.1084559158121
 51
8.89154408418962
  0
LINE
  5
56CF
330
A
100
AcDbEntity
  8
0
  6
Continuous
 62
     7
370
    15
100
AcDbLine
 10
104.1572961931342
 20
-83.99715316836824
 30
0.0
 11
102.8744910042544
 21
-84.73770084090813
 31
0.0
  0
LINE
  5
56D0
330
A
100
AcDbEntity
  8
0
  6
Continuous
 62
     7
370
    15
100
AcDbLine
 10
102.8744910042544
 20
-84.73770084090813
 30
0.0
 11
102.8744910042544
 21
-83.25636171476452
 31
0.0
  0
ARC
  5
56D1
330
A
100
AcDbEntity
  8
0
  6
Continuous
 62
     7
370
    15
100
AcDbCircle
 10
103.6353118813352
 20
-85.2275164775213
 30
0.0
 40
2.112888900472661
100
AcDbArc
 50
111.1054533844494
 51
128.8891700828548
  0
LINE
  5
56D2
330
A
100
AcDbEntity
  8
0
  6
Continuous
 62
     7
370
    15
100
AcDbLine
 10
102.3088065402533
 20
-83.58292440475009
 30
0.0
 11
102.3088065402533
 21
-85.06426353089364
 31
0.0
  0
LINE
  5
56D3
330
A
100
AcDbEntity
  8
0
  6
Continuous
 62
     7
370
    15
100
AcDbLine
 10
102.3088065402533
 20
-85.06426353089364
 30
0.0
 11
101.0260013513735
 21
-85.80481120343359
 31
0.0
  0
ARC
  5
56D4
330
A
100
AcDbEntity
  8
0
  6
Continuous
 62
     7
370
    15
100
AcDbCircle
 10
103.1137418314918
 20
-86.13142697335417
 30
0.0
 40
2.11313467944803
100
AcDbArc
 50
171.1084559158087
 51
188.8915440841913
  0
LINE
  5
56D5
330
A
100
AcDbEntity
  8
0
  6
Continuous
 62
     7
370
    15
100
AcDbLine
 10
101.0260013513735
 20
-86.45804274327475
 30
0.0
 11
102.3088065402533
 21
-85.7174950707348
 31
0.0
  0
LINE
  5
56D6
330
A
100
AcDbEntity
  8
0
  6
Continuous
 62
     7
370
    15
100
AcDbLine
 10
102.3088065402533
 20
-85.7174950707348
 30
0.0
 11
102.3088065402533
 21
-87.19882811317524
 31
0.0
  0
ARC
  5
56D7
330
A
100
AcDbEntity
  8
0
  6
Continuous
 62
     7
370
    15
100
AcDbCircle
 10
101.5482544354799
 20
-85.22813892815662
 30
0.0
 40
2.11235777462642
100
AcDbArc
 50
291.1031995076951
 51
308.8914239596044
  0
LINE
  5
56D8
330
A
100
AcDbEntity
  8
0
  6
Continuous
 62
     7
370
    15
100
AcDbLine
 10
102.8744910042544
 20
-86.87226542318973
 30
0.0
 11
102.8744910042544
 21
-85.39093238074929
 31
0.0
  0
LINE
  5
56D9
330
A
100
AcDbEntity
  8
0
  6
Continuous
 62
     7
370
    15
100
AcDbLine
 10
102.3088058817088
 20
-84.49288308244081
 30
0.0
 11
102.379607318851
 21
-84.45201028278063
 31
0.0
  0
LINE
  5
56DA
330
A
100
AcDbEntity
  8
0
  6
Continuous
 62
     7
370
    15
100
AcDbLine
 10
101.8138306586188
 20
-85.4317543134054
 30
0.0
 11
101.8138306586188
 21
-85.35000759445256
 31
0.0
  0
LINE
  5
56DB
330
A
100
AcDbEntity
  8
0
  6
Continuous
 62
     7
370
    15
100
AcDbLine
 10
101.7430292214765
 20
-85.39087877682834
 30
0.0
 11
102.3088065402533
 21
-85.7174950707348
 31
0.0
  0
LINE
  5
56DC
330
A
100
AcDbEntity
  8
0
  6
Continuous
 62
     7
370
    15
100
AcDbLine
 10
102.3088055524365
 20
-84.41113758066814
 30
0.0
 11
102.8744910042544
 21
-84.73770084090813
 31
0.0
  0
LINE
  5
56DD
330
A
100
AcDbEntity
  8
0
  6
Continuous
 62
     7
370
    15
100
AcDbLine
 10
102.3088055524365
 20
-86.3028163992023
 30
0.0
 11
102.8744910042544
 21
-86.87226542318973
 31
0.0
  0
LINE
  5
56DE
330
A
100
AcDbEntity
  8
0
  6
Continuous
 62
     7
370
    15
100
AcDbLine
 10
102.3087136854776
 20
-85.06431608684278
 30
0.0
 11
102.8744910042544
 21
-85.39093238074929
 31
0.0
  0
LINE
  5
56DF
330
A
100
AcDbEntity
  8
0
  6
Continuous
 62
     7
370
    15
100
AcDbLine
 10
103.3811507825494
 20
-84.44521132871853
 30
0.0
 11
104.1572961931342
 21
-84.65038470820934
 31
0.0
  0
LINE
  5
56E0
330
A
100
AcDbEntity
  8
0
  6
Continuous
 62
     7
370
    15
100
AcDbLine
 10
102.8744910042544
 20
-31.49923300460441
 30
0.0
 11
104.1572961931342
 21
-30.75868533206449
 31
0.0
  0
ARC
  5
56E1
330
A
100
AcDbEntity
  8
0
  6
Continuous
 62
     7
370
    15
100
AcDbCircle
 10
102.0695545425765
 20
-30.43206956214391
 30
0.0
 40
2.113135835821851
100
AcDbArc
 50
351.1084608209792
 51
8.891539179020782
  0
LINE
  5
56E2
330
A
100
AcDbEntity
  8
0
  6
Continuous
 62
     7
370
    15
100
AcDbLine
 10
104.1572961931342
 20
-30.10545379222333
 30
0.0
 11
102.8744910042544
 21
-30.84600146476328
 31
0.0
  0
LINE
  5
56E3
330
A
100
AcDbEntity
  8
0
  6
Continuous
 62
     7
370
    15
100
AcDbLine
 10
102.8744910042544
 20
-30.84600146476328
 30
0.0
 11
102.8744910042544
 21
-29.36466842232284
 31
0.0
  0
ARC
  5
56E4
330
A
100
AcDbEntity
  8
0
  6
Continuous
 62
     7
370
    15
100
AcDbCircle
 10
103.6351165891335
 20
-31.33548489240954
 30
0.0
 40
2.112502979675486
100
AcDbArc
 50
111.1038158113563
 51
128.8908076559412
  0
LINE
  5
56E5
330
A
100
AcDbEntity
  8
0
  6
Continuous
 62
     7
370
    15
100
AcDbLine
 10
102.3088065402533
 20
-29.69123111230834
 30
0.0
 11
102.3088065402533
 21
-31.17256415474878
 31
0.0
  0
LINE
  5
56E6
330
A
100
AcDbEntity
  8
0
  6
Continuous
 62
     7
370
    15
100
AcDbLine
 10
102.3088065402533
 20
-31.17256415474878
 30
0.0
 11
101.0260013513735
 21
-31.9131118272887
 31
0.0
  0
ARC
  5
56E7
330
A
100
AcDbEntity
  8
0
  6
Continuous
 62
     7
370
    15
100
AcDbCircle
 10
103.113740660566
 20
-32.23972759720928
 30
0.0
 40
2.113133522593649
100
AcDbArc
 50
171.1084510085936
 51
188.8915489914064
  0
LINE
  5
56E8
330
A
100
AcDbEntity
  8
0
  6
Continuous
 62
     7
370
    15
100
AcDbLine
 10
101.0260013513735
 20
-32.56634336712983
 30
0.0
 11
102.3088065402533
 21
-31.82579569458994
 31
0.0
  0
LINE
  5
56E9
330
A
100
AcDbEntity
  8
0
  6
Continuous
 62
     7
370
    15
100
AcDbLine
 10
102.3088065402533
 20
-31.82579569458994
 30
0.0
 11
102.3088065402533
 21
-33.30714090443666
 31
0.0
  0
ARC
  5
56EA
330
A
100
AcDbEntity
  8
0
  6
Continuous
 62
     7
370
    15
100
AcDbCircle
 10
101.5477902632442
 20
-31.3356476624013
 30
0.0
 40
2.113275035877679
100
AcDbArc
 50
291.1070912622603
 51
308.8875322050432
  0
LINE
  5
56EB
330
A
100
AcDbEntity
  8
0
  6
Continuous
 62
     7
370
    15
100
AcDbLine
 10
102.8744910042544
 20
-32.98057821445113
 30
0.0
 11
102.8744910042544
 21
-31.49923300460441
 31
0.0
  0
LINE
  5
56EC
330
A
100
AcDbEntity
  8
0
  6
Continuous
 62
     7
370
    15
100
AcDbLine
 10
104.2379343095922
 20
-27.66760573388518
 30
0.0
 11
104.0642287076325
 21
-27.58340162971393
 31
0.0
  0
LINE
  5
56ED
330
A
100
AcDbEntity
  8
0
  6
Continuous
 62
     7
370
    15
100
AcDbLine
 10
100.0784750009423
 20
-34.48768391508463
 30
0.0
 11
100.2382563378251
 21
-34.59599947005302
 31
0.0
  0
LINE
  5
56EE
330
A
100
AcDbEntity
  8
0
  6
Continuous
 62
     7
370
    15
100
AcDbLine
 10
102.3088058817088
 20
-30.60118370629596
 30
0.0
 11
102.379607318851
 21
-30.56031090663572
 31
0.0
  0
LINE
  5
56EF
330
A
100
AcDbEntity
  8
0
  6
Continuous
 62
     7
370
    15
100
AcDbLine
 10
101.8138306586188
 20
-31.54006102096366
 30
0.0
 11
101.8138306586188
 21
-31.45830821830765
 31
0.0
  0
LINE
  5
56F0
330
A
100
AcDbEntity
  8
0
  6
Continuous
 62
     7
370
    15
100
AcDbLine
 10
101.7430292214765
 20
-31.49917940068343
 30
0.0
 11
102.3088065402533
 21
-31.82579569458994
 31
0.0
  0
LINE
  5
56F1
330
A
100
AcDbEntity
  8
0
  6
Continuous
 62
     7
370
    15
100
AcDbLine
 10
102.3088055524365
 20
-30.51943820452328
 30
0.0
 11
102.8744910042544
 21
-30.84600146476328
 31
0.0
  0
LINE
  5
56F2
330
A
100
AcDbEntity
  8
0
  6
Continuous
 62
     7
370
    15
100
AcDbLine
 10
102.3087136854776
 20
-31.17261671069789
 30
0.0
 11
102.8744910042544
 21
-31.49923300460441
 31
0.0
  0
LINE
  5
56F3
330
A
100
AcDbEntity
  8
0
  6
Continuous
 62
     7
370
    15
100
AcDbLine
 10
103.3811507825494
 20
-30.55351195257361
 30
0.0
 11
104.1572961931342
 21
-30.75868533206449
 31
0.0
  0
LINE
  5
56F4
330
A
100
AcDbEntity
  8
0
  6
Continuous
 62
     7
370
    15
100
AcDbLine
 10
102.3088055524365
 20
-32.41112919046367
 30
0.0
 11
102.8744910042544
 21
-32.98057821445113
 31
0.0
  0
LINE
  5
56F5
330
A
100
AcDbEntity
  8
0
  6
Continuous
 62
     7
370
    15
100
AcDbLine
 10
105.9504042285273
 20
-24.45700766282337
 30
0.0
 11
105.9504042285273
 21
-16.90400505554095
 31
0.0
  0
ARC
  5
56F6
330
A
100
AcDbEntity
  8
0
  6
Continuous
 62
     7
370
    15
100
AcDbCircle
 10
104.4152164232136
 20
-16.97384780786905
 30
0.0
 40
1.536775718065903
100
AcDbArc
 50
2.604852318606141
 51
57.39507080315911
  0
LINE
  5
56F7
330
A
100
AcDbEntity
  8
0
  6
Continuous
 62
     7
370
    15
100
AcDbLine
 10
105.2432976607092
 20
-15.67925865615157
 30
0.0
 11
52.21029025709845
 21
14.93604485289467
 31
0.0
  0
ARC
  5
56F8
330
A
100
AcDbEntity
  8
0
  6
Continuous
 62
     7
370
    15
100
AcDbCircle
 10
51.24417484381252
 20
13.75161509106778
 30
0.0
 40
1.528480569876507
100
AcDbArc
 50
50.79657013563206
 51
189.2141816191162
  0
LINE
  5
56F9
330
A
100
AcDbEntity
  8
0
  6
Continuous
 62
     7
370
    15
100
AcDbLine
 10
49.73541677582659
 20
13.5068663530169
 30
0.0
 11
49.73541677582659
 21
8.812887864098968
 31
0.0
  0
LINE
  5
56FA
330
A
100
AcDbEntity
  8
0
  6
Continuous
 62
     7
370
    15
100
AcDbLine
 10
99.93887574832331
 20
-90.59672237179097
 30
0.0
 11
105.2432976607092
 21
-93.65889996152868
 31
0.0
  0
ARC
  5
56FB
330
A
100
AcDbEntity
  8
0
  6
Continuous
 62
     7
370
    15
100
AcDbCircle
 10
105.5193329123804
 20
-93.32049627944036
 30
0.0
 40
0.4367064371132312
100
AcDbArc
 50
230.7959388739858
 51
9.214304576467438
  0
LINE
  5
56FC
330
A
100
AcDbEntity
  8
0
  6
Continuous
 62
     7
370
    15
100
AcDbLine
 10
105.9504042285273
 20
-93.25056751131518
 30
0.0
 11
105.9504042285273
 21
-87.12634083513632
 31
0.0
  0
LINE
  5
56FD
330
A
100
AcDbEntity
  8
0
  6
Continuous
 62
     7
370
    15
100
AcDbLine
 10
106.6575111256177
 20
-93.65877163413643
 30
0.0
 11
106.6575111256177
 21
-86.71813633277338
 31
0.0
  0
ARC
  5
56FE
330
A
100
AcDbEntity
  8
0
  6
Continuous
 62
     7
370
    15
100
AcDbCircle
 10
105.7953627793543
 20
-93.79862438249711
 30
0.0
 40
0.8734177478096539
100
AcDbArc
 50
230.7966554970378
 51
9.213934524841038
  0
LINE
  5
56FF
330
A
100
AcDbEntity
  8
0
  6
Continuous
 62
     7
370
    15
100
AcDbLine
 10
99.30360091053012
 20
-91.04652848078888
 30
0.0
 11
105.2432976607092
 21
-94.47544242818168
 31
0.0
  0
LINE
  5
5700
330
A
100
AcDbEntity
  8
0
  6
Continuous
 62
     7
370
    15
100
AcDbLine
 10
49.02830856164724
 20
13.91507123617743
 30
0.0
 11
49.02830856164724
 21
9.169697623220372
 31
0.0
  0
ARC
  5
5701
330
A
100
AcDbEntity
  8
0
  6
Continuous
 62
     7
370
    15
100
AcDbCircle
 10
50.97788030906327
 20
14.21288349704469
 30
0.0
 40
1.972187146557399
100
AcDbArc
 50
51.3255165790229
 51
188.6852351757236
  0
LINE
  5
5702
330
A
100
AcDbEntity
  8
0
  6
Continuous
 62
     7
370
    15
100
AcDbLine
 10
105.2432976607092
 20
-14.86271618949857
 30
0.0
 11
52.21029025709845
 21
15.75258731954767
 31
0.0
  0
ARC
  5
5703
330
A
100
AcDbEntity
  8
0
  6
Continuous
 62
     7
370
    15
100
AcDbCircle
 10
103.587076182917
 20
-17.45192896006341
 30
0.0
 40
3.073612264869536
100
AcDbArc
 50
2.605440357214746
 51
57.39449046694473
  0
LINE
  5
5704
330
A
100
AcDbEntity
  8
0
  6
Continuous
 62
     7
370
    15
100
AcDbLine
 10
106.6575111256177
 20
-24.86521178564459
 30
0.0
 11
106.6575111256177
 21
-17.3122091783622
 31
0.0
  0
LINE
  5
5705
330
A
100
AcDbEntity
  8
0
  6
Continuous
 62
     7
370
    15
100
AcDbLine
 10
105.9504042285273
 20
-24.45700766282337
 30
0.0
 11
106.6575111256177
 21
-24.86521178564459
 31
0.0
  0
LINE
  5
5706
330
A
100
AcDbEntity
  8
0
  6
Continuous
 62
     7
370
    15
100
AcDbLine
 10
109.097028669345
 20
-84.69746552544314
 30
0.0
 11
109.8394928210689
 21
-84.26885009398882
 31
0.0
  0
LINE
  5
5707
330
A
100
AcDbEntity
  8
0
  6
Continuous
 62
     7
370
    15
100
AcDbLine
 10
109.8394928210689
 20
-23.02829285277949
 30
0.0
 11
109.8394928210689
 21
-84.26885009398882
 31
0.0
  0
LINE
  5
5708
330
A
100
AcDbEntity
  8
0
  6
Continuous
 62
     7
370
    15
100
AcDbLine
 10
106.6575111256177
 20
-24.86521178564459
 30
0.0
 11
109.8394928210689
 21
-23.02829285277949
 31
0.0
  0
LINE
  5
5709
330
A
100
AcDbEntity
  8
0
  6
Continuous
 62
     7
370
    15
100
AcDbLine
 10
75.86300944518098
 20
3.894261011135256
 30
0.0
 11
82.93407841608473
 21
-0.1877802170768632
 31
0.0
  0
LINE
  5
570A
330
A
100
AcDbEntity
  8
0
  6
Continuous
 62
     7
370
    15
100
AcDbLine
 10
82.93407841608473
 20
-0.1877802170768632
 30
0.0
 11
85.05539779026685
 21
1.036831391047485
 31
0.0
  0
ARC
  5
570B
330
A
100
AcDbEntity
  8
0
  6
Continuous
 62
     7
370
    15
100
AcDbCircle
 10
69.97360622794452
 20
-16.92301902526873
 30
0.0
 40
23.4524340678274
100
AcDbArc
 50
49.97812652342212
 51
70.02725000927742
  0
LINE
  5
570C
330
A
100
AcDbEntity
  8
0
  6
Continuous
 62
     7
370
    15
100
AcDbLine
 10
77.9843288193631
 20
5.118872619259605
 30
0.0
 11
75.86300944518098
 21
3.894261011135256
 31
0.0
  0
LINE
  5
570D
330
A
100
AcDbEntity
  8
0
  6
Continuous
 62
     7
370
    15
100
AcDbLine
 10
109.8394928210689
 20
-84.26885009398882
 30
0.0
 11
109.1323859239785
 21
-83.86064597116763
 31
0.0
  0
LINE
  5
570E
330
A
100
AcDbEntity
  8
0
  6
Continuous
 62
     7
370
    15
100
AcDbLine
 10
109.1323859239785
 20
-83.86064597116763
 30
0.0
 11
109.1323859239785
 21
-23.43648518773617
 31
0.0
  0
LINE
  5
570F
330
A
100
AcDbEntity
  8
0
  6
Continuous
 62
     7
370
    15
100
AcDbLine
 10
77.9843288193631
 20
4.302366654825391
 30
0.0
 11
77.9843288193631
 21
5.118872619259605
 31
0.0
  0
ARC
  5
5710
330
A
100
AcDbEntity
  8
0
  6
Continuous
 62
     7
370
    15
100
AcDbCircle
 10
70.42660342720626
 20
-17.1424051751473
 30
0.0
 40
22.71342624129101
100
AcDbArc
 50
51.78445289484371
 51
67.33804712042554
  0
LINE
  5
5711
330
A
100
AcDbEntity
  8
0
  6
Continuous
 62
     7
370
    15
100
AcDbLine
 10
109.097029986434
 20
-83.88105651946137
 30
0.0
 11
109.1323859239785
 21
-83.86064597116763
 31
0.0
  0
ARC
  5
5712
330
A
100
AcDbEntity
  8
0
  6
Continuous
 62
     7
370
    15
100
AcDbCircle
 10
96.23316761419073
 20
-21.69725001258968
 30
0.0
 40
3.073612264869438
100
AcDbArc
 50
2.605440357214794
 51
57.39449046694359
  0
LINE
  5
5713
330
A
100
AcDbEntity
  8
0
  6
Continuous
 62
     7
370
    15
100
AcDbLine
 10
99.3036025568914
 20
-90.96345738529965
 30
0.0
 11
99.3036025568914
 21
-97.9040926866627
 31
0.0
  0
LINE
  5
5714
330
A
100
AcDbEntity
  8
0
  6
Continuous
 62
     7
370
    15
100
AcDbLine
 10
99.3036025568914
 20
-21.55753023088846
 30
0.0
 11
99.3036025568914
 21
-29.11053283817088
 31
0.0
  0
LINE
  5
5715
330
A
100
AcDbEntity
  8
0
  6
Continuous
 62
     7
370
    15
100
AcDbLine
 10
99.3036025568914
 20
-29.11053283817088
 30
0.0
 11
96.12162086144019
 21
-30.94745177103601
 31
0.0
  0
LINE
  5
5716
330
A
100
AcDbEntity
  8
0
  6
Continuous
 62
     7
370
    15
100
AcDbLine
 10
96.12162086144019
 20
-92.18800901224535
 30
0.0
 11
96.12162086144019
 21
-30.94745177103601
 31
0.0
  0
LINE
  5
5717
330
A
100
AcDbEntity
  8
0
  6
Continuous
 62
     7
370
    15
100
AcDbLine
 10
96.19233273652935
 20
-92.14718791565781
 30
0.0
 11
96.12162086144019
 21
-92.18800901224535
 31
0.0
  0
LINE
  5
5718
330
A
100
AcDbEntity
  8
0
  6
Continuous
 62
     7
370
    15
100
AcDbLine
 10
44.85638168837204
 20
11.50726626702141
 30
0.0
 11
97.88938909198293
 21
-19.10803724202486
 31
0.0
  0
LINE
  5
5719
330
A
100
AcDbEntity
  8
0
  6
Continuous
 62
     7
370
    15
100
AcDbLine
 10
72.46890002699638
 20
-6.229199105880753
 30
0.0
 11
65.39783105609251
 21
-2.147157877668633
 31
0.0
  0
LINE
  5
571A
330
A
100
AcDbEntity
  8
0
  6
Continuous
 62
     7
370
    15
100
AcDbLine
 10
65.39783105609251
 20
-2.147157877668633
 30
0.0
 11
63.27650904773236
 21
-3.37177100647159
 31
0.0
  0
ARC
  5
571B
330
A
100
AcDbEntity
  8
0
  6
Continuous
 62
     7
370
    15
100
AcDbCircle
 10
78.3584843201977
 20
14.5883976396272
 30
0.0
 40
23.45279590828283
100
AcDbArc
 50
229.9782827846367
 51
250.0270937480647
  0
LINE
  5
571C
330
A
100
AcDbEntity
  8
0
  6
Continuous
 62
     7
370
    15
100
AcDbLine
 10
70.34757801863611
 20
-7.453812234683681
 30
0.0
 11
72.46890002699638
 21
-6.229199105880753
 31
0.0
  0
LINE
  5
571D
330
A
100
AcDbEntity
  8
0
  6
Continuous
 62
     7
370
    15
100
AcDbLine
 10
65.39783105609251
 20
-2.963700344321637
 30
0.0
 11
65.39783105609251
 21
-2.147157877668633
 31
0.0
  0
LINE
  5
571E
330
A
100
AcDbEntity
  8
0
  6
Continuous
 62
     7
370
    15
100
AcDbLine
 10
65.39783105609251
 20
-2.963700344321637
 30
0.0
 11
66.10491029431364
 21
-3.371888500017462
 31
0.0
  0
LINE
  5
571F
330
A
100
AcDbEntity
  8
0
  6
Continuous
 62
     7
370
    15
100
AcDbLine
 10
71.58501739345013
 20
-6.535486989261727
 30
0.0
 11
71.76167854316157
 21
-6.637471300193056
 31
0.0
  0
LINE
  5
5720
330
A
100
AcDbEntity
  8
0
  6
Continuous
 62
     7
370
    15
100
AcDbLine
 10
63.85429229143415
 20
-3.854766306286649
 30
0.0
 11
65.39783105609251
 21
-2.963700344321637
 31
0.0
  0
ARC
  5
5721
330
A
100
AcDbEntity
  8
0
  6
Continuous
 62
     7
370
    15
100
AcDbCircle
 10
43.53855347405283
 20
9.670526316794337
 30
0.0
 40
2.260593914708271
100
AcDbArc
 50
54.34123379759371
 51
114.3479738732377
  0
ARC
  5
5722
330
A
100
AcDbEntity
  8
0
  6
Continuous
 62
     7
370
    15
100
AcDbCircle
 10
98.33763985504027
 20
-98.01861901385416
 30
0.0
 40
0.9727282359362368
100
AcDbArc
 50
304.5506464975256
 51
6.761529565285483
  0
LINE
  5
5723
330
A
100
AcDbEntity
  8
0
  6
Continuous
 62
     7
370
    15
100
AcDbLine
 10
100.3996145595322
 20
-22.00788346785407
 30
0.0
 11
99.30360156907466
 21
-22.64059829953138
 31
0.0
  0
LINE
  5
5724
330
A
100
AcDbEntity
  8
0
  6
Continuous
 62
     7
370
    15
100
AcDbLine
 10
100.3996145595322
 20
-22.00788346785407
 30
0.0
 11
104.4124087622649
 21
-24.32442025221968
 31
0.0
  0
LINE
  5
5725
330
A
100
AcDbEntity
  8
0
  6
Continuous
 62
     7
370
    15
100
AcDbLine
 10
69.92570387011028
 20
-7.289243554565218
 30
0.0
 11
71.58501739345013
 21
-6.331342247043779
 31
0.0
  0
LINE
  5
5726
330
A
100
AcDbEntity
  8
0
  6
Continuous
 62
     7
370
    15
100
AcDbLine
 10
71.58501739345013
 20
-6.331342247043779
 30
0.0
 11
71.58501739345013
 21
-6.739449220385779
 31
0.0
  0
LINE
  5
5727
330
A
100
AcDbEntity
  8
0
  6
Continuous
 62
     7
370
    15
100
AcDbLine
 10
66.2817163238168
 20
-3.269811706054327
 30
0.0
 11
64.46138076574107
 21
-4.320669055603787
 31
0.0
  0
LINE
  5
5728
330
A
100
AcDbEntity
  8
0
  6
Continuous
 62
     7
370
    15
100
AcDbLine
 10
71.58501739345013
 20
-6.331342247043779
 30
0.0
 11
66.2817163238168
 21
-3.269811706054327
 31
0.0
  0
LINE
  5
5729
330
A
100
AcDbEntity
  8
0
  6
Continuous
 62
     7
370
    15
100
AcDbLine
 10
99.33895553098569
 20
-19.90553199750255
 30
0.0
 11
98.6594482342249
 21
-19.51326078481009
 31
0.0
  0
ARC
  5
572A
330
A
100
AcDbEntity
  8
0
  6
Continuous
 62
     7
370
    15
100
AcDbCircle
 10
105.6094354213061
 20
-91.50314354646156
 30
0.0
 40
0.8591787375262356
100
AcDbArc
 50
250.9018053681982
 51
293.3816984480088
  0
LINE
  5
572B
330
A
100
AcDbEntity
  8
0
  6
Continuous
 62
     7
370
    15
100
AcDbLine
 10
50.54858753428357
 20
8.343456621375992
 30
0.0
 11
50.54858753428357
 21
11.93498293136071
 31
0.0
  0
LINE
  5
572C
330
A
100
AcDbEntity
  8
0
  6
Continuous
 62
     7
370
    15
100
AcDbLine
 10
105.9504045577996
 20
-23.72224027976216
 30
0.0
 11
105.3493634977094
 21
-23.37526666131322
 31
0.0
  0
LINE
  5
572D
330
A
100
AcDbEntity
  8
0
  6
Continuous
 62
     7
370
    15
100
AcDbLine
 10
105.3493634977094
 20
-23.37526666131322
 30
0.0
 11
105.3493634977094
 21
-23.78353181093661
 31
0.0
  0
LINE
  5
572E
330
A
100
AcDbEntity
  8
0
  6
Continuous
 62
     7
370
    15
100
AcDbLine
 10
99.33895553098569
 20
-22.62018984060086
 30
0.0
 11
99.33895553098569
 21
-19.90553199750255
 31
0.0
  0
LINE
  5
572F
330
A
100
AcDbEntity
  8
0
  6
Continuous
 62
     7
370
    15
100
AcDbLine
 10
82.58072450652548
 20
0.0162116546942457
 30
0.0
 11
83.46440694254125
 21
0.526350666391977
 31
0.0
  0
LINE
  5
5730
330
A
100
AcDbEntity
  8
0
  6
Continuous
 62
     7
370
    15
100
AcDbLine
 10
98.993809720174
 20
-20.104780432962
 30
0.0
 11
99.33895553098569
 21
-19.90553199750255
 31
0.0
  0
LINE
  5
5731
330
A
100
AcDbEntity
  8
0
  6
Continuous
 62
     7
370
    15
100
AcDbLine
 10
81.8735056568687
 20
0.4244853696851294
 30
0.0
 11
83.46440694254125
 21
1.342893133044953
 31
0.0
  0
LINE
  5
5732
330
A
100
AcDbEntity
  8
0
  6
Continuous
 62
     7
370
    15
100
AcDbLine
 10
78.16110587290791
 20
4.404423674034433
 30
0.0
 11
76.57020458723537
 21
3.486015910674553
 31
0.0
  0
LINE
  5
5733
330
A
100
AcDbEntity
  8
0
  6
Continuous
 62
     7
370
    15
100
AcDbLine
 10
83.46440694254125
 20
1.342893133044953
 30
0.0
 11
78.16110587290791
 21
4.404423674034433
 31
0.0
  0
LINE
  5
5734
330
A
100
AcDbEntity
  8
0
  6
Continuous
 62
     7
370
    15
100
AcDbLine
 10
83.46440694254125
 20
1.342893133044953
 30
0.0
 11
83.46440694254125
 21
0.526350666391977
 31
0.0
  0
LINE
  5
5735
330
A
100
AcDbEntity
  8
0
  6
Continuous
 62
     7
370
     0
100
AcDbLine
 10
106.445377805256
 20
-46.01356611995351
 30
0.0
 11
104.6773234371246
 21
-44.99289005893206
 31
0.0
  0
LINE
  5
5736
330
A
100
AcDbEntity
  8
0
  6
Continuous
 62
     7
370
     0
100
AcDbLine
 10
104.324057113985
 20
-65.20246674818986
 30
0.0
 11
106.445377805256
 21
-66.42707911665354
 31
0.0
  0
LINE
  5
5737
330
A
100
AcDbEntity
  8
0
  6
Continuous
 62
     7
370
     0
100
AcDbLine
 10
99.02075801998512
 20
-70.7135564381241
 30
0.0
 11
100.7885252627111
 21
-71.73406674517713
 31
0.0
  0
LINE
  5
5738
330
A
100
AcDbEntity
  8
0
  6
Continuous
 62
     7
370
     0
100
AcDbLine
 10
104.6776125381637
 20
-69.48894444983011
 30
0.0
 11
102.5562918468925
 21
-68.26433208136643
 31
0.0
  0
LINE
  5
5739
330
A
100
AcDbEntity
  8
0
  6
Continuous
 62
     7
370
     0
100
AcDbLine
 10
104.8898317985836
 20
-15.47519719221077
 30
0.0
 11
104.0058596029843
 21
-15.98550347855553
 31
0.0
  0
LINE
  5
573A
330
A
100
AcDbEntity
  8
0
  6
Continuous
 62
     7
370
     0
100
AcDbLine
 10
105.7029169462546
 20
-16.63876383987648
 30
0.0
 11
104.7129665000747
 21
-17.21025006802975
 31
0.0
  0
LINE
  5
573B
330
A
100
AcDbEntity
  8
0
  6
Continuous
 62
     7
370
     0
100
AcDbLine
 10
105.7029169462546
 20
-21.53800647238819
 30
0.0
 11
104.7129665000747
 21
-22.10949270054149
 31
0.0
  0
LINE
  5
573C
330
A
100
AcDbEntity
  8
0
  6
Continuous
 62
     7
370
     0
100
AcDbLine
 10
56.09946446042602
 20
12.69088234024747
 30
0.0
 11
55.21549226482671
 21
12.18057605390277
 31
0.0
  0
LINE
  5
573D
330
A
100
AcDbEntity
  8
0
  6
Continuous
 62
     7
370
     0
100
AcDbLine
 10
105.7029169462546
 20
-91.76051867937434
 30
0.0
 11
104.7129665000747
 21
-92.33200490752762
 31
0.0
  0
LINE
  5
573E
330
A
100
AcDbEntity
  8
0
  6
Continuous
 62
     7
370
     0
100
AcDbLine
 10
98.34900706043936
 20
-19.25113494044663
 30
0.0
 11
98.20700642527197
 21
-19.33311016223703
 31
0.0
  0
LINE
  5
573F
330
A
100
AcDbEntity
  8
0
  6
Continuous
 62
     7
370
     0
100
AcDbLine
 10
99.05611395752965
 20
-20.47588152992085
 30
0.0
 11
99.05050579249973
 21
-20.47911905467998
 31
0.0
  0
LINE
  5
5740
330
A
100
AcDbEntity
  8
0
  6
Continuous
 62
     7
370
     0
100
AcDbLine
 10
49.55863972228167
 20
8.914944592011636
 30
0.0
 11
49.45277474135651
 21
8.853830039383297
 31
0.0
  0
LINE
  5
5741
330
A
100
AcDbEntity
  8
0
  6
Continuous
 62
     7
370
     0
100
AcDbLine
 10
110.1930446232529
 20
-12.00528809008938
 30
0.0
 11
105.2432976607092
 21
-14.86271618949857
 31
0.0
  0
ARC
  5
5742
330
A
100
AcDbEntity
  8
0
  6
Continuous
 62
     7
370
     0
100
AcDbCircle
 10
108.5368231454607
 20
-14.59450086065419
 30
0.0
 40
3.073612264869431
100
AcDbArc
 50
2.605440357214794
 51
57.39449046694359
  0
LINE
  5
5743
330
A
100
AcDbEntity
  8
0
  6
Continuous
 62
     7
370
     0
100
AcDbLine
 10
111.6072580881614
 20
-14.45478107895298
 30
0.0
 11
106.6575111256177
 21
-17.3122091783622
 31
0.0
  0
LINE
  5
5744
330
A
100
AcDbEntity
  8
0
  6
Continuous
 62
     7
370
     0
100
AcDbLine
 10
111.6072580881614
 20
-90.80134353472721
 30
0.0
 11
111.6072580881614
 21
-14.45478107895298
 31
0.0
  0
LINE
  5
5745
330
A
100
AcDbEntity
  8
0
  6
Continuous
 62
     7
370
     0
100
AcDbLine
 10
111.6072580881614
 20
-90.80134353472721
 30
0.0
 11
106.6575111256177
 21
-93.65877163413643
 31
0.0
  0
LINE
  5
5746
330
A
100
AcDbEntity
  8
0
  6
Continuous
 62
     7
370
     0
100
AcDbLine
 10
57.16003721964205
 20
18.61001541895689
 30
0.0
 11
52.21029025709845
 21
15.75258731954767
 31
0.0
  0
LINE
  5
5747
330
A
100
AcDbEntity
  8
0
  6
Continuous
 62
     7
370
     0
100
AcDbLine
 10
110.1930446232529
 20
-12.00528809008938
 30
0.0
 11
57.16003721964205
 21
18.61001541895689
 31
0.0
  0
ARC
  5
5748
330
A
100
AcDbEntity
  8
0
  6
Continuous
 62
     7
370
     0
100
AcDbCircle
 10
110.4832518180742
 20
-12.38688969269978
 30
0.0
 40
0.4794163107789259
100
AcDbArc
 50
64.03319760949593
 51
127.252910385561
  0
ARC
  5
5749
330
A
100
AcDbEntity
  8
0
  6
Continuous
 62
     7
370
     0
100
AcDbCircle
 10
111.4215617685746
 20
-14.01237119294021
 30
0.0
 40
0.4798016573021926
100
AcDbArc
 50
292.7696526835239
 51
355.9332004520141
  0
ARC
  5
574A
330
A
100
AcDbEntity
  8
0
  6
Continuous
 62
     7
370
     0
100
AcDbCircle
 10
111.3996894445064
 20
-90.34322544457291
 30
0.0
 40
0.5029482342701367
100
AcDbArc
 50
294.3747963575917
 51
354.3046946408218
  0
ARC
  5
574B
330
A
100
AcDbEntity
  8
0
  6
Continuous
 62
     7
370
     0
100
AcDbCircle
 10
57.45295478713126
 20
18.20116758270939
 30
0.0
 40
0.5029485605388047
100
AcDbArc
 50
65.69080008344555
 51
125.6195691676662
  0
ARC
  5
574C
330
A
100
AcDbEntity
  8
0
  6
Continuous
 62
     7
370
     0
100
AcDbCircle
 10
55.84880367759104
 20
16.83987009665924
 30
0.0
 40
2.202895336563182
100
AcDbArc
 50
53.47083563134553
 51
115.2183720394824
  0
LINE
  5
574D
330
A
100
AcDbEntity
  8
0
  6
Continuous
 62
     7
370
     0
100
AcDbLine
 10
52.21069592051526
 20
14.9358145872273
 30
0.0
 11
49.73541677582659
 21
13.5068663530169
 31
0.0
  0
ARC
  5
574E
330
A
100
AcDbEntity
  8
0
  6
Continuous
 62
     7
370
     0
100
AcDbCircle
 10
110.612666835425
 20
-90.90291715213527
 30
0.0
 40
0.9997644521451754
100
AcDbArc
 50
305.4810042108791
 51
5.831171851930578
  0
LINE
  5
574F
330
A
100
AcDbEntity
  8
0
  6
Continuous
 62
     7
370
     0
100
AcDbLine
 10
105.9504058748887
 20
-93.25069507836815
 30
0.0
 11
105.2432976607092
 21
-93.65889996152868
 31
0.0
  0
ARC
  5
5750
330
A
100
AcDbEntity
  8
0
  6
Continuous
 62
     7
370
     0
100
AcDbCircle
 10
91.40445267776408
 20
-24.48480184296508
 30
0.0
 40
1.536775718065994
100
AcDbArc
 50
2.604852318608065
 51
57.39507080315612
  0
ARC
  5
5751
330
A
100
AcDbEntity
  8
0
  6
Continuous
 62
     7
370
     0
100
AcDbCircle
 10
93.76773625582632
 20
-23.26006394402827
 30
0.0
 40
1.536790624644634
100
AcDbArc
 50
122.6051441370615
 51
177.3948557173094
  0
ARC
  5
5752
330
A
100
AcDbEntity
  8
0
  6
Continuous
 62
     7
370
     0
100
AcDbCircle
 10
91.28342065164702
 20
-24.5546781119989
 30
0.0
 40
3.073612264869586
100
AcDbArc
 50
2.605440357215756
 51
57.39449046694294
  0
ARC
  5
5753
330
A
100
AcDbEntity
  8
0
  6
Continuous
 62
     7
370
     0
100
AcDbCircle
 10
93.64674730498996
 20
-23.0502495218222
 30
0.0
 40
1.537020580476712
100
AcDbArc
 50
242.6096448878177
 51
297.3904167212435
  0
LINE
  5
5754
330
A
100
AcDbEntity
  8
0
  6
Continuous
 62
     7
370
     0
100
AcDbLine
 10
94.3538555943478
 20
-24.41495833029762
 30
0.0
 11
99.3036025568914
 21
-21.55753023088846
 31
0.0
  0
LINE
  5
5755
330
A
100
AcDbEntity
  8
0
  6
Continuous
 62
     7
370
     0
100
AcDbLine
 10
92.93964212943933
 20
-21.96546534143403
 30
0.0
 11
97.88938909198293
 21
-19.10803724202486
 31
0.0
  0
LINE
  5
5756
330
A
100
AcDbEntity
  8
0
  6
Continuous
 62
     7
370
     0
100
AcDbLine
 10
94.3538555943478
 20
-24.41495833029762
 30
0.0
 11
94.3538555943478
 21
-100.7615207860719
 31
0.0
  0
ARC
  5
5757
330
A
100
AcDbEntity
  8
0
  6
Continuous
 62
     7
370
     0
100
AcDbCircle
 10
93.64674730498996
 20
-99.39681197759643
 30
0.0
 40
1.537020580476713
100
AcDbArc
 50
242.6096448878177
 51
297.3904167212435
  0
LINE
  5
5758
330
A
100
AcDbEntity
  8
0
  6
Continuous
 62
     7
370
     0
100
AcDbLine
 10
92.93964048307794
 20
-100.7615215464112
 30
0.0
 11
92.93964048307794
 21
-24.41495909063693
 31
0.0
  0
LINE
  5
5759
330
A
100
AcDbEntity
  8
0
  6
Continuous
 62
     7
370
     0
100
AcDbLine
 10
92.23253391525986
 20
-23.19021269124755
 30
0.0
 11
39.19952651164897
 21
7.425090817798718
 31
0.0
  0
ARC
  5
575A
330
A
100
AcDbEntity
  8
0
  6
Continuous
 62
     7
370
     0
100
AcDbCircle
 10
92.50856916693101
 20
-100.8314503145363
 30
0.0
 40
0.4367064371132409
100
AcDbArc
 50
230.7959388739905
 51
9.214304576452717
  0
LINE
  5
575B
330
A
100
AcDbEntity
  8
0
  6
Continuous
 62
     7
370
     0
100
AcDbLine
 10
39.19952651164897
 20
-70.55455048757835
 30
0.0
 11
92.23253391525986
 21
-101.1698539966246
 31
0.0
  0
ARC
  5
575C
330
A
100
AcDbEntity
  8
0
  6
Continuous
 62
     7
370
     0
100
AcDbCircle
 10
42.09789358776743
 20
-66.02343973400843
 30
0.0
 40
5.378800644106878
100
AcDbArc
 50
182.6053921885979
 51
237.3946079570298
  0
LINE
  5
575D
330
A
100
AcDbEntity
  8
0
  6
Continuous
 62
     7
370
     0
100
AcDbLine
 10
36.72465303037717
 20
5.995912317920954
 30
0.0
 11
36.72465303037717
 21
-66.26794388829143
 31
0.0
  0
ARC
  5
575E
330
A
100
AcDbEntity
  8
0
  6
Continuous
 62
     7
370
     0
100
AcDbCircle
 10
38.23341109836304
 20
6.240661055971827
 30
0.0
 40
1.528480569876498
100
AcDbArc
 50
50.79657013563206
 51
189.2141816191194
  0
ARC
  5
575F
330
A
100
AcDbEntity
  8
0
  6
Continuous
 62
     7
370
     0
100
AcDbCircle
 10
40.73472885221554
 20
7.355239565017939
 30
0.0
 40
1.536790624644739
100
AcDbArc
 50
122.6051441370663
 51
177.3948557173075
  0
LINE
  5
5760
330
A
100
AcDbEntity
  8
0
  6
Continuous
 62
     7
370
     0
100
AcDbLine
 10
39.90663472582838
 20
8.649838167612245
 30
0.0
 11
92.93964212943933
 21
-21.96546534143403
 31
0.0
  0
LINE
  5
5761
330
A
100
AcDbEntity
  8
0
  6
Continuous
 62
     7
370
     0
100
AcDbLine
 10
94.3538555943478
 20
-100.7615207860719
 30
0.0
 11
99.3036025568914
 21
-97.9040926866627
 31
0.0
  0
LINE
  5
5762
330
A
100
AcDbEntity
  8
0
  6
Continuous
 62
     7
370
     0
100
AcDbLine
 10
39.90663472582838
 20
8.649838167612245
 30
0.0
 11
44.85638168837204
 21
11.50726626702141
 31
0.0
  0
ARC
  5
5763
330
A
100
AcDbEntity
  8
0
  6
Continuous
 62
     7
370
     0
100
AcDbCircle
 10
36.90997258214657
 20
6.438056613141214
 30
0.0
 40
0.4794110074496001
100
AcDbArc
 50
184.0455628121406
 51
247.2595819285423
  0
ARC
  5
5764
330
A
100
AcDbEntity
  8
0
  6
Continuous
 62
     7
370
     0
100
AcDbCircle
 10
38.5891215081441
 20
6.813993928332309
 30
0.0
 40
2.259682532939078
100
AcDbArc
 50
54.33448348661911
 51
114.4200028605642
  0
ARC
  5
5765
330
A
100
AcDbEntity
  8
0
  6
Continuous
 62
     7
370
     0
100
AcDbCircle
 10
36.93222136446724
 20
-65.8098260202566
 30
0.0
 40
0.5029479041905666
100
AcDbArc
 50
185.6952836799521
 51
245.6252253216391
  0
ARC
  5
5766
330
A
100
AcDbEntity
  8
0
  6
Continuous
 62
     7
370
     0
100
AcDbCircle
 10
93.35165013493247
 20
-100.8598968146173
 30
0.0
 40
1.007022157588421
100
AcDbArc
 50
305.8582468831596
 51
5.606167793404129
  0
ARC
  5
5767
330
A
100
AcDbEntity
  8
0
  6
Continuous
 62
     7
370
     0
100
AcDbCircle
 10
92.73322171917403
 20
-101.219120186467
 30
0.0
 40
0.5031057885276792
100
AcDbArc
 50
174.3803556377542
 51
234.2943889088432
  0
ARC
  5
5768
330
A
100
AcDbEntity
  8
0
  6
Continuous
 62
     7
370
     0
100
AcDbCircle
 10
39.67715907617884
 20
-70.61423473712625
 30
0.0
 40
0.4813471474346084
100
AcDbArc
 50
172.8773247701709
 51
235.8102403393333
  0
LINE
  5
5769
330
A
100
AcDbEntity
  8
0
  6
Continuous
 62
     7
370
     0
100
AcDbLine
 10
84.31273870936855
 20
0.608108431141261
 30
0.0
 11
83.46440957671928
 21
1.097838415223862
 31
0.0
  0
LINE
  5
576A
330
A
100
AcDbEntity
  8
0
  6
Continuous
 62
     7
370
    15
100
AcDbLine
 10
105.7029189218881
 20
-83.59478165462144
 30
0.0
 11
105.6551928843056
 21
-83.0099781711512
 31
0.0
  0
LINE
  5
576B
330
A
100
AcDbEntity
  8
0
  6
Continuous
 62
     7
370
    15
100
AcDbLine
 10
105.6551928843056
 20
-83.0099781711512
 30
0.0
 11
105.5135478631727
 21
-82.4990737424406
 31
0.0
  0
LINE
  5
576C
330
A
100
AcDbEntity
  8
0
  6
Continuous
 62
     7
370
    15
100
AcDbLine
 10
105.5135478631727
 20
-82.4990737424406
 30
0.0
 11
105.2825304497724
 21
-82.07849175170884
 31
0.0
  0
LINE
  5
576D
330
A
100
AcDbEntity
  8
0
  6
Continuous
 62
     7
370
    15
100
AcDbLine
 10
105.2825304497724
 20
-82.07849175170884
 30
0.0
 11
104.9695795628668
 21
-81.76174480162382
 31
0.0
  0
LINE
  5
576E
330
A
100
AcDbEntity
  8
0
  6
Continuous
 62
     7
370
    15
100
AcDbLine
 10
104.9695795628668
 20
-81.76174480162382
 30
0.0
 11
104.5847393232918
 21
-81.55902251647296
 31
0.0
  0
LINE
  5
576F
330
A
100
AcDbEntity
  8
0
  6
Continuous
 62
     7
370
    15
100
AcDbLine
 10
104.5847393232918
 20
-81.55902251647296
 30
0.0
 11
104.1403877336195
 21
-81.47683105729419
 31
0.0
  0
LINE
  5
5770
330
A
100
AcDbEntity
  8
0
  6
Continuous
 62
     7
370
    15
100
AcDbLine
 10
104.1403877336195
 20
-81.47683105729419
 30
0.0
 11
103.6508020387829
 21
-81.51781817462722
 31
0.0
  0
LINE
  5
5771
330
A
100
AcDbEntity
  8
0
  6
Continuous
 62
     7
370
    15
100
AcDbLine
 10
103.6508020387829
 20
-81.51781817462722
 30
0.0
 11
103.1317214525227
 21
-81.6806667026782
 31
0.0
  0
LINE
  5
5772
330
A
100
AcDbEntity
  8
0
  6
Continuous
 62
     7
370
    15
100
AcDbLine
 10
103.1317214525227
 20
-81.6806667026782
 30
0.0
 11
102.5998282243152
 21
-81.96013861747417
 31
0.0
  0
LINE
  5
5773
330
A
100
AcDbEntity
  8
0
  6
Continuous
 62
     7
370
    15
100
AcDbLine
 10
102.5998282243152
 20
-81.96013861747417
 30
0.0
 11
102.0722155354097
 21
-82.34725445617636
 31
0.0
  0
LINE
  5
5774
330
A
100
AcDbEntity
  8
0
  6
Continuous
 62
     7
370
    15
100
AcDbLine
 10
102.0722155354097
 20
-82.34725445617636
 30
0.0
 11
101.5658448581535
 21
-82.82957007465518
 31
0.0
  0
LINE
  5
5775
330
A
100
AcDbEntity
  8
0
  6
Continuous
 62
     7
370
    15
100
AcDbLine
 10
101.5658448581535
 20
-82.82957007465518
 30
0.0
 11
101.0969901444282
 21
-83.39158268252027
 31
0.0
  0
LINE
  5
5776
330
A
100
AcDbEntity
  8
0
  6
Continuous
 62
     7
370
    15
100
AcDbLine
 10
101.0969901444282
 20
-83.39158268252027
 30
0.0
 11
100.6807188925762
 21
-84.01523117901013
 31
0.0
  0
LINE
  5
5777
330
A
100
AcDbEntity
  8
0
  6
Continuous
 62
     7
370
    15
100
AcDbLine
 10
100.6807188925762
 20
-84.01523117901013
 30
0.0
 11
100.330412727
 21
-84.68047101795207
 31
0.0
  0
LINE
  5
5778
330
A
100
AcDbEntity
  8
0
  6
Continuous
 62
     7
370
    15
100
AcDbLine
 10
100.330412727
 20
-84.68047101795207
 30
0.0
 11
100.0573274904297
 21
-85.36591751809044
 31
0.0
  0
LINE
  5
5779
330
A
100
AcDbEntity
  8
0
  6
Continuous
 62
     7
370
    15
100
AcDbLine
 10
100.0573274904297
 20
-85.36591751809044
 30
0.0
 11
99.87024553242395
 21
-86.04954545631966
 31
0.0
  0
LINE
  5
577A
330
A
100
AcDbEntity
  8
0
  6
Continuous
 62
     7
370
    15
100
AcDbLine
 10
99.87024553242395
 20
-86.04954545631966
 30
0.0
 11
99.77517804725153
 21
-86.70937801913294
 31
0.0
  0
LINE
  5
577B
330
A
100
AcDbEntity
  8
0
  6
Continuous
 62
     7
370
    15
100
AcDbLine
 10
99.77517804725153
 20
-86.70937801913294
 30
0.0
 11
99.77517804725153
 21
-87.32420922481981
 31
0.0
  0
LINE
  5
577C
330
A
100
AcDbEntity
  8
0
  6
Continuous
 62
     7
370
    15
100
AcDbLine
 10
99.77517804725153
 20
-87.32420922481981
 30
0.0
 11
99.87024553242395
 21
-87.87427920561532
 31
0.0
  0
LINE
  5
577D
330
A
100
AcDbEntity
  8
0
  6
Continuous
 62
     7
370
    15
100
AcDbLine
 10
99.87024553242395
 20
-87.87427920561532
 30
0.0
 11
100.0573274904297
 21
-88.3419008291221
 31
0.0
  0
LINE
  5
577E
330
A
100
AcDbEntity
  8
0
  6
Continuous
 62
     7
370
    15
100
AcDbLine
 10
100.0573274904297
 20
-88.3419008291221
 30
0.0
 11
100.330412727
 21
-88.71205591011568
 31
0.0
  0
LINE
  5
577F
330
A
100
AcDbEntity
  8
0
  6
Continuous
 62
     7
370
    15
100
AcDbLine
 10
100.330412727
 20
-88.71205591011568
 30
0.0
 11
100.6807188925762
 21
-88.97284085934757
 31
0.0
  0
LINE
  5
5780
330
A
100
AcDbEntity
  8
0
  6
Continuous
 62
     7
370
    15
100
AcDbLine
 10
100.6807188925762
 20
-88.97284085934757
 30
0.0
 11
101.0969901444282
 21
-89.11587279866023
 31
0.0
  0
LINE
  5
5781
330
A
100
AcDbEntity
  8
0
  6
Continuous
 62
     7
370
    15
100
AcDbLine
 10
101.0969901444282
 20
-89.11587279866023
 30
0.0
 11
101.5658448581535
 21
-89.13655727655134
 31
0.0
  0
LINE
  5
5782
330
A
100
AcDbEntity
  8
0
  6
Continuous
 62
     7
370
    15
100
AcDbLine
 10
101.5658448581535
 20
-89.13655727655134
 30
0.0
 11
102.0722155354097
 21
-89.03422975554935
 31
0.0
  0
LINE
  5
5783
330
A
100
AcDbEntity
  8
0
  6
Continuous
 62
     7
370
    15
100
AcDbLine
 10
102.0722155354097
 20
-89.03422975554935
 30
0.0
 11
102.5998282243152
 21
-88.81217695016034
 31
0.0
  0
LINE
  5
5784
330
A
100
AcDbEntity
  8
0
  6
Continuous
 62
     7
370
    15
100
AcDbLine
 10
102.5998282243152
 20
-88.81217695016034
 30
0.0
 11
103.1317214525227
 21
-88.47753193168177
 31
0.0
  0
LINE
  5
5785
330
A
100
AcDbEntity
  8
0
  6
Continuous
 62
     7
370
    15
100
AcDbLine
 10
103.1317214525227
 20
-88.47753193168177
 30
0.0
 11
103.6508020387829
 21
-88.04106277167244
 31
0.0
  0
LINE
  5
5786
330
A
100
AcDbEntity
  8
0
  6
Continuous
 62
     7
370
    15
100
AcDbLine
 10
103.6508020387829
 20
-88.04106277167244
 30
0.0
 11
104.1403877336195
 21
-87.5167862777214
 31
0.0
  0
LINE
  5
5787
330
A
100
AcDbEntity
  8
0
  6
Continuous
 62
     7
370
    15
100
AcDbLine
 10
104.1403877336195
 20
-87.5167862777214
 30
0.0
 11
104.5847393232918
 21
-86.92155739341558
 31
0.0
  0
LINE
  5
5788
330
A
100
AcDbEntity
  8
0
  6
Continuous
 62
     7
370
    15
100
AcDbLine
 10
104.5847393232918
 20
-86.92155739341558
 30
0.0
 11
104.9695795628668
 21
-86.27450802541938
 31
0.0
  0
LINE
  5
5789
330
A
100
AcDbEntity
  8
0
  6
Continuous
 62
     7
370
    15
100
AcDbLine
 10
104.9695795628668
 20
-86.27450802541938
 30
0.0
 11
105.2825304497724
 21
-85.5964356723407
 31
0.0
  0
LINE
  5
578A
330
A
100
AcDbEntity
  8
0
  6
Continuous
 62
     7
370
    15
100
AcDbLine
 10
105.2825304497724
 20
-85.5964356723407
 30
0.0
 11
105.5135478631727
 21
-84.90913273724448
 31
0.0
  0
LINE
  5
578B
330
A
100
AcDbEntity
  8
0
  6
Continuous
 62
     7
370
    15
100
AcDbLine
 10
105.5135478631727
 20
-84.90913273724448
 30
0.0
 11
105.6551928843056
 21
-84.23468844817751
 31
0.0
  0
LINE
  5
578C
330
A
100
AcDbEntity
  8
0
  6
Continuous
 62
     7
370
    15
100
AcDbLine
 10
105.6551928843056
 20
-84.23468844817751
 30
0.0
 11
105.7029189218881
 21
-83.59478165462144
 31
0.0
  0
LINE
  5
578D
330
A
100
AcDbEntity
  8
0
  6
Continuous
 62
     7
370
    15
100
AcDbLine
 10
105.7029189218881
 20
-29.7030883621797
 30
0.0
 11
105.6551928843056
 21
-29.11827879500635
 31
0.0
  0
LINE
  5
578E
330
A
100
AcDbEntity
  8
0
  6
Continuous
 62
     7
370
    15
100
AcDbLine
 10
105.6551928843056
 20
-29.11827879500635
 30
0.0
 11
105.5135478631727
 21
-28.60737436629574
 31
0.0
  0
LINE
  5
578F
330
A
100
AcDbEntity
  8
0
  6
Continuous
 62
     7
370
    15
100
AcDbLine
 10
105.5135478631727
 20
-28.60737436629574
 30
0.0
 11
105.2825304497724
 21
-28.18679237556398
 31
0.0
  0
LINE
  5
5790
330
A
100
AcDbEntity
  8
0
  6
Continuous
 62
     7
370
    15
100
AcDbLine
 10
105.2825304497724
 20
-28.18679237556398
 30
0.0
 11
104.9695795628668
 21
-27.87005150918208
 31
0.0
  0
LINE
  5
5791
330
A
100
AcDbEntity
  8
0
  6
Continuous
 62
     7
370
    15
100
AcDbLine
 10
104.9695795628668
 20
-27.87005150918208
 30
0.0
 11
104.5847393232918
 21
-27.66732922403122
 31
0.0
  0
LINE
  5
5792
330
A
100
AcDbEntity
  8
0
  6
Continuous
 62
     7
370
    15
100
AcDbLine
 10
104.5847393232918
 20
-27.66732922403122
 30
0.0
 11
104.1403877336195
 21
-27.58514384855556
 31
0.0
  0
LINE
  5
5793
330
A
100
AcDbEntity
  8
0
  6
Continuous
 62
     7
370
    15
100
AcDbLine
 10
104.1403877336195
 20
-27.58514384855556
 30
0.0
 11
103.6508020387829
 21
-27.62613096588859
 31
0.0
  0
LINE
  5
5794
330
A
100
AcDbEntity
  8
0
  6
Continuous
 62
     7
370
    15
100
AcDbLine
 10
103.6508020387829
 20
-27.62613096588859
 30
0.0
 11
103.1317214525227
 21
-27.78896732653334
 31
0.0
  0
LINE
  5
5795
330
A
100
AcDbEntity
  8
0
  6
Continuous
 62
     7
370
    15
100
AcDbLine
 10
103.1317214525227
 20
-27.78896732653334
 30
0.0
 11
102.5998282243152
 21
-28.06843924132926
 31
0.0
  0
LINE
  5
5796
330
A
100
AcDbEntity
  8
0
  6
Continuous
 62
     7
370
    15
100
AcDbLine
 10
102.5998282243152
 20
-28.06843924132926
 30
0.0
 11
102.0722155354097
 21
-28.4555550800315
 31
0.0
  0
LINE
  5
5797
330
A
100
AcDbEntity
  8
0
  6
Continuous
 62
     7
370
    15
100
AcDbLine
 10
102.0722155354097
 20
-28.4555550800315
 30
0.0
 11
101.5658448581535
 21
-28.93787069851032
 31
0.0
  0
LINE
  5
5798
330
A
100
AcDbEntity
  8
0
  6
Continuous
 62
     7
370
    15
100
AcDbLine
 10
101.5658448581535
 20
-28.93787069851032
 30
0.0
 11
101.0969901444282
 21
-29.49988330637541
 31
0.0
  0
LINE
  5
5799
330
A
100
AcDbEntity
  8
0
  6
Continuous
 62
     7
370
    15
100
AcDbLine
 10
101.0969901444282
 20
-29.49988330637541
 30
0.0
 11
100.6807188925762
 21
-30.12353788656839
 31
0.0
  0
LINE
  5
579A
330
A
100
AcDbEntity
  8
0
  6
Continuous
 62
     7
370
    15
100
AcDbLine
 10
100.6807188925762
 20
-30.12353788656839
 30
0.0
 11
100.330412727
 21
-30.78877164180722
 31
0.0
  0
LINE
  5
579B
330
A
100
AcDbEntity
  8
0
  6
Continuous
 62
     7
370
    15
100
AcDbLine
 10
100.330412727
 20
-30.78877164180722
 30
0.0
 11
100.0573274904297
 21
-31.47423030935184
 31
0.0
  0
LINE
  5
579C
330
A
100
AcDbEntity
  8
0
  6
Continuous
 62
     7
370
    15
100
AcDbLine
 10
100.0573274904297
 20
-31.47423030935184
 30
0.0
 11
99.87024553242395
 21
-32.15784608017475
 31
0.0
  0
LINE
  5
579D
330
A
100
AcDbEntity
  8
0
  6
Continuous
 62
     7
370
    15
100
AcDbLine
 10
99.87024553242395
 20
-32.15784608017475
 30
0.0
 11
99.77517804725153
 21
-32.81767864298806
 31
0.0
  0
LINE
  5
579E
330
A
100
AcDbEntity
  8
0
  6
Continuous
 62
     7
370
    15
100
AcDbLine
 10
99.77517804725153
 20
-32.81767864298806
 30
0.0
 11
99.77517804725153
 21
-33.43250984867498
 31
0.0
  0
LINE
  5
579F
330
A
100
AcDbEntity
  8
0
  6
Continuous
 62
     7
370
    15
100
AcDbLine
 10
99.77517804725153
 20
-33.43250984867498
 30
0.0
 11
99.87024553242395
 21
-33.98257982947044
 31
0.0
  0
LINE
  5
57A0
330
A
100
AcDbEntity
  8
0
  6
Continuous
 62
     7
370
    15
100
AcDbLine
 10
99.87024553242395
 20
-33.98257982947044
 30
0.0
 11
100.0573274904297
 21
-34.45020753668041
 31
0.0
  0
LINE
  5
57A1
330
A
100
AcDbEntity
  8
0
  6
Continuous
 62
     7
370
    15
100
AcDbLine
 10
100.0573274904297
 20
-34.45020753668041
 30
0.0
 11
100.330412727
 21
-34.82035653397077
 31
0.0
  0
LINE
  5
57A2
330
A
100
AcDbEntity
  8
0
  6
Continuous
 62
     7
370
    15
100
AcDbLine
 10
100.330412727
 20
-34.82035653397077
 30
0.0
 11
100.6807188925762
 21
-35.08114756690583
 31
0.0
  0
LINE
  5
57A3
330
A
100
AcDbEntity
  8
0
  6
Continuous
 62
     7
370
    15
100
AcDbLine
 10
100.6807188925762
 20
-35.08114756690583
 30
0.0
 11
101.0969901444282
 21
-35.22417342251538
 31
0.0
  0
LINE
  5
57A4
330
A
100
AcDbEntity
  8
0
  6
Continuous
 62
     7
370
    15
100
AcDbLine
 10
101.0969901444282
 20
-35.22417342251538
 30
0.0
 11
101.5658448581535
 21
-35.24485790040646
 31
0.0
  0
LINE
  5
57A5
330
A
100
AcDbEntity
  8
0
  6
Continuous
 62
     7
370
    15
100
AcDbLine
 10
101.5658448581535
 20
-35.24485790040646
 30
0.0
 11
102.0722155354097
 21
-35.14253037940449
 31
0.0
  0
LINE
  5
57A6
330
A
100
AcDbEntity
  8
0
  6
Continuous
 62
     7
370
    15
100
AcDbLine
 10
102.0722155354097
 20
-35.14253037940449
 30
0.0
 11
102.5998282243152
 21
-34.92047757401548
 31
0.0
  0
LINE
  5
57A7
330
A
100
AcDbEntity
  8
0
  6
Continuous
 62
     7
370
    15
100
AcDbLine
 10
102.5998282243152
 20
-34.92047757401548
 30
0.0
 11
103.1317214525227
 21
-34.58583863924002
 31
0.0
  0
LINE
  5
57A8
330
A
100
AcDbEntity
  8
0
  6
Continuous
 62
     7
370
    15
100
AcDbLine
 10
103.1317214525227
 20
-34.58583863924002
 30
0.0
 11
103.6508020387829
 21
-34.1493694792307
 31
0.0
  0
LINE
  5
57A9
330
A
100
AcDbEntity
  8
0
  6
Continuous
 62
     7
370
    15
100
AcDbLine
 10
103.6508020387829
 20
-34.1493694792307
 30
0.0
 11
104.1403877336195
 21
-33.62509298527962
 31
0.0
  0
LINE
  5
57AA
330
A
100
AcDbEntity
  8
0
  6
Continuous
 62
     7
370
    15
100
AcDbLine
 10
104.1403877336195
 20
-33.62509298527962
 30
0.0
 11
104.5847393232918
 21
-33.02987018467698
 31
0.0
  0
LINE
  5
57AB
330
A
100
AcDbEntity
  8
0
  6
Continuous
 62
     7
370
    15
100
AcDbLine
 10
104.5847393232918
 20
-33.02987018467698
 30
0.0
 11
104.9695795628668
 21
-32.38282081668078
 31
0.0
  0
LINE
  5
57AC
330
A
100
AcDbEntity
  8
0
  6
Continuous
 62
     7
370
    15
100
AcDbLine
 10
104.9695795628668
 20
-32.38282081668078
 30
0.0
 11
105.2825304497724
 21
-31.70474237989896
 31
0.0
  0
LINE
  5
57AD
330
A
100
AcDbEntity
  8
0
  6
Continuous
 62
     7
370
    15
100
AcDbLine
 10
105.2825304497724
 20
-31.70474237989896
 30
0.0
 11
105.5135478631727
 21
-31.01743336109962
 31
0.0
  0
LINE
  5
57AE
330
A
100
AcDbEntity
  8
0
  6
Continuous
 62
     7
370
    15
100
AcDbLine
 10
105.5135478631727
 20
-31.01743336109962
 30
0.0
 11
105.6551928843056
 21
-30.34298907203265
 31
0.0
  0
LINE
  5
57AF
330
A
100
AcDbEntity
  8
0
  6
Continuous
 62
     7
370
    15
100
AcDbLine
 10
105.6551928843056
 20
-30.34298907203265
 30
0.0
 11
105.7029189218881
 21
-29.7030883621797
 31
0.0
  0
LINE
  5
57B0
330
A
100
AcDbEntity
  8
0
  6
Continuous
 62
     7
370
    15
100
AcDbLine
 10
49.55863972228167
 20
8.914944592011636
 30
0.0
 11
49.00609453830384
 21
9.178098077176628
 31
0.0
  0
LINE
  5
57B1
330
A
100
AcDbEntity
  8
0
  6
Continuous
 62
     7
370
    15
100
AcDbLine
 10
49.00609453830384
 20
9.178098077176628
 30
0.0
 11
48.74475773575602
 21
9.262554898640133
 31
0.0
  0
LINE
  5
57B2
330
A
100
AcDbEntity
  8
0
  6
Continuous
 62
     7
370
    15
100
AcDbLine
 10
105.4200737264373
 20
-83.59478298521526
 30
0.0
 11
105.3746236186744
 21
-83.03782482452692
 31
0.0
  0
LINE
  5
57B3
330
A
100
AcDbEntity
  8
0
  6
Continuous
 62
     7
370
    15
100
AcDbLine
 10
105.3746236186744
 20
-83.03782482452692
 30
0.0
 11
105.2397220933032
 21
-82.55124975739488
 31
0.0
  0
LINE
  5
57B4
330
A
100
AcDbEntity
  8
0
  6
Continuous
 62
     7
370
    15
100
AcDbLine
 10
105.2397220933032
 20
-82.55124975739488
 30
0.0
 11
105.0197102757202
 21
-82.1506933082037
 31
0.0
  0
LINE
  5
57B5
330
A
100
AcDbEntity
  8
0
  6
Continuous
 62
     7
370
    15
100
AcDbLine
 10
105.0197102757202
 20
-82.1506933082037
 30
0.0
 11
104.7216582997632
 21
-81.84903533989132
 31
0.0
  0
LINE
  5
57B6
330
A
100
AcDbEntity
  8
0
  6
Continuous
 62
     7
370
    15
100
AcDbLine
 10
104.7216582997632
 20
-81.84903533989132
 30
0.0
 11
104.3551440367564
 21
-81.65596200656177
 31
0.0
  0
LINE
  5
57B7
330
A
100
AcDbEntity
  8
0
  6
Continuous
 62
     7
370
    15
100
AcDbLine
 10
104.3551440367564
 20
-81.65596200656177
 30
0.0
 11
103.9319501650366
 21
-81.577690437493
 31
0.0
  0
LINE
  5
57B8
330
A
100
AcDbEntity
  8
0
  6
Continuous
 62
     7
370
    15
100
AcDbLine
 10
103.9319501650366
 20
-81.577690437493
 30
0.0
 11
103.4656795799606
 21
-81.61672231107349
 31
0.0
  0
LINE
  5
57B9
330
A
100
AcDbEntity
  8
0
  6
Continuous
 62
     7
370
    15
100
AcDbLine
 10
103.4656795799606
 20
-81.61672231107349
 30
0.0
 11
102.9713181203522
 21
-81.77181643710685
 31
0.0
  0
LINE
  5
57BA
330
A
100
AcDbEntity
  8
0
  6
Continuous
 62
     7
370
    15
100
AcDbLine
 10
102.9713181203522
 20
-81.77181643710685
 30
0.0
 11
102.6610251190808
 21
-81.92236353658387
 31
0.0
  0
LINE
  5
57BB
330
A
100
AcDbEntity
  8
0
  6
Continuous
 62
     7
370
    15
100
AcDbLine
 10
99.76408256010882
 20
-86.94056275388749
 30
0.0
 11
99.77460873552434
 21
-87.14661268288882
 31
0.0
  0
LINE
  5
57BC
330
A
100
AcDbEntity
  8
0
  6
Continuous
 62
     7
370
    15
100
AcDbLine
 10
99.77460873552434
 20
-87.14661268288882
 30
0.0
 11
99.86515070283781
 21
-87.67048885521626
 31
0.0
  0
LINE
  5
57BD
330
A
100
AcDbEntity
  8
0
  6
Continuous
 62
     7
370
    15
100
AcDbLine
 10
99.86515070283781
 20
-87.67048885521626
 30
0.0
 11
100.0433238707396
 21
-88.11584633118065
 31
0.0
  0
LINE
  5
57BE
330
A
100
AcDbEntity
  8
0
  6
Continuous
 62
     7
370
    15
100
AcDbLine
 10
100.0433238707396
 20
-88.11584633118065
 30
0.0
 11
100.3034015361882
 21
-88.4683787455183
 31
0.0
  0
LINE
  5
57BF
330
A
100
AcDbEntity
  8
0
  6
Continuous
 62
     7
370
    15
100
AcDbLine
 10
100.3034015361882
 20
-88.4683787455183
 30
0.0
 11
100.6370280864664
 21
-88.71673920785923
 31
0.0
  0
LINE
  5
57C0
330
A
100
AcDbEntity
  8
0
  6
Continuous
 62
     7
370
    15
100
AcDbLine
 10
100.6370280864664
 20
-88.71673920785923
 30
0.0
 11
101.033477148628
 21
-88.85296314431787
 31
0.0
  0
LINE
  5
57C1
330
A
100
AcDbEntity
  8
0
  6
Continuous
 62
     7
370
    15
100
AcDbLine
 10
101.033477148628
 20
-88.85296314431787
 30
0.0
 11
101.4800045693547
 21
-88.8726599672625
 31
0.0
  0
LINE
  5
57C2
330
A
100
AcDbEntity
  8
0
  6
Continuous
 62
     7
370
    15
100
AcDbLine
 10
101.4800045693547
 20
-88.8726599672625
 30
0.0
 11
101.9622646150846
 21
-88.7752047510175
 31
0.0
  0
LINE
  5
57C3
330
A
100
AcDbEntity
  8
0
  6
Continuous
 62
     7
370
    15
100
AcDbLine
 10
101.9622646150846
 20
-88.7752047510175
 30
0.0
 11
102.4647525139217
 21
-88.56372610598203
 31
0.0
  0
LINE
  5
57C4
330
A
100
AcDbEntity
  8
0
  6
Continuous
 62
     7
370
    15
100
AcDbLine
 10
102.4647525139217
 20
-88.56372610598203
 30
0.0
 11
102.9713181203522
 21
-88.24502257591081
 31
0.0
  0
LINE
  5
57C5
330
A
100
AcDbEntity
  8
0
  6
Continuous
 62
     7
370
    15
100
AcDbLine
 10
102.9713181203522
 20
-88.24502257591081
 30
0.0
 11
103.4656795799606
 21
-87.82933302631966
 31
0.0
  0
LINE
  5
57C6
330
A
100
AcDbEntity
  8
0
  6
Continuous
 62
     7
370
    15
100
AcDbLine
 10
103.4656795799606
 20
-87.82933302631966
 30
0.0
 11
103.9319501650366
 21
-87.33002642506062
 31
0.0
  0
LINE
  5
57C7
330
A
100
AcDbEntity
  8
0
  6
Continuous
 62
     7
370
    15
100
AcDbLine
 10
103.9319501650366
 20
-87.33002642506062
 30
0.0
 11
104.3551440367564
 21
-86.76313952834118
 31
0.0
  0
LINE
  5
57C8
330
A
100
AcDbEntity
  8
0
  6
Continuous
 62
     7
370
    15
100
AcDbLine
 10
104.3551440367564
 20
-86.76313952834118
 30
0.0
 11
104.7216582997632
 21
-86.1469039180389
 31
0.0
  0
LINE
  5
57C9
330
A
100
AcDbEntity
  8
0
  6
Continuous
 62
     7
370
    15
100
AcDbLine
 10
104.7216582997632
 20
-86.1469039180389
 30
0.0
 11
105.0197102757202
 21
-85.50111637945793
 31
0.0
  0
LINE
  5
57CA
330
A
100
AcDbEntity
  8
0
  6
Continuous
 62
     7
370
    15
100
AcDbLine
 10
105.0197102757202
 20
-85.50111637945793
 30
0.0
 11
105.2397220933032
 21
-84.84654577636138
 31
0.0
  0
LINE
  5
57CB
330
A
100
AcDbEntity
  8
0
  6
Continuous
 62
     7
370
    15
100
AcDbLine
 10
105.2397220933032
 20
-84.84654577636138
 30
0.0
 11
105.3746236186744
 21
-84.20421672335254
 31
0.0
  0
LINE
  5
57CC
330
A
100
AcDbEntity
  8
0
  6
Continuous
 62
     7
370
    15
100
AcDbLine
 10
105.3746236186744
 20
-84.20421672335254
 30
0.0
 11
105.4200737264373
 21
-83.59478298521526
 31
0.0
  0
LINE
  5
57CD
330
A
100
AcDbEntity
  8
0
  6
Continuous
 62
     7
370
    15
100
AcDbLine
 10
105.4200737264373
 20
-29.70308969277349
 30
0.0
 11
105.3746236186744
 21
-29.14613153208518
 31
0.0
  0
LINE
  5
57CE
330
A
100
AcDbEntity
  8
0
  6
Continuous
 62
     7
370
    15
100
AcDbLine
 10
105.3746236186744
 20
-29.14613153208518
 30
0.0
 11
105.2397220933032
 21
-28.65955038125003
 31
0.0
  0
LINE
  5
57CF
330
A
100
AcDbEntity
  8
0
  6
Continuous
 62
     7
370
    15
100
AcDbLine
 10
105.2397220933032
 20
-28.65955038125003
 30
0.0
 11
105.0197102757202
 21
-28.25899393205884
 31
0.0
  0
LINE
  5
57D0
330
A
100
AcDbEntity
  8
0
  6
Continuous
 62
     7
370
    15
100
AcDbLine
 10
105.0197102757202
 20
-28.25899393205884
 30
0.0
 11
104.7216582997632
 21
-27.95734204744957
 31
0.0
  0
LINE
  5
57D1
330
A
100
AcDbEntity
  8
0
  6
Continuous
 62
     7
370
    15
100
AcDbLine
 10
104.7216582997632
 20
-27.95734204744957
 30
0.0
 11
104.3551440367564
 21
-27.76427479782313
 31
0.0
  0
LINE
  5
57D2
330
A
100
AcDbEntity
  8
0
  6
Continuous
 62
     7
370
    15
100
AcDbLine
 10
104.3551440367564
 20
-27.76427479782313
 30
0.0
 11
103.9319501650366
 21
-27.68599714505129
 31
0.0
  0
LINE
  5
57D3
330
A
100
AcDbEntity
  8
0
  6
Continuous
 62
     7
370
    15
100
AcDbLine
 10
103.9319501650366
 20
-27.68599714505129
 30
0.0
 11
103.4656795799606
 21
-27.72503510233491
 31
0.0
  0
LINE
  5
57D4
330
A
100
AcDbEntity
  8
0
  6
Continuous
 62
     7
370
    15
100
AcDbLine
 10
103.4656795799606
 20
-27.72503510233491
 30
0.0
 11
102.9713181203522
 21
-27.88012314466505
 31
0.0
  0
LINE
  5
57D5
330
A
100
AcDbEntity
  8
0
  6
Continuous
 62
     7
370
    15
100
AcDbLine
 10
102.9713181203522
 20
-27.88012314466505
 30
0.0
 11
102.6610251190808
 21
-28.03067024414213
 31
0.0
  0
LINE
  5
57D6
330
A
100
AcDbEntity
  8
0
  6
Continuous
 62
     7
370
    15
100
AcDbLine
 10
99.76408256010882
 20
-33.04886946144575
 30
0.0
 11
99.77460873552434
 21
-33.25491939044707
 31
0.0
  0
LINE
  5
57D7
330
A
100
AcDbEntity
  8
0
  6
Continuous
 62
     7
370
    15
100
AcDbLine
 10
99.77460873552434
 20
-33.25491939044707
 30
0.0
 11
99.86515070283781
 21
-33.77880164647763
 31
0.0
  0
LINE
  5
57D8
330
A
100
AcDbEntity
  8
0
  6
Continuous
 62
     7
370
    15
100
AcDbLine
 10
99.86515070283781
 20
-33.77880164647763
 30
0.0
 11
100.0433238707396
 21
-34.22415912244202
 31
0.0
  0
LINE
  5
57D9
330
A
100
AcDbEntity
  8
0
  6
Continuous
 62
     7
370
    15
100
AcDbLine
 10
100.0433238707396
 20
-34.22415912244202
 30
0.0
 11
100.3034015361882
 21
-34.57667936937341
 31
0.0
  0
LINE
  5
57DA
330
A
100
AcDbEntity
  8
0
  6
Continuous
 62
     7
370
    15
100
AcDbLine
 10
100.3034015361882
 20
-34.57667936937341
 30
0.0
 11
100.6370280864664
 21
-34.8250519991206
 31
0.0
  0
LINE
  5
57DB
330
A
100
AcDbEntity
  8
0
  6
Continuous
 62
     7
370
    15
100
AcDbLine
 10
100.6370280864664
 20
-34.8250519991206
 30
0.0
 11
101.033477148628
 21
-34.96126985187607
 31
0.0
  0
LINE
  5
57DC
330
A
100
AcDbEntity
  8
0
  6
Continuous
 62
     7
370
    15
100
AcDbLine
 10
101.033477148628
 20
-34.96126985187607
 30
0.0
 11
101.4800045693547
 21
-34.98097275852385
 31
0.0
  0
LINE
  5
57DD
330
A
100
AcDbEntity
  8
0
  6
Continuous
 62
     7
370
    15
100
AcDbLine
 10
101.4800045693547
 20
-34.98097275852385
 30
0.0
 11
101.9622646150846
 21
-34.88351145857575
 31
0.0
  0
LINE
  5
57DE
330
A
100
AcDbEntity
  8
0
  6
Continuous
 62
     7
370
    15
100
AcDbLine
 10
101.9622646150846
 20
-34.88351145857575
 30
0.0
 11
102.4647525139217
 21
-34.67203281354028
 31
0.0
  0
LINE
  5
57DF
330
A
100
AcDbEntity
  8
0
  6
Continuous
 62
     7
370
    15
100
AcDbLine
 10
102.4647525139217
 20
-34.67203281354028
 30
0.0
 11
102.9713181203522
 21
-34.35332928346907
 31
0.0
  0
LINE
  5
57E0
330
A
100
AcDbEntity
  8
0
  6
Continuous
 62
     7
370
    15
100
AcDbLine
 10
102.9713181203522
 20
-34.35332928346907
 30
0.0
 11
103.4656795799606
 21
-33.93763973387789
 31
0.0
  0
LINE
  5
57E1
330
A
100
AcDbEntity
  8
0
  6
Continuous
 62
     7
370
    15
100
AcDbLine
 10
103.4656795799606
 20
-33.93763973387789
 30
0.0
 11
103.9319501650366
 21
-33.43833313261888
 31
0.0
  0
LINE
  5
57E2
330
A
100
AcDbEntity
  8
0
  6
Continuous
 62
     7
370
    15
100
AcDbLine
 10
103.9319501650366
 20
-33.43833313261888
 30
0.0
 11
104.3551440367564
 21
-32.87144623589944
 31
0.0
  0
LINE
  5
57E3
330
A
100
AcDbEntity
  8
0
  6
Continuous
 62
     7
370
    15
100
AcDbLine
 10
104.3551440367564
 20
-32.87144623589944
 30
0.0
 11
104.7216582997632
 21
-32.25521062559716
 31
0.0
  0
LINE
  5
57E4
330
A
100
AcDbEntity
  8
0
  6
Continuous
 62
     7
370
    15
100
AcDbLine
 10
104.7216582997632
 20
-32.25521062559716
 30
0.0
 11
105.0197102757202
 21
-31.60942308701624
 31
0.0
  0
LINE
  5
57E5
330
A
100
AcDbEntity
  8
0
  6
Continuous
 62
     7
370
    15
100
AcDbLine
 10
105.0197102757202
 20
-31.60942308701624
 30
0.0
 11
105.2397220933032
 21
-30.95484640021652
 31
0.0
  0
LINE
  5
57E6
330
A
100
AcDbEntity
  8
0
  6
Continuous
 62
     7
370
    15
100
AcDbLine
 10
105.2397220933032
 20
-30.95484640021652
 30
0.0
 11
105.3746236186744
 21
-30.3125234309108
 31
0.0
  0
LINE
  5
57E7
330
A
100
AcDbEntity
  8
0
  6
Continuous
 62
     7
370
    15
100
AcDbLine
 10
105.3746236186744
 20
-30.3125234309108
 30
0.0
 11
105.4200737264373
 21
-29.70308969277349
 31
0.0
  0
LINE
  5
57E8
330
A
100
AcDbEntity
  8
0
  6
Continuous
 62
     7
370
    15
100
AcDbLine
 10
50.54858753428357
 20
11.93498293136071
 30
0.0
 11
50.60229842435467
 21
12.61293455502613
 31
0.0
  0
LINE
  5
57E9
330
A
100
AcDbEntity
  8
0
  6
Continuous
 62
     7
370
    15
100
AcDbLine
 10
50.60229842435467
 20
12.61293455502613
 30
0.0
 11
50.76180844090027
 21
13.20826116654325
 31
0.0
  0
LINE
  5
57EA
330
A
100
AcDbEntity
  8
0
  6
Continuous
 62
     7
370
    15
100
AcDbLine
 10
50.76180844090027
 20
13.20826116654325
 30
0.0
 11
51.02226015962935
 21
13.70289979553297
 31
0.0
  0
LINE
  5
57EB
330
A
100
AcDbEntity
  8
0
  6
Continuous
 62
     7
370
    15
100
AcDbLine
 10
51.02226015962935
 20
13.70289979553297
 30
0.0
 11
51.37574577809028
 21
14.08178949288418
 31
0.0
  0
LINE
  5
57EC
330
A
100
AcDbEntity
  8
0
  6
Continuous
 62
     7
370
    15
100
AcDbLine
 10
51.37574577809028
 20
14.08178949288418
 30
0.0
 11
51.81152311826861
 21
14.33344017726455
 31
0.0
  0
LINE
  5
57ED
330
A
100
AcDbEntity
  8
0
  6
Continuous
 62
     7
370
    15
100
AcDbLine
 10
51.81152311826861
 20
14.33344017726455
 30
0.0
 11
52.31635280137607
 21
14.45020034969639
 31
0.0
  0
LINE
  5
57EE
330
A
100
AcDbEntity
  8
0
  6
Continuous
 62
     7
370
    15
100
AcDbLine
 10
52.31635280137607
 20
14.45020034969639
 30
0.0
 11
52.87489864291058
 21
14.42852481406482
 31
0.0
  0
LINE
  5
57EF
330
A
100
AcDbEntity
  8
0
  6
Continuous
 62
     7
370
    15
100
AcDbLine
 10
52.87489864291058
 20
14.42852481406482
 30
0.0
 11
53.22502831855877
 21
14.35025128298969
 31
0.0
  0
LINE
  5
57F0
330
A
100
AcDbEntity
  8
0
  6
CENTER
 62
     1
100
AcDbLine
 10
-63.25000004097819
 20
129.8675211024695
 30
0.0
 11
-0.2500000409781933
 21
129.8675211024695
 31
0.0
  0
LINE
  5
57F1
330
A
100
AcDbEntity
  8
0
  6
CENTER
 62
     1
100
AcDbLine
 10
-63.25000004097819
 20
51.86752110246945
 30
0.0
 11
-0.2500000409781933
 21
51.86752110246945
 31
0.0
  0
LINE
  5
57F2
330
A
100
AcDbEntity
  8
0
  6
Continuous
370
     0
100
AcDbLine
 10
-0.2500000409781933
 20
137.6175152612143
 30
0.0
 11
-0.2500001754517598
 21
44.11752231060419
 31
0.0
  0
ARC
  5
57F3
330
A
100
AcDbEntity
  8
0
  6
CENTER
 62
     1
100
AcDbCircle
 10
-63.25000004097819
 20
120.8675211024695
 30
0.0
 40
9.000000000000002
100
AcDbArc
 50
90.0
 51
180.0
  0
ARC
  5
57F4
330
A
100
AcDbEntity
  8
0
  6
CENTER
 62
     1
100
AcDbCircle
 10
-63.25000004097819
 20
60.86752110246945
 30
0.0
 40
9.000000000000002
100
AcDbArc
 50
180.0
 51
270.0
  0
LINE
  5
57F6
330
A
100
AcDbEntity
  8
0
  6
CENTER
 62
     1
100
AcDbLine
 10
-136.7094032029354
 20
123.3675223135033
 30
0.0
 11
-124.3094032029358
 21
123.3675223135033
 31
0.0
  0
LINE
  5
57F7
330
A
100
AcDbEntity
  8
0
  6
CENTER
 62
     1
100
AcDbLine
 10
-130.5094032029356
 20
117.1675223135033
 30
0.0
 11
-130.5094032029356
 21
129.5675223135032
 31
0.0
  0
LINE
  5
57F8
330
A
100
AcDbEntity
  8
0
  6
CENTER
 62
     1
100
AcDbLine
 10
-136.7094032029354
 20
57.36752231357309
 30
0.0
 11
-124.3094032029358
 21
57.36752231357309
 31
0.0
  0
LINE
  5
57F9
330
A
100
AcDbEntity
  8
0
  6
CENTER
 62
     1
100
AcDbLine
 10
-130.5094032029356
 20
51.1675223135731
 30
0.0
 11
-130.5094032029356
 21
63.56752231357308
 31
0.0
  0
ENDSEC
  0
SECTION
  2
OBJECTS
  0
DICTIONARY
  5
19
330
0
100
AcDbDictionary
281
     1
  3
ACAD_GROUP
350
1A
  3
ACAD_IMAGE_VARS
350
44CB
  3
ACAD_LAYOUT
350
1E
  3
ACAD_MLINESTYLE
350
1B
  3
ACAD_PLOTSETTINGS
350
22
  3
ACAD_PLOTSTYLENAME
350
1F
  3
ACAD_SCALELIST
350
2312
  3
ACAD_WIPEOUT_VARS
350
23
  3
AcDbVariableDictionary
350
4443
  3
APPDATA
350
44CA
  3
ASE_INDEX_DICTIONARY
350
443E
  3
DWGPROPS
350
57FB
  0
DICTIONARY
  5
4441
330
14
100
AcDbDictionary
280
     1
281
     1
  3
ADSK_XREC_LAYER_RECONCILED
360
4442
  0
DICTIONARY
  5
233E
330
A
100
AcDbDictionary
280
     1
281
     1
  3
ACAD_SORTENTS
360
233F
  0
DICTIONARY
  5
1A
102
{ACAD_REACTORS
330
19
102
}
330
19
100
AcDbDictionary
281
     1
  0
RASTERVARIABLES
  5
44CB
102
{ACAD_REACTORS
330
19
102
}
330
19
100
AcDbRasterVariables
 90
        0
 70
     1
 71
     1
 72
     0
  0
DICTIONARY
  5
1E
102
{ACAD_REACTORS
330
19
102
}
330
19
100
AcDbDictionary
281
     1
  3
Layout1
350
21
  3
Model
350
20
  0
DICTIONARY
  5
1B
102
{ACAD_REACTORS
330
19
102
}
330
19
100
AcDbDictionary
281
     1
  3
Standard
350
1C
  0
DICTIONARY
  5
22
102
{ACAD_REACTORS
330
19
102
}
330
19
100
AcDbDictionary
281
     1
  0
ACDBDICTIONARYWDFLT
  5
1F
102
{ACAD_REACTORS
330
19
102
}
330
19
100
AcDbDictionary
281
     1
  3
Normal
350
1D
100
AcDbDictionaryWithDefault
340
1D
  0
DICTIONARY
  5
2312
102
{ACAD_REACTORS
330
19
102
}
330
19
100
AcDbDictionary
281
     1
  3
A0
350
2313
  3
A1
350
2314
  3
A2
350
2315
  3
A3
350
2316
  3
A4
350
2317
  3
A5
350
2318
  3
A6
350
2319
  3
A7
350
231A
  3
A8
350
231B
  3
A9
350
231C
  3
B0
350
231D
  3
B1
350
231E
  3
B2
350
231F
  3
B3
350
2320
  3
B4
350
2321
  3
B5
350
2322
  3
B6
350
2323
  3
B7
350
2324
  3
B8
350
2325
  3
B9
350
2326
  3
C0
350
2327
  3
C1
350
2328
  3
C2
350
2329
  3
C3
350
232A
  3
C4
350
232B
  3
C5
350
232C
  3
C6
350
232D
  3
C7
350
232E
  3
C8
350
232F
  3
C9
350
2330
  3
D0
350
2331
  3
D1
350
2332
  3
D2
350
2333
  0
WIPEOUTVARIABLES
  5
23
330
19
100
AcDbWipeoutVariables
 70
     1
  0
DICTIONARY
  5
4443
102
{ACAD_REACTORS
330
19
102
}
330
19
100
AcDbDictionary
281
     1
  3
CANNOSCALE
350
57FC
  3
DIMASSOC
350
4449
  3
INDEXCTL
350
4448
  3
SORTENTS
350
4447
  0
DICTIONARY
  5
44CA
102
{ACAD_REACTORS
330
19
102
}
330
19
100
AcDbDictionary
281
     1
  0
DICTIONARY
  5
443E
102
{ACAD_REACTORS
330
19
102
}
330
19
100
AcDbDictionary
281
     1
  3
ASEBlockHierarchyIndexRecord
350
4440
1001
DCO15
1040
1686558972.246
  0
XRECORD
  5
57FB
102
{ACAD_REACTORS
330
19
102
}
330
19
100
AcDbXrecord
280
     1
  1
DWGPROPS COOKIE
  2

  3

  4

  6

  7

  8
renzo.ceresoli
  9

300
=
301
=
302
=
303
=
304
=
305
=
306
=
307
=
308
=
309
=
 40
0.0
 41
2455323.486527315
 42
2456713.416785833
  1

 90
        0
  0
XRECORD
  5
4442
102
{ACAD_REACTORS
330
4441
102
}
330
4441
100
AcDbXrecord
280
     1
290
     1
  0
SORTENTSTABLE
  5
233F
102
{ACAD_REACTORS
330
233E
102
}
330
233E
100
AcDbSortentsTable
330
A
331
0
  5
381D
  0
LAYOUT
  5
21
102
{ACAD_REACTORS
330
1E
102
}
330
1E
100
AcDbPlotSettings
  1

  2

  4

  6

 40
0.0
 41
0.0
 42
0.0
 43
0.0
 44
0.0
 45
0.0
 46
0.0
 47
0.0
 48
0.0
 49
0.0
140
0.0
141
0.0
142
1.0
143
1.0
 70
     0
 72
     0
 73
     0
 74
     0
  7

 75
     0
147
1.0
148
0.0
149
0.0
100
AcDbLayout
  1
Layout1
 70
     0
 71
     1
 10
0.0
 20
0.0
 11
12.0
 21
9.0
 12
0.0
 22
0.0
 32
0.0
 14
1.000000000000000E+20
 24
1.000000000000000E+20
 34
1.000000000000000E+20
 15
-1.000000000000000E+20
 25
-1.000000000000000E+20
 35
-1.000000000000000E+20
146
0.0
 13
0.0
 23
0.0
 33
0.0
 16
1.0
 26
0.0
 36
0.0
 17
0.0
 27
1.0
 37
0.0
 76
     0
330
B
  0
LAYOUT
  5
20
102
{ACAD_REACTORS
330
1E
102
}
330
1E
100
AcDbPlotSettings
  1

  2

  4

  6

 40
0.0
 41
0.0
 42
0.0
 43
0.0
 44
0.0
 45
0.0
 46
0.0
 47
0.0
 48
0.0
 49
0.0
140
0.0
141
0.0
142
1.0
143
1.0
 70
  1024
 72
     0
 73
     0
 74
     0
  7

 75
     0
147
1.0
148
0.0
149
0.0
100
AcDbLayout
  1
Model
 70
     0
 71
     0
 10
0.0
 20
0.0
 11
0.0
 21
0.0
 12
0.0
 22
0.0
 32
0.0
 14
0.0
 24
0.0
 34
0.0
 15
0.0
 25
0.0
 35
0.0
146
0.0
 13
0.0
 23
0.0
 33
0.0
 16
0.0
 26
0.0
 36
0.0
 17
0.0
 27
0.0
 37
0.0
 76
     0
330
A
331
15
  0
MLINESTYLE
  5
1C
102
{ACAD_REACTORS
330
1B
102
}
330
1B
100
AcDbMlineStyle
  2
STANDARD
 70
     0
  3

 62
     0
 51
90.0
 52
90.0
 71
     2
 49
0.5
 62
   256
  6
BYLAYER
 49
-0.5
 62
   256
  6
BYLAYER
  0
ACDBPLACEHOLDER
  5
1D
102
{ACAD_REACTORS
330
1F
102
}
330
1F
  0
SCALE
  5
2313
102
{ACAD_REACTORS
330
2312
102
}
330
2312
100
AcDbScale
 70
     0
300
1:1
140
1.0
141
1.0
290
     1
  0
SCALE
  5
2314
102
{ACAD_REACTORS
330
2312
102
}
330
2312
100
AcDbScale
 70
     0
300
1:2
140
1.0
141
2.0
290
     0
  0
SCALE
  5
2315
102
{ACAD_REACTORS
330
2312
102
}
330
2312
100
AcDbScale
 70
     0
300
1:4
140
1.0
141
4.0
290
     0
  0
SCALE
  5
2316
102
{ACAD_REACTORS
330
2312
102
}
330
2312
100
AcDbScale
 70
     0
300
1:5
140
1.0
141
5.0
290
     0
  0
SCALE
  5
2317
102
{ACAD_REACTORS
330
2312
102
}
330
2312
100
AcDbScale
 70
     0
300
1:8
140
1.0
141
8.0
290
     0
  0
SCALE
  5
2318
102
{ACAD_REACTORS
330
2312
102
}
330
2312
100
AcDbScale
 70
     0
300
1:10
140
1.0
141
10.0
290
     0
  0
SCALE
  5
2319
102
{ACAD_REACTORS
330
2312
102
}
330
2312
100
AcDbScale
 70
     0
300
1:16
140
1.0
141
16.0
290
     0
  0
SCALE
  5
231A
102
{ACAD_REACTORS
330
2312
102
}
330
2312
100
AcDbScale
 70
     0
300
1:20
140
1.0
141
20.0
290
     0
  0
SCALE
  5
231B
102
{ACAD_REACTORS
330
2312
102
}
330
2312
100
AcDbScale
 70
     0
300
1:30
140
1.0
141
30.0
290
     0
  0
SCALE
  5
231C
102
{ACAD_REACTORS
330
2312
102
}
330
2312
100
AcDbScale
 70
     0
300
1:40
140
1.0
141
40.0
290
     0
  0
SCALE
  5
231D
102
{ACAD_REACTORS
330
2312
102
}
330
2312
100
AcDbScale
 70
     0
300
1:50
140
1.0
141
50.0
290
     0
  0
SCALE
  5
231E
102
{ACAD_REACTORS
330
2312
102
}
330
2312
100
AcDbScale
 70
     0
300
1:100
140
1.0
141
100.0
290
     0
  0
SCALE
  5
231F
102
{ACAD_REACTORS
330
2312
102
}
330
2312
100
AcDbScale
 70
     0
300
2:1
140
2.0
141
1.0
290
     0
  0
SCALE
  5
2320
102
{ACAD_REACTORS
330
2312
102
}
330
2312
100
AcDbScale
 70
     0
300
4:1
140
4.0
141
1.0
290
     0
  0
SCALE
  5
2321
102
{ACAD_REACTORS
330
2312
102
}
330
2312
100
AcDbScale
 70
     0
300
8:1
140
8.0
141
1.0
290
     0
  0
SCALE
  5
2322
102
{ACAD_REACTORS
330
2312
102
}
330
2312
100
AcDbScale
 70
     0
300
10:1
140
10.0
141
1.0
290
     0
  0
SCALE
  5
2323
102
{ACAD_REACTORS
330
2312
102
}
330
2312
100
AcDbScale
 70
     0
300
100:1
140
100.0
141
1.0
290
     0
  0
SCALE
  5
2324
102
{ACAD_REACTORS
330
2312
102
}
330
2312
100
AcDbScale
 70
     0
300
1/128" = 1'-0"
140
0.0078125
141
12.0
290
     0
  0
SCALE
  5
2325
102
{ACAD_REACTORS
330
2312
102
}
330
2312
100
AcDbScale
 70
     0
300
1/64" = 1'-0"
140
0.015625
141
12.0
290
     0
  0
SCALE
  5
2326
102
{ACAD_REACTORS
330
2312
102
}
330
2312
100
AcDbScale
 70
     0
300
1/32" = 1'-0"
140
0.03125
141
12.0
290
     0
  0
SCALE
  5
2327
102
{ACAD_REACTORS
330
2312
102
}
330
2312
100
AcDbScale
 70
     0
300
1/16" = 1'-0"
140
0.0625
141
12.0
290
     0
  0
SCALE
  5
2328
102
{ACAD_REACTORS
330
2312
102
}
330
2312
100
AcDbScale
 70
     0
300
3/32" = 1'-0"
140
0.09375
141
12.0
290
     0
  0
SCALE
  5
2329
102
{ACAD_REACTORS
330
2312
102
}
330
2312
100
AcDbScale
 70
     0
300
1/8" = 1'-0"
140
0.125
141
12.0
290
     0
  0
SCALE
  5
232A
102
{ACAD_REACTORS
330
2312
102
}
330
2312
100
AcDbScale
 70
     0
300
3/16" = 1'-0"
140
0.1875
141
12.0
290
     0
  0
SCALE
  5
232B
102
{ACAD_REACTORS
330
2312
102
}
330
2312
100
AcDbScale
 70
     0
300
1/4" = 1'-0"
140
0.25
141
12.0
290
     0
  0
SCALE
  5
232C
102
{ACAD_REACTORS
330
2312
102
}
330
2312
100
AcDbScale
 70
     0
300
3/8" = 1'-0"
140
0.375
141
12.0
290
     0
  0
SCALE
  5
232D
102
{ACAD_REACTORS
330
2312
102
}
330
2312
100
AcDbScale
 70
     0
300
1/2" = 1'-0"
140
0.5
141
12.0
290
     0
  0
SCALE
  5
232E
102
{ACAD_REACTORS
330
2312
102
}
330
2312
100
AcDbScale
 70
     0
300
3/4" = 1'-0"
140
0.75
141
12.0
290
     0
  0
SCALE
  5
232F
102
{ACAD_REACTORS
330
2312
102
}
330
2312
100
AcDbScale
 70
     0
300
1" = 1'-0"
140
1.0
141
12.0
290
     0
  0
SCALE
  5
2330
102
{ACAD_REACTORS
330
2312
102
}
330
2312
100
AcDbScale
 70
     0
300
1-1/2" = 1'-0"
140
1.5
141
12.0
290
     0
  0
SCALE
  5
2331
102
{ACAD_REACTORS
330
2312
102
}
330
2312
100
AcDbScale
 70
     0
300
3" = 1'-0"
140
3.0
141
12.0
290
     0
  0
SCALE
  5
2332
102
{ACAD_REACTORS
330
2312
102
}
330
2312
100
AcDbScale
 70
     0
300
6" = 1'-0"
140
6.0
141
12.0
290
     0
  0
SCALE
  5
2333
102
{ACAD_REACTORS
330
2312
102
}
330
2312
100
AcDbScale
 70
     0
300
1'-0" = 1'-0"
140
12.0
141
12.0
290
     0
  0
DICTIONARYVAR
  5
57FC
102
{ACAD_REACTORS
330
4443
102
}
330
4443
100
DictionaryVariables
280
     0
  1
1:1
  0
DICTIONARYVAR
  5
4449
102
{ACAD_REACTORS
330
4443
102
}
330
4443
100
DictionaryVariables
280
     0
  1
1
  0
DICTIONARYVAR
  5
4448
102
{ACAD_REACTORS
330
4443
102
}
330
4443
100
DictionaryVariables
280
     0
  1
0
  0
DICTIONARYVAR
  5
4447
102
{ACAD_REACTORS
330
4443
102
}
330
4443
100
DictionaryVariables
280
     0
  1
127
  0
XRECORD
  5
4440
102
{ACAD_REACTORS
330
443E
102
}
330
443E
100
AcDbXrecord
280
     1
  0
ENDSEC
  0
EOF
