  0
SECTION
  2
HEADER
  9
$ACADVER
  1
AC1027
  9
$ACADMAINTVER
 70
     8
  9
$DWGCODEPAGE
  3
ANSI_1252
  9
$REQUIREDVERSIONS
160
                 0
  9
$LASTSAVEDBY
  1
cesare
  9
$INSBASE
 10
0.0
 20
0.0
 30
0.0
  9
$EXTMIN
 10
-21.07121081623143
 20
54.97301453154566
 30
0.0
  9
$EXTMAX
 10
594.2729434679743
 20
681.1057392898392
 30
0.0
  9
$LIMMIN
 10
0.0
 20
0.0
  9
$LIMMAX
 10
420.0
 20
297.0
  9
$ORTHOMODE
 70
     1
  9
$REGENMODE
 70
     1
  9
$FILLMODE
 70
     1
  9
$QTEXTMODE
 70
     0
  9
$MIRRTEXT
 70
     1
  9
$LTSCALE
 40
1.0
  9
$ATTMODE
 70
     1
  9
$TEXTSIZE
 40
2.8
  9
$TRACEWID
 40
1.0
  9
$TEXTSTYLE
  7
Standard
  9
$CLAYER
  8
0
  9
$CELTYPE
  6
ByLayer
  9
$CECOLOR
 62
   256
  9
$CELTSCALE
 40
1.0
  9
$DISPSILH
 70
     0
  9
$DIMSCALE
 40
1.0
  9
$DIMASZ
 40
3.2
  9
$DIMEXO
 40
0.1
  9
$DIMDLI
 40
3.75
  9
$DIMRND
 40
0.0
  9
$DIMDLE
 40
0.0
  9
$DIMEXE
 40
1.0
  9
$DIMTP
 40
0.0
  9
$DIMTM
 40
0.0
  9
$DIMTXT
 40
3.2
  9
$DIMCEN
 40
2.5
  9
$DIMTSZ
 40
0.0
  9
$DIMTOL
 70
     0
  9
$DIMLIM
 70
     0
  9
$DIMTIH
 70
     1
  9
$DIMTOH
 70
     1
  9
$DIMSE1
 70
     0
  9
$DIMSE2
 70
     0
  9
$DIMTAD
 70
     1
  9
$DIMZIN
 70
     0
  9
$DIMBLK
  1

  9
$DIMASO
 70
     1
  9
$DIMSHO
 70
     1
  9
$DIMPOST
  1

  9
$DIMAPOST
  1

  9
$DIMALT
 70
     0
  9
$DIMALTD
 70
     3
  9
$DIMALTF
 40
0.0393700787
  9
$DIMLFAC
 40
1.0
  9
$DIMTOFL
 70
     1
  9
$DIMTVP
 40
0.0
  9
$DIMTIX
 70
     0
  9
$DIMSOXD
 70
     0
  9
$DIMSAH
 70
     0
  9
$DIMBLK1
  1

  9
$DIMBLK2
  1

  9
$DIMSTYLE
  2
ISO-25
  9
$DIMCLRD
 70
     0
  9
$DIMCLRE
 70
     0
  9
$DIMCLRT
 70
     0
  9
$DIMTFAC
 40
1.0
  9
$DIMGAP
 40
2.0
  9
$DIMJUST
 70
     0
  9
$DIMSD1
 70
     0
  9
$DIMSD2
 70
     0
  9
$DIMTOLJ
 70
     0
  9
$DIMTZIN
 70
     0
  9
$DIMALTZ
 70
     0
  9
$DIMALTTZ
 70
     0
  9
$DIMUPT
 70
     0
  9
$DIMDEC
 70
     2
  9
$DIMTDEC
 70
     2
  9
$DIMALTU
 70
     2
  9
$DIMALTTD
 70
     3
  9
$DIMTXSTY
  7
Standard
  9
$DIMAUNIT
 70
     0
  9
$DIMADEC
 70
     2
  9
$DIMALTRND
 40
0.0
  9
$DIMAZIN
 70
     0
  9
$DIMDSEP
 70
    44
  9
$DIMATFIT
 70
     3
  9
$DIMFRAC
 70
     0
  9
$DIMLDRBLK
  1

  9
$DIMLUNIT
 70
     2
  9
$DIMLWD
 70
    -2
  9
$DIMLWE
 70
    -2
  9
$DIMTMOVE
 70
     0
  9
$DIMFXL
 40
1.0
  9
$DIMFXLON
 70
     0
  9
$DIMJOGANG
 40
0.7853981633974483
  9
$DIMTFILL
 70
     0
  9
$DIMTFILLCLR
 70
     0
  9
$DIMARCSYM
 70
     0
  9
$DIMLTYPE
  6

  9
$DIMLTEX1
  6

  9
$DIMLTEX2
  6

  9
$DIMTXTDIRECTION
 70
     0
  9
$LUNITS
 70
     2
  9
$LUPREC
 70
     2
  9
$SKETCHINC
 40
1.0
  9
$FILLETRAD
 40
9.0
  9
$AUNITS
 70
     0
  9
$AUPREC
 70
     2
  9
$MENU
  1
.
  9
$ELEVATION
 40
0.0
  9
$PELEVATION
 40
0.0
  9
$THICKNESS
 40
0.0
  9
$LIMCHECK
 70
     0
  9
$CHAMFERA
 40
0.0
  9
$CHAMFERB
 40
0.0
  9
$CHAMFERC
 40
0.0
  9
$CHAMFERD
 40
0.0
  9
$SKPOLY
 70
     0
  9
$TDCREATE
 40
2457786.357595648
  9
$TDUCREATE
 40
2457786.315928982
  9
$TDUPDATE
 40
2457807.400162859
  9
$TDUUPDATE
 40
2457807.358496192
  9
$TDINDWG
 40
0.0065631134
  9
$TDUSRTIMER
 40
2457807.358426053
  9
$USRTIMER
 70
     1
  9
$ANGBASE
 50
0.0
  9
$ANGDIR
 70
     0
  9
$PDMODE
 70
     0
  9
$PDSIZE
 40
-1.0
  9
$PLINEWID
 40
0.0
  9
$SPLFRAME
 70
     0
  9
$SPLINETYPE
 70
     6
  9
$SPLINESEGS
 70
     8
  9
$HANDSEED
  5
477
  9
$SURFTAB1
 70
     6
  9
$SURFTAB2
 70
     6
  9
$SURFTYPE
 70
     6
  9
$SURFU
 70
     6
  9
$SURFV
 70
     6
  9
$UCSBASE
  2

  9
$UCSNAME
  2

  9
$UCSORG
 10
0.0
 20
0.0
 30
0.0
  9
$UCSXDIR
 10
1.0
 20
0.0
 30
0.0
  9
$UCSYDIR
 10
0.0
 20
1.0
 30
0.0
  9
$UCSORTHOREF
  2

  9
$UCSORTHOVIEW
 70
     0
  9
$UCSORGTOP
 10
0.0
 20
0.0
 30
0.0
  9
$UCSORGBOTTOM
 10
0.0
 20
0.0
 30
0.0
  9
$UCSORGLEFT
 10
0.0
 20
0.0
 30
0.0
  9
$UCSORGRIGHT
 10
0.0
 20
0.0
 30
0.0
  9
$UCSORGFRONT
 10
0.0
 20
0.0
 30
0.0
  9
$UCSORGBACK
 10
0.0
 20
0.0
 30
0.0
  9
$PUCSBASE
  2

  9
$PUCSNAME
  2

  9
$PUCSORG
 10
0.0
 20
0.0
 30
0.0
  9
$PUCSXDIR
 10
1.0
 20
0.0
 30
0.0
  9
$PUCSYDIR
 10
0.0
 20
1.0
 30
0.0
  9
$PUCSORTHOREF
  2

  9
$PUCSORTHOVIEW
 70
     0
  9
$PUCSORGTOP
 10
0.0
 20
0.0
 30
0.0
  9
$PUCSORGBOTTOM
 10
0.0
 20
0.0
 30
0.0
  9
$PUCSORGLEFT
 10
0.0
 20
0.0
 30
0.0
  9
$PUCSORGRIGHT
 10
0.0
 20
0.0
 30
0.0
  9
$PUCSORGFRONT
 10
0.0
 20
0.0
 30
0.0
  9
$PUCSORGBACK
 10
0.0
 20
0.0
 30
0.0
  9
$USERI1
 70
     0
  9
$USERI2
 70
     0
  9
$USERI3
 70
     0
  9
$USERI4
 70
     0
  9
$USERI5
 70
     0
  9
$USERR1
 40
0.0
  9
$USERR2
 40
0.0
  9
$USERR3
 40
0.0
  9
$USERR4
 40
0.0
  9
$USERR5
 40
0.0
  9
$WORLDVIEW
 70
     1
  9
$SHADEDGE
 70
     3
  9
$SHADEDIF
 70
    70
  9
$TILEMODE
 70
     1
  9
$MAXACTVP
 70
    64
  9
$PINSBASE
 10
0.0
 20
0.0
 30
0.0
  9
$PLIMCHECK
 70
     0
  9
$PEXTMIN
 10
1.000000000000000E+20
 20
1.000000000000000E+20
 30
1.000000000000000E+20
  9
$PEXTMAX
 10
-1.000000000000000E+20
 20
-1.000000000000000E+20
 30
-1.000000000000000E+20
  9
$PLIMMIN
 10
0.0
 20
0.0
  9
$PLIMMAX
 10
0.0
 20
0.0
  9
$UNITMODE
 70
     0
  9
$VISRETAIN
 70
     1
  9
$PLINEGEN
 70
     0
  9
$PSLTSCALE
 70
     1
  9
$TREEDEPTH
 70
  3020
  9
$CMLSTYLE
  2
Standard
  9
$CMLJUST
 70
     0
  9
$CMLSCALE
 40
20.0
  9
$PROXYGRAPHICS
 70
     1
  9
$MEASUREMENT
 70
     1
  9
$CELWEIGHT
370
    -1
  9
$ENDCAPS
280
     0
  9
$JOINSTYLE
280
     0
  9
$LWDISPLAY
290
     1
  9
$INSUNITS
 70
     4
  9
$HYPERLINKBASE
  1

  9
$STYLESHEET
  1

  9
$XEDIT
290
     1
  9
$CEPSNTYPE
380
     0
  9
$PSTYLEMODE
290
     1
  9
$FINGERPRINTGUID
  2
{B321AC37-1581-4BB7-8060-0DF1D6186DB6}
  9
$VERSIONGUID
  2
{FAEB1C32-E019-11D5-929B-00C0DF256EC4}
  9
$EXTNAMES
290
     1
  9
$PSVPSCALE
 40
0.0
  9
$OLESTARTUP
290
     0
  9
$SORTENTS
280
   127
  9
$INDEXCTL
280
     0
  9
$HIDETEXT
280
     1
  9
$XCLIPFRAME
280
     2
  9
$HALOGAP
280
     0
  9
$OBSCOLOR
 70
   257
  9
$OBSLTYPE
280
     0
  9
$INTERSECTIONDISPLAY
280
     0
  9
$INTERSECTIONCOLOR
 70
   257
  9
$DIMASSOC
280
     2
  9
$PROJECTNAME
  1

  9
$CAMERADISPLAY
290
     0
  9
$LENSLENGTH
 40
50.0
  9
$CAMERAHEIGHT
 40
0.0
  9
$STEPSPERSEC
 40
2.0
  9
$STEPSIZE
 40
6.0
  9
$3DDWFPREC
 40
2.0
  9
$PSOLWIDTH
 40
0.25
  9
$PSOLHEIGHT
 40
4.0
  9
$LOFTANG1
 40
1.570796326794897
  9
$LOFTANG2
 40
1.570796326794897
  9
$LOFTMAG1
 40
0.0
  9
$LOFTMAG2
 40
0.0
  9
$LOFTPARAM
 70
     7
  9
$LOFTNORMALS
280
     1
  9
$LATITUDE
 40
37.795
  9
$LONGITUDE
 40
-122.394
  9
$NORTHDIRECTION
 40
0.0
  9
$TIMEZONE
 70
 -8000
  9
$LIGHTGLYPHDISPLAY
280
     1
  9
$TILEMODELIGHTSYNCH
280
     1
  9
$SOLIDHIST
280
     0
  9
$SHOWHIST
280
     1
  9
$DWFFRAME
280
     2
  9
$DGNFRAME
280
     2
  9
$REALWORLDSCALE
290
     1
  9
$INTERFERECOLOR
 62
   256
  9
$CSHADOW
280
     0
  9
$SHADOWPLANELOCATION
 40
0.0
  0
ENDSEC
  0
SECTION
  2
CLASSES
  0
CLASS
  1
ACDBDICTIONARYWDFLT
  2
AcDbDictionaryWithDefault
  3
ObjectDBX Classes
 90
        0
 91
        5
280
     0
281
     0
  0
CLASS
  1
VISUALSTYLE
  2
AcDbVisualStyle
  3
ObjectDBX Classes
 90
     4095
 91
        5
280
     0
281
     0
  0
CLASS
  1
MATERIAL
  2
AcDbMaterial
  3
ObjectDBX Classes
 90
     1153
 91
        5
280
     0
281
     0
  0
CLASS
  1
SCALE
  2
AcDbScale
  3
ObjectDBX Classes
 90
     1153
 91
        5
280
     0
281
     0
  0
CLASS
  1
TABLESTYLE
  2
AcDbTableStyle
  3
ObjectDBX Classes
 90
     4095
 91
        5
280
     0
281
     0
  0
CLASS
  1
MLEADERSTYLE
  2
AcDbMLeaderStyle
  3
ACDB_MLEADERSTYLE_CLASS
 90
     4095
 91
        5
280
     0
281
     0
  0
CLASS
  1
SUN
  2
AcDbSun
  3
SCENEOE
 90
     1153
 91
        5
280
     0
281
     0
  0
CLASS
  1
ACDBPLACEHOLDER
  2
AcDbPlaceHolder
  3
ObjectDBX Classes
 90
        0
 91
        1
280
     0
281
     0
  0
CLASS
  1
LAYOUT
  2
AcDbLayout
  3
ObjectDBX Classes
 90
        0
 91
        1
280
     0
281
     0
  0
CLASS
  1
RASTERVARIABLES
  2
AcDbRasterVariables
  3
ISM
 90
        0
 91
        5
280
     0
281
     0
  0
CLASS
  1
DICTIONARYVAR
  2
AcDbDictionaryVar
  3
ObjectDBX Classes
 90
        0
 91
        5
280
     0
281
     0
  0
CLASS
  1
CELLSTYLEMAP
  2
AcDbCellStyleMap
  3
ObjectDBX Classes
 90
     1152
 91
        4
280
     0
281
     0
  0
ENDSEC
  0
SECTION
  2
TABLES
  0
TABLE
  2
VPORT
  5
8
330
0
100
AcDbSymbolTable
 70
     1
  0
VPORT
  5
29
330
8
100
AcDbSymbolTableRecord
100
AcDbViewportTableRecord
  2
*Active
 70
     0
 10
0.0
 20
0.0
 11
1.0
 21
1.0
 12
248.8383112383854
 22
196.6733770735632
 13
0.0
 23
0.0
 14
10.0
 24
10.0
 15
10.0
 25
10.0
 16
0.0
 26
0.0
 36
1.0
 17
0.0
 27
0.0
 37
0.0
 40
417.6050302793643
 41
2.122853368560106
 42
50.0
 43
0.0
 44
0.0
 50
0.0
 51
0.0
 71
    16
 72
  2000
 73
     1
 74
     3
 75
     0
 76
     0
 77
     0
 78
     0
281
     0
 65
     1
110
0.0
120
0.0
130
0.0
111
1.0
121
0.0
131
0.0
112
0.0
122
1.0
132
0.0
 79
     0
146
0.0
348
43D
 60
     3
 61
     5
292
     1
282
     1
141
0.0
142
0.0
 63
   256
361
45A
  0
ENDTAB
  0
TABLE
  2
LTYPE
  5
5
330
0
100
AcDbSymbolTable
 70
     6
  0
LTYPE
  5
14
330
5
100
AcDbSymbolTableRecord
100
AcDbLinetypeTableRecord
  2
ByBlock
 70
     0
  3

 72
    65
 73
     0
 40
0.0
  0
LTYPE
  5
15
330
5
100
AcDbSymbolTableRecord
100
AcDbLinetypeTableRecord
  2
ByLayer
 70
     0
  3

 72
    65
 73
     0
 40
0.0
  0
LTYPE
  5
16
330
5
100
AcDbSymbolTableRecord
100
AcDbLinetypeTableRecord
  2
Continuous
 70
     0
  3
Solid line
 72
    65
 73
     0
 40
0.0
  0
LTYPE
  5
6E
330
5
100
AcDbSymbolTableRecord
100
AcDbLinetypeTableRecord
  2
HIDDEN
 70
     0
  3
Hidden __ __ __ __ __ __ __ __ __ __ __ __ __ __
 72
    65
 73
     2
 40
1.905
 49
1.27
 74
     0
 49
-0.635
 74
     0
  0
LTYPE
  5
6F
330
5
100
AcDbSymbolTableRecord
100
AcDbLinetypeTableRecord
  2
PHANTOM
 70
     0
  3
Phantom ______  __  __  ______  __  __  ______
 72
    65
 73
     6
 40
12.7
 49
6.35
 74
     0
 49
-1.27
 74
     0
 49
1.27
 74
     0
 49
-1.27
 74
     0
 49
1.27
 74
     0
 49
-1.27
 74
     0
  0
LTYPE
  5
70
330
5
100
AcDbSymbolTableRecord
100
AcDbLinetypeTableRecord
  2
CENTER
 70
     0
  3
Center ____ _ ____ _ ____ _ ____ _ ____ _ ____
 72
    65
 73
     4
 40
10.16
 49
6.35
 74
     0
 49
-1.27
 74
     0
 49
1.27
 74
     0
 49
-1.27
 74
     0
  0
LTYPE
  5
71
330
5
100
AcDbSymbolTableRecord
100
AcDbLinetypeTableRecord
  2
CENTERX2
 70
     0
  3
Center (2x) ________  __  ________  __  _____
 72
    65
 73
     4
 40
20.32
 49
12.7
 74
     0
 49
-2.54
 74
     0
 49
2.54
 74
     0
 49
-2.54
 74
     0
  0
LTYPE
  5
72
330
5
100
AcDbSymbolTableRecord
100
AcDbLinetypeTableRecord
  2
DOT2
 70
     0
  3
Dot (.5x) ........................................
 72
    65
 73
     2
 40
0.635
 49
0.0
 74
     0
 49
-0.635
 74
     0
  0
ENDTAB
  0
TABLE
  2
LAYER
  5
2
330
0
100
AcDbSymbolTable
 70
     5
  0
LAYER
  5
10
330
2
100
AcDbSymbolTableRecord
100
AcDbLayerTableRecord
  2
0
 70
     0
 62
     7
  6
Continuous
370
    -3
390
F
347
454
348
0
  0
LAYER
  5
73
330
2
100
AcDbSymbolTableRecord
100
AcDbLayerTableRecord
  2
QUOTE
 70
     0
 62
     3
  6
Continuous
370
    -3
390
F
347
454
348
0
  0
LAYER
  5
74
330
2
100
AcDbSymbolTableRecord
100
AcDbLayerTableRecord
  2
ASSI
 70
     0
 62
     1
  6
CENTERX2
370
    -3
390
F
347
454
348
0
  0
LAYER
  5
75
330
2
100
AcDbSymbolTableRecord
100
AcDbLayerTableRecord
  2
TRATTEGGIO
 70
     0
 62
     4
  6
Continuous
370
    -3
390
F
347
454
348
0
  0
LAYER
  5
460
330
2
100
AcDbSymbolTableRecord
100
AcDbLayerTableRecord
  2
Defpoints
 70
     0
 62
     7
  6
Continuous
290
     0
370
    -3
390
F
347
454
348
0
  0
ENDTAB
  0
TABLE
  2
STYLE
  5
3
330
0
100
AcDbSymbolTable
 70
     2
  0
STYLE
  5
11
330
3
100
AcDbSymbolTableRecord
100
AcDbTextStyleTableRecord
  2
Standard
 70
     0
 40
0.0
 41
1.0
 50
0.0
 71
     0
 42
2.8
  3
txt
  4

  0
STYLE
  5
76
330
3
100
AcDbSymbolTableRecord
100
AcDbTextStyleTableRecord
  2
SLDTEXTSTYLE0
 70
     0
 40
0.0
 41
0.75
 50
0.0
 71
     0
 42
2.8
  3
TXT
  4

  0
ENDTAB
  0
TABLE
  2
VIEW
  5
6
330
0
100
AcDbSymbolTable
 70
     0
  0
ENDTAB
  0
TABLE
  2
UCS
  5
7
330
0
100
AcDbSymbolTable
 70
     0
  0
ENDTAB
  0
TABLE
  2
APPID
  5
9
330
0
100
AcDbSymbolTable
 70
     1
  0
APPID
  5
12
330
9
100
AcDbSymbolTableRecord
100
AcDbRegAppTableRecord
  2
ACAD
 70
     0
  0
ENDTAB
  0
TABLE
  2
DIMSTYLE
  5
A
330
0
100
AcDbSymbolTable
 70
     1
100
AcDbDimStyleTable
  0
DIMSTYLE
105
27
330
A
100
AcDbSymbolTableRecord
100
AcDbDimStyleTableRecord
  2
ISO-25
 70
     0
 41
2.5
 42
0.625
 43
3.75
 44
1.25
 73
     0
 74
     0
 77
     1
 78
     8
140
2.5
141
2.5
143
0.0393700787
147
0.625
171
     3
172
     1
178
     0
271
     2
272
     2
274
     3
278
    44
283
     0
284
     8
340
11
  0
ENDTAB
  0
TABLE
  2
BLOCK_RECORD
  5
1
330
0
100
AcDbSymbolTable
 70
     1
  0
BLOCK_RECORD
  5
1F
330
1
100
AcDbSymbolTableRecord
100
AcDbBlockTableRecord
  2
*Model_Space
340
22
 70
     0
280
     1
281
     0
  0
BLOCK_RECORD
  5
1B
330
1
100
AcDbSymbolTableRecord
100
AcDbBlockTableRecord
  2
*Paper_Space
340
1E
 70
     0
280
     1
281
     0
  0
BLOCK_RECORD
  5
23
330
1
100
AcDbSymbolTableRecord
100
AcDbBlockTableRecord
  2
*Paper_Space0
340
26
 70
     0
280
     1
281
     0
  0
ENDTAB
  0
ENDSEC
  0
SECTION
  2
BLOCKS
  0
BLOCK
  5
20
330
1F
100
AcDbEntity
  8
0
100
AcDbBlockBegin
  2
*Model_Space
 70
     0
 10
0.0
 20
0.0
 30
0.0
  3
*Model_Space
  1
*Model_Space
  0
ENDBLK
  5
21
330
1F
100
AcDbEntity
  8
0
100
AcDbBlockEnd
  0
BLOCK
  5
1C
330
1B
100
AcDbEntity
 67
     1
  8
0
100
AcDbBlockBegin
  2
*Paper_Space
 70
     0
 10
0.0
 20
0.0
 30
0.0
  3
*Paper_Space
  1
*Paper_Space
  0
ENDBLK
  5
1D
330
1B
100
AcDbEntity
 67
     1
  8
0
100
AcDbBlockEnd
  0
BLOCK
  5
24
330
23
100
AcDbEntity
  8
0
100
AcDbBlockBegin
  2
*Paper_Space0
 70
     0
 10
0.0
 20
0.0
 30
0.0
  3
*Paper_Space0
  1
*Paper_Space0
  0
ENDBLK
  5
25
330
23
100
AcDbEntity
  8
0
100
AcDbBlockEnd
  0
ENDSEC
  0
SECTION
  2
ENTITIES
  0
MTEXT
  5
77
330
1F
100
AcDbEntity
  8
0
  6
Continuous
 62
     7
370
     0
100
AcDbMText
 10
-21.07121081623143
 20
282.2362245564
 30
0.0
 40
19.05
 41
0.0
 46
0.0
 71
     1
 72
     1
  1
1065
  7
SLDTEXTSTYLE0
 73
     1
 44
1.0
  0
LINE
  5
78
330
1F
100
AcDbEntity
  8
0
100
AcDbLine
 10
142.5344152992
 20
91.1556536262
 30
0.0
 11
141.5344132726
 21
91.1556536262
 31
0.0
  0
LWPOLYLINE
  5
79
330
1F
100
AcDbEntity
  8
0
100
AcDbPolyline
 90
       10
 70
   128
 43
0.0
 10
142.7344112341
 20
91.1576634203
 10
142.526033396
 20
91.1573151057
 10
142.3239885514
 20
91.1569761043
 10
142.1344159787
 20
91.1566585233
 10
141.9630675261
 20
91.1563716759
 10
141.8151586001
 20
91.1561239441
 10
141.6951819007
 20
91.1559227785
 10
141.6067807619
 20
91.1557746982
 10
141.5526448433
 20
91.1556843599
 10
141.5344132726
 20
91.1556536262
  0
LWPOLYLINE
  5
7A
330
1F
100
AcDbEntity
  8
0
100
AcDbPolyline
 90
       10
 70
   128
 43
0.0
 10
142.7344112341
 20
91.1576634203
 10
142.699684078
 20
91.1573151057
 10
142.6660074537
 20
91.1569761043
 10
142.6344095414
 20
91.1566585233
 10
142.6058589165
 20
91.1563716759
 10
142.5812049453
 20
91.1561239441
 10
142.561207587
 20
91.1559227785
 10
142.5464777892
 20
91.1557746982
 10
142.5374476855
 20
91.1556843599
 10
142.5344152992
 20
91.1556536262
  0
LWPOLYLINE
  5
7B
330
1F
100
AcDbEntity
  8
0
100
AcDbPolyline
 90
        9
 70
   128
 43
0.0
 10
142.7323995774
 20
89.9576635962
 10
142.7324442809
 20
89.9807212805
 10
142.7325560396
 20
90.0490086456
 10
142.7327423041
 20
90.1599002933
 10
142.7329881732
 20
90.3091354226
 10
142.733293647
 20
90.4909798806
 10
142.7336438243
 20
90.6984440913
 10
142.7340238039
 20
90.9235550021
 10
142.7344112341
 20
91.1576634203
  0
LWPOLYLINE
  5
7C
330
1F
100
AcDbEntity
  8
0
100
AcDbPolyline
 90
       10
 70
   128
 43
0.0
 10
229.3364229296
 20
89.9576635962
 10
229.336392196
 20
89.9758942356
 10
229.3363018577
 20
90.0300329482
 10
229.3361537774
 20
90.1184331556
 10
229.3359526117
 20
90.2384107863
 10
229.3357048799
 20
90.386318781
 10
229.3354180326
 20
90.5576635083
 10
229.3351004516
 20
90.7472398063
 10
229.3347614502
 20
90.9492855822
 10
229.3344131355
 20
91.1576634203
  0
LINE
  5
7D
330
1F
100
AcDbEntity
  8
0
100
AcDbLine
 10
142.7323995774
 20
89.9576635962
 30
0.0
 11
229.3364229296
 21
89.9576635962
 31
0.0
  0
LINE
  5
7E
330
1F
100
AcDbEntity
  8
0
100
AcDbLine
 10
141.5344132726
 20
124.7596748104
 30
0.0
 11
141.5344132726
 21
91.1556536262
 31
0.0
  0
LWPOLYLINE
  5
7F
330
1F
100
AcDbEntity
  8
0
100
AcDbPolyline
 90
        9
 70
   128
 43
0.0
 10
142.7344112341
 20
124.7576631536
 10
142.5003065412
 20
124.7580561717
 10
142.275194699
 20
124.7584324261
 10
142.0677258317
 20
124.7587807407
 10
141.8858869617
 20
124.7590843519
 10
141.7366518323
 20
124.759335809
 10
141.6257573907
 20
124.7595202108
 10
141.5574728196
 20
124.7596356948
 10
141.5344132726
 20
124.7596748104
  0
LWPOLYLINE
  5
80
330
1F
100
AcDbEntity
  8
0
100
AcDbPolyline
 90
        9
 70
   128
 43
0.0
 10
230.5344129597
 20
177.7596760472
 10
230.5113552754
 20
177.7596387943
 10
230.4430679102
 20
177.759519585
 10
230.3321762626
 20
177.7593333205
 10
230.1829411333
 20
177.7590874513
 10
230.0010966753
 20
177.7587819775
 10
229.7936333959
 20
177.7584318002
 10
229.5685215537
 20
177.7580592712
 10
229.3344131355
 20
177.7576643904
  0
LINE
  5
81
330
1F
100
AcDbEntity
  8
0
100
AcDbLine
 10
230.5344129597
 20
91.1556536262
 30
0.0
 11
230.5344129597
 21
177.7596760472
 31
0.0
  0
LWPOLYLINE
  5
82
330
1F
100
AcDbEntity
  8
0
100
AcDbPolyline
 90
        9
 70
   128
 43
0.0
 10
229.3344131355
 20
91.1576634203
 10
229.5685215537
 20
91.1572713335
 10
229.7936333959
 20
91.1568941479
 10
230.0010966753
 20
91.1565467646
 10
230.1829411333
 20
91.1562422221
 10
230.3321762626
 20
91.1559926277
 10
230.4430679102
 20
91.1558063631
 10
230.5113552754
 20
91.1556927418
 10
230.5344129597
 20
91.1556536262
  0
LWPOLYLINE
  5
83
330
1F
100
AcDbEntity
  8
0
100
AcDbPolyline
 90
       10
 70
   128
 43
0.0
 10
229.3364229296
 20
90.9576637601
 10
229.336392196
 20
90.9607026657
 10
229.3363018577
 20
90.9697253188
 10
229.3361537774
 20
90.9844588419
 10
229.3359526117
 20
91.0044552689
 10
229.3357048799
 20
91.0291064461
 10
229.3354180326
 20
91.0576635902
 10
229.3351004516
 20
91.0892596399
 10
229.3347614502
 20
91.1229344015
 10
229.3344131355
 20
91.1576634203
  0
LINE
  5
84
330
1F
100
AcDbEntity
  8
0
100
AcDbLine
 10
229.3364229296
 20
90.9576637601
 30
0.0
 11
229.3364229296
 21
89.9576635962
 31
0.0
  0
LWPOLYLINE
  5
85
330
1F
100
AcDbEntity
  8
0
100
AcDbPolyline
 90
        9
 70
   128
 43
0.0
 10
229.3344131355
 20
91.1576634203
 10
229.3734308948
 20
91.1572713335
 10
229.4109492247
 20
91.1568941479
 10
229.4455264379
 20
91.1565467646
 10
229.4758344685
 20
91.1562422221
 10
229.5007063692
 20
91.1559926277
 10
229.5191884656
 20
91.1558063631
 10
229.5305701588
 20
91.1556927418
 10
229.5344127958
 20
91.1556536262
  0
LINE
  5
86
330
1F
100
AcDbEntity
  8
0
100
AcDbLine
 10
229.5344127958
 20
91.1556536262
 30
0.0
 11
230.5344129597
 21
91.1556536262
 31
0.0
  0
LWPOLYLINE
  5
87
330
1F
100
AcDbEntity
  8
0
100
AcDbPolyline
 90
        9
 70
   128
 43
0.0
 10
142.7323995774
 20
90.9576637601
 10
142.7324442809
 20
90.961506397
 10
142.7325560396
 20
90.9728880902
 10
142.7327423041
 20
90.9913701867
 10
142.7329881732
 20
91.0162420874
 10
142.733293647
 20
91.0465501179
 10
142.7336438243
 20
91.0811273312
 10
142.7340238039
 20
91.1186456611
 10
142.7344112341
 20
91.1576634203
  0
LINE
  5
88
330
1F
100
AcDbEntity
  8
0
100
AcDbLine
 10
142.7323995774
 20
90.9576637601
 30
0.0
 11
142.7323995774
 21
89.9576635962
 31
0.0
  0
LINE
  5
89
330
1F
100
AcDbEntity
  8
0
100
AcDbLine
 10
195.7344124709
 20
124.7576631536
 30
0.0
 11
195.7344124709
 21
132.9576641252
 31
0.0
  0
LINE
  5
8A
330
1F
100
AcDbEntity
  8
0
100
AcDbLine
 10
187.534413362
 20
124.7576631536
 30
0.0
 11
195.7344124709
 21
124.7576631536
 31
0.0
  0
LWPOLYLINE
  5
8B
330
1F
100
AcDbEntity
  8
0
100
AcDbPolyline
 90
        9
 70
   128
 43
0.0
 10
142.7323995774
 20
124.9576646765
 10
142.7324442809
 20
124.9538201769
 10
142.7325560396
 20
124.9424394151
 10
142.7327423041
 20
124.9239582499
 10
142.7329881732
 20
124.8990844866
 10
142.733293647
 20
124.8687773874
 10
142.7336438243
 20
124.8342011054
 10
142.7340238039
 20
124.7966818442
 10
142.7344112341
 20
124.7576631536
  0
LINE
  5
8C
330
1F
100
AcDbEntity
  8
0
100
AcDbLine
 10
142.7323995774
 20
124.9576646765
 30
0.0
 11
142.7323995774
 21
125.9576629778
 31
0.0
  0
LWPOLYLINE
  5
8D
330
1F
100
AcDbEntity
  8
0
100
AcDbPolyline
 90
        9
 70
   128
 43
0.0
 10
142.7323995774
 20
125.9576629778
 10
142.7324442809
 20
125.9346052935
 10
142.7325560396
 20
125.8663188597
 10
142.7327423041
 20
125.7554281434
 10
142.7329881732
 20
125.6061911514
 10
142.733293647
 20
125.424348556
 10
142.7336438243
 20
125.216883414
 10
142.7340238039
 20
124.9917715718
 10
142.7344112341
 20
124.7576631536
  0
LWPOLYLINE
  5
8E
330
1F
100
AcDbEntity
  8
0
100
AcDbPolyline
 90
        9
 70
   128
 43
0.0
 10
142.7344112341
 20
124.7576631536
 10
142.6953925435
 20
124.7580561717
 10
142.6578788702
 20
124.7584324261
 10
142.6233007257
 20
124.7587807407
 10
142.5929917638
 20
124.7590843519
 10
142.5681217258
 20
124.759335809
 10
142.5496368353
 20
124.7595202108
 10
142.5382523482
 20
124.7596356948
 10
142.5344152992
 20
124.7596748104
  0
LINE
  5
8F
330
1F
100
AcDbEntity
  8
0
100
AcDbLine
 10
142.5344152992
 20
124.7596748104
 30
0.0
 11
141.5344132726
 21
124.7596748104
 31
0.0
  0
LINE
  5
90
330
1F
100
AcDbEntity
  8
0
100
AcDbLine
 10
187.534413362
 20
125.9576629778
 30
0.0
 11
142.7323995774
 21
125.9576629778
 31
0.0
  0
LINE
  5
91
330
1F
100
AcDbEntity
  8
0
100
AcDbLine
 10
187.534413362
 20
125.9576629778
 30
0.0
 11
187.534413362
 21
124.7576631536
 31
0.0
  0
LINE
  5
92
330
1F
100
AcDbEntity
  8
0
100
AcDbLine
 10
194.5344126468
 20
177.7596760472
 30
0.0
 11
194.5344126468
 21
132.9576641252
 31
0.0
  0
LWPOLYLINE
  5
93
330
1F
100
AcDbEntity
  8
0
100
AcDbPolyline
 90
       10
 70
   128
 43
0.0
 10
195.7344124709
 20
177.7576643904
 10
195.5260346328
 20
177.7580145677
 10
195.3239879255
 20
177.7583498438
 10
195.1344134902
 20
177.7586702188
 10
194.9630669002
 20
177.7589533409
 10
194.8151598369
 20
177.7592066606
 10
194.6951831375
 20
177.7594078263
 10
194.6067819987
 20
177.7595493873
 10
194.5526442175
 20
177.7596462449
 10
194.5344126468
 20
177.7596760472
  0
LINE
  5
94
330
1F
100
AcDbEntity
  8
0
100
AcDbLine
 10
195.7344124709
 20
132.9576641252
 30
0.0
 11
194.5344126468
 21
132.9576641252
 31
0.0
  0
LWPOLYLINE
  5
95
330
1F
100
AcDbEntity
  8
0
100
AcDbPolyline
 90
        9
 70
   128
 43
0.0
 10
229.3344131355
 20
177.7576643904
 10
229.3348052223
 20
177.796683081
 10
229.335182408
 20
177.8341967543
 10
229.3355297913
 20
177.8687748989
 10
229.3358343338
 20
177.8990838607
 10
229.3360839282
 20
177.9239613493
 10
229.3362701927
 20
177.9424387892
 10
229.3363847454
 20
177.9538232764
 10
229.3364229296
 20
177.9576603254
  0
LWPOLYLINE
  5
96
330
1F
100
AcDbEntity
  8
0
100
AcDbPolyline
 90
        9
 70
   128
 43
0.0
 10
229.3344131355
 20
177.7576643904
 10
229.3348052223
 20
177.9917690834
 10
229.335182408
 20
178.2168809255
 10
229.3355297913
 20
178.4243497928
 10
229.3358343338
 20
178.6061886629
 10
229.3360839282
 20
178.7554237922
 10
229.3362701927
 20
178.8663182338
 10
229.3363847454
 20
178.934602805
 10
229.3364229296
 20
178.9576623519
  0
LINE
  5
97
330
1F
100
AcDbEntity
  8
0
100
AcDbLine
 10
229.3364229296
 20
177.9576603254
 30
0.0
 11
229.3364229296
 21
178.9576623519
 31
0.0
  0
LWPOLYLINE
  5
98
330
1F
100
AcDbEntity
  8
0
100
AcDbPolyline
 90
        9
 70
   128
 43
0.0
 10
195.7324026768
 20
178.9576623519
 10
195.7324417924
 20
178.934602805
 10
195.7325554137
 20
178.8663182338
 10
195.7327416782
 20
178.7554237922
 10
195.7329912727
 20
178.6061886629
 10
195.7332967465
 20
178.4243497928
 10
195.7336431985
 20
178.2168809255
 10
195.7340213154
 20
177.9917690834
 10
195.7344124709
 20
177.7576643904
  0
LINE
  5
99
330
1F
100
AcDbEntity
  8
0
100
AcDbLine
 10
229.3364229296
 20
178.9576623519
 30
0.0
 11
195.7324026768
 21
178.9576623519
 31
0.0
  0
LWPOLYLINE
  5
9A
330
1F
100
AcDbEntity
  8
0
100
AcDbPolyline
 90
        9
 70
   128
 43
0.0
 10
195.7324026768
 20
177.9576603254
 10
195.7324417924
 20
177.9538232764
 10
195.7325554137
 20
177.9424387892
 10
195.7327416782
 20
177.9239613493
 10
195.7329912727
 20
177.8990838607
 10
195.7332967465
 20
177.8687748989
 10
195.7336431985
 20
177.8341967543
 10
195.7340213154
 20
177.796683081
 10
195.7344124709
 20
177.7576643904
  0
LINE
  5
9B
330
1F
100
AcDbEntity
  8
0
100
AcDbLine
 10
195.7324026768
 20
177.9576603254
 30
0.0
 11
195.7324026768
 21
178.9576623519
 31
0.0
  0
LWPOLYLINE
  5
9C
330
1F
100
AcDbEntity
  8
0
100
AcDbPolyline
 90
        9
 70
   128
 43
0.0
 10
229.5344127958
 20
177.7596760472
 10
229.5305701588
 20
177.7596387943
 10
229.5191884656
 20
177.759519585
 10
229.5007063692
 20
177.7593333205
 10
229.4758344685
 20
177.7590874513
 10
229.4455264379
 20
177.7587819775
 10
229.4109492247
 20
177.7584318002
 10
229.3734308948
 20
177.7580592712
 10
229.3344131355
 20
177.7576643904
  0
LINE
  5
9D
330
1F
100
AcDbEntity
  8
0
100
AcDbLine
 10
229.5344127958
 20
177.7596760472
 30
0.0
 11
230.5344129597
 21
177.7596760472
 31
0.0
  0
LWPOLYLINE
  5
9E
330
1F
100
AcDbEntity
  8
0
100
AcDbPolyline
 90
        9
 70
   128
 43
0.0
 10
195.7344124709
 20
177.7576643904
 10
195.695395643
 20
177.7580592712
 10
195.6578763817
 20
177.7584318002
 10
195.6232982372
 20
177.7587819775
 10
195.592991138
 20
177.7590874513
 10
195.5681192373
 20
177.7593333205
 10
195.5496362095
 20
177.759519585
 10
195.5382554476
 20
177.7596387943
 10
195.5344128107
 20
177.7596760472
  0
LINE
  5
9F
330
1F
100
AcDbEntity
  8
0
100
AcDbLine
 10
195.5344128107
 20
177.7596760472
 30
0.0
 11
194.5344126468
 21
177.7596760472
 31
0.0
  0
LINE
  5
A0
330
1F
100
AcDbEntity
  8
0
100
AcDbLine
 10
153.5344152396
 20
126.9576631417
 30
0.0
 11
153.5344152396
 21
125.9576629778
 31
0.0
  0
LINE
  5
A1
330
1F
100
AcDbEntity
  8
0
100
AcDbLine
 10
193.5344124828
 20
126.9576631417
 30
0.0
 11
153.5344152396
 21
126.9576631417
 31
0.0
  0
ARC
  5
A2
330
1F
100
AcDbEntity
  8
0
100
AcDbCircle
 10
193.5344128554
 20
127.4576637824
 30
0.0
 40
0.5
100
AcDbArc
 50
270.0
 51
0.0
  0
LINE
  5
A3
330
1F
100
AcDbEntity
  8
0
100
AcDbLine
 10
194.0344134961
 20
167.4576613983
 30
0.0
 11
194.0344134961
 21
127.457664155
 31
0.0
  0
LINE
  5
A4
330
1F
100
AcDbEntity
  8
0
100
AcDbLine
 10
194.5344126468
 20
167.4576613983
 30
0.0
 11
194.0344134961
 21
167.4576613983
 31
0.0
  0
LINE
  5
A5
330
1F
100
AcDbEntity
  8
0
  6
Continuous
 62
     8
370
     0
100
AcDbLine
 10
229.3344131355
 20
91.1576634203
 30
0.0
 11
142.7344112341
 21
91.1576634203
 31
0.0
  0
LINE
  5
A6
330
1F
100
AcDbEntity
  8
0
  6
Continuous
 62
     8
370
     0
100
AcDbLine
 10
142.7344112341
 20
91.1576634203
 30
0.0
 11
142.7344112341
 21
124.7576631536
 31
0.0
  0
LINE
  5
A7
330
1F
100
AcDbEntity
  8
0
  6
Continuous
 62
     8
370
     0
100
AcDbLine
 10
229.3344131355
 20
177.7576643904
 30
0.0
 11
229.3344131355
 21
91.1576634203
 31
0.0
  0
LINE
  5
A8
330
1F
100
AcDbEntity
  8
0
  6
Continuous
 62
     8
370
     0
100
AcDbLine
 10
195.7344124709
 20
132.9576641252
 30
0.0
 11
195.7344124709
 21
177.7576643904
 31
0.0
  0
LINE
  5
A9
330
1F
100
AcDbEntity
  8
0
  6
Continuous
 62
     8
370
     0
100
AcDbLine
 10
195.7344124709
 20
177.7576643904
 30
0.0
 11
229.3344131355
 21
177.7576643904
 31
0.0
  0
LINE
  5
AA
330
1F
100
AcDbEntity
  8
0
  6
Continuous
 62
     8
370
     0
100
AcDbLine
 10
142.7344112341
 20
124.7576631536
 30
0.0
 11
187.534413362
 21
124.7576631536
 31
0.0
  0
LINE
  5
AB
330
1F
100
AcDbEntity
  8
0
100
AcDbLine
 10
190.5344119911
 20
208.0447467974
 30
0.0
 11
190.5344119911
 21
208.4447465836
 31
0.0
  0
LINE
  5
AC
330
1F
100
AcDbEntity
  8
0
100
AcDbLine
 10
190.5344119911
 20
217.7447466179
 30
0.0
 11
190.5344119911
 21
218.144746404
 31
0.0
  0
LINE
  5
AD
330
1F
100
AcDbEntity
  8
0
100
AcDbLine
 10
229.3364229296
 20
225.4447470418
 30
0.0
 11
229.3364229296
 21
218.644746486
 31
0.0
  0
LINE
  5
AE
330
1F
100
AcDbEntity
  8
0
100
AcDbLine
 10
229.3364229296
 20
218.644746486
 30
0.0
 11
142.7323995774
 21
218.644746486
 31
0.0
  0
LINE
  5
AF
330
1F
100
AcDbEntity
  8
0
100
AcDbLine
 10
142.7323995774
 20
218.644746486
 30
0.0
 11
142.7323995774
 21
225.4447470418
 31
0.0
  0
ELLIPSE
  5
B0
330
1F
100
AcDbEntity
  8
0
100
AcDbEllipse
 10
229.3344128554
 20
225.4447466007
 30
0.0
 11
0.0
 21
1.199999999999989
 31
0.0
210
0.0
220
0.0
230
1.0
 40
0.0016750844
 41
4.71238898038469
 42
6.283185307179586
  0
ELLIPSE
  5
B1
330
1F
100
AcDbEntity
  8
0
100
AcDbEllipse
 10
142.7344128554
 20
225.4447466007
 30
0.0
 11
0.0
 21
1.199999999999989
 31
0.0
210
0.0
220
0.0
230
1.0
 40
0.0016750844
 41
0.0
 42
1.570796326794897
  0
LINE
  5
B2
330
1F
100
AcDbEntity
  8
0
100
AcDbLine
 10
229.3344131355
 20
226.644746866
 30
0.0
 11
142.7344112341
 21
226.644746866
 31
0.0
  0
LINE
  5
B3
330
1F
100
AcDbEntity
  8
0
100
AcDbLine
 10
229.5344127958
 20
218.644746486
 30
0.0
 11
229.5344127958
 21
225.4447470418
 31
0.0
  0
LINE
  5
B4
330
1F
100
AcDbEntity
  8
0
100
AcDbLine
 10
230.5344129597
 20
218.644746486
 30
0.0
 11
230.5344129597
 21
225.4447470418
 31
0.0
  0
LINE
  5
B5
330
1F
100
AcDbEntity
  8
0
100
AcDbLine
 10
229.5344127958
 20
218.644746486
 30
0.0
 11
230.5344129597
 21
218.644746486
 31
0.0
  0
ARC
  5
B6
330
1F
100
AcDbEntity
  8
0
100
AcDbCircle
 10
229.3344128554
 20
225.4447466007
 30
0.0
 40
0.2000000000000171
100
AcDbArc
 50
0.0
 51
90.0
  0
ARC
  5
B7
330
1F
100
AcDbEntity
  8
0
100
AcDbCircle
 10
229.3344128554
 20
225.4447466007
 30
0.0
 40
1.200000000000017
100
AcDbArc
 50
0.0
 51
90.0
  0
LINE
  5
B8
330
1F
100
AcDbEntity
  8
0
100
AcDbLine
 10
142.5344152992
 20
218.644746486
 30
0.0
 11
141.5344132726
 21
218.644746486
 31
0.0
  0
LINE
  5
B9
330
1F
100
AcDbEntity
  8
0
100
AcDbLine
 10
141.5344132726
 20
225.4447470418
 30
0.0
 11
141.5344132726
 21
218.644746486
 31
0.0
  0
LINE
  5
BA
330
1F
100
AcDbEntity
  8
0
100
AcDbLine
 10
142.5344152992
 20
225.4447470418
 30
0.0
 11
142.5344152992
 21
218.644746486
 31
0.0
  0
ARC
  5
BB
330
1F
100
AcDbEntity
  8
0
100
AcDbCircle
 10
142.7344128554
 20
225.4447466007
 30
0.0
 40
1.200000000000017
100
AcDbArc
 50
90.0
 51
180.0
  0
ARC
  5
BC
330
1F
100
AcDbEntity
  8
0
100
AcDbCircle
 10
142.7344128554
 20
225.4447466007
 30
0.0
 40
0.2000000000000171
100
AcDbArc
 50
90.0
 51
180.0
  0
ELLIPSE
  5
BD
330
1F
100
AcDbEntity
  8
0
100
AcDbEllipse
 10
229.3344128554
 20
200.7447466007
 30
0.0
 11
0.0
 21
1.200000000000017
 31
0.0
210
0.0
220
0.0
230
1.0
 40
0.0016750844
 41
3.14159265358972
 42
4.71238898038469
  0
LINE
  5
BE
330
1F
100
AcDbEntity
  8
0
100
AcDbLine
 10
229.3344131355
 20
199.5447463355
 30
0.0
 11
142.7344112341
 21
199.5447463355
 31
0.0
  0
ELLIPSE
  5
BF
330
1F
100
AcDbEntity
  8
0
100
AcDbEllipse
 10
142.7344128554
 20
200.7447466007
 30
0.0
 11
0.0
 21
1.200000000000017
 31
0.0
210
0.0
220
0.0
230
1.0
 40
0.0016750844
 41
1.570796326794897
 42
3.14159265358972
  0
LINE
  5
C0
330
1F
100
AcDbEntity
  8
0
100
AcDbLine
 10
229.3364229296
 20
207.5447467155
 30
0.0
 11
142.7323995774
 21
207.5447467155
 31
0.0
  0
LINE
  5
C1
330
1F
100
AcDbEntity
  8
0
100
AcDbLine
 10
142.7323995774
 20
207.5447467155
 30
0.0
 11
142.7323995774
 21
200.7447461597
 31
0.0
  0
LINE
  5
C2
330
1F
100
AcDbEntity
  8
0
100
AcDbLine
 10
229.3364229296
 20
200.7447461597
 30
0.0
 11
229.3364229296
 21
207.5447467155
 31
0.0
  0
ARC
  5
C3
330
1F
100
AcDbEntity
  8
0
100
AcDbCircle
 10
229.3344128554
 20
200.7447466007
 30
0.0
 40
1.200000000000017
100
AcDbArc
 50
270.0
 51
0.0
  0
ARC
  5
C4
330
1F
100
AcDbEntity
  8
0
100
AcDbCircle
 10
229.3344128554
 20
200.7447466007
 30
0.0
 40
0.2000000000000171
100
AcDbArc
 50
270.0
 51
0.0
  0
LINE
  5
C5
330
1F
100
AcDbEntity
  8
0
100
AcDbLine
 10
230.5344129597
 20
207.5447467155
 30
0.0
 11
230.5344129597
 21
200.7447461597
 31
0.0
  0
LINE
  5
C6
330
1F
100
AcDbEntity
  8
0
100
AcDbLine
 10
229.5344127958
 20
207.5447467155
 30
0.0
 11
230.5344129597
 21
207.5447467155
 31
0.0
  0
LINE
  5
C7
330
1F
100
AcDbEntity
  8
0
100
AcDbLine
 10
229.5344127958
 20
207.5447467155
 30
0.0
 11
229.5344127958
 21
200.7447461597
 31
0.0
  0
ARC
  5
C8
330
1F
100
AcDbEntity
  8
0
100
AcDbCircle
 10
142.7344128554
 20
200.7447466007
 30
0.0
 40
1.200000000000017
100
AcDbArc
 50
180.0
 51
270.0
  0
ARC
  5
C9
330
1F
100
AcDbEntity
  8
0
100
AcDbCircle
 10
142.7344128554
 20
200.7447466007
 30
0.0
 40
0.2000000000000171
100
AcDbArc
 50
180.0
 51
270.0
  0
LINE
  5
CA
330
1F
100
AcDbEntity
  8
0
100
AcDbLine
 10
142.5344152992
 20
207.5447467155
 30
0.0
 11
141.5344132726
 21
207.5447467155
 31
0.0
  0
LINE
  5
CB
330
1F
100
AcDbEntity
  8
0
100
AcDbLine
 10
141.5344132726
 20
200.7447461597
 30
0.0
 11
141.5344132726
 21
207.5447467155
 31
0.0
  0
LINE
  5
CC
330
1F
100
AcDbEntity
  8
0
100
AcDbLine
 10
142.5344152992
 20
200.7447461597
 30
0.0
 11
142.5344152992
 21
207.5447467155
 31
0.0
  0
LINE
  5
CD
330
1F
100
AcDbEntity
  8
0
100
AcDbLine
 10
186.0344140475
 20
208.4447465836
 30
0.0
 11
150.5344091599
 21
208.4447465836
 31
0.0
  0
LINE
  5
CE
330
1F
100
AcDbEntity
  8
0
100
AcDbLine
 10
186.0344140475
 20
208.0447467974
 30
0.0
 11
150.5344091599
 21
208.0447467974
 31
0.0
  0
LINE
  5
CF
330
1F
100
AcDbEntity
  8
0
100
AcDbLine
 10
144.5344119017
 20
208.0447467974
 30
0.0
 11
144.5344119017
 21
208.4447465836
 31
0.0
  0
LINE
  5
D0
330
1F
100
AcDbEntity
  8
0
100
AcDbLine
 10
150.5344091599
 20
208.4447465836
 30
0.0
 11
144.5344119017
 21
208.4447465836
 31
0.0
  0
LINE
  5
D1
330
1F
100
AcDbEntity
  8
0
100
AcDbLine
 10
190.5344119911
 20
208.4447465836
 30
0.0
 11
186.0344140475
 21
208.4447465836
 31
0.0
  0
LINE
  5
D2
330
1F
100
AcDbEntity
  8
0
100
AcDbLine
 10
144.5344119017
 20
217.7447466179
 30
0.0
 11
144.5344119017
 21
218.144746404
 31
0.0
  0
LINE
  5
D3
330
1F
100
AcDbEntity
  8
0
100
AcDbLine
 10
150.5344091599
 20
217.7447466179
 30
0.0
 11
144.5344119017
 21
217.7447466179
 31
0.0
  0
LINE
  5
D4
330
1F
100
AcDbEntity
  8
0
100
AcDbLine
 10
186.0344140475
 20
218.144746404
 30
0.0
 11
150.5344091599
 21
218.144746404
 31
0.0
  0
LINE
  5
D5
330
1F
100
AcDbEntity
  8
0
100
AcDbLine
 10
186.0344140475
 20
217.7447466179
 30
0.0
 11
150.5344091599
 21
217.7447466179
 31
0.0
  0
LINE
  5
D6
330
1F
100
AcDbEntity
  8
0
100
AcDbLine
 10
190.5344119911
 20
217.7447466179
 30
0.0
 11
186.0344140475
 21
217.7447466179
 31
0.0
  0
LINE
  5
D7
330
1F
100
AcDbEntity
  8
0
100
AcDbLine
 10
225.0344129895
 20
208.4447465836
 30
0.0
 11
229.0344127138
 21
208.4447465836
 31
0.0
  0
LINE
  5
D8
330
1F
100
AcDbEntity
  8
0
100
AcDbLine
 10
229.0344127138
 20
208.4447465836
 30
0.0
 11
229.0344127138
 21
208.0447467974
 31
0.0
  0
LINE
  5
D9
330
1F
100
AcDbEntity
  8
0
100
AcDbLine
 10
229.0344127138
 20
208.0447467974
 30
0.0
 11
227.241383927
 21
208.0447467974
 31
0.0
  0
LINE
  5
DA
330
1F
100
AcDbEntity
  8
0
100
AcDbLine
 10
197.0344121252
 20
208.0447467974
 30
0.0
 11
197.0344121252
 21
208.4447465836
 31
0.0
  0
LINE
  5
DB
330
1F
100
AcDbEntity
  8
0
100
AcDbLine
 10
197.0344121252
 20
208.4447465836
 30
0.0
 11
201.0344127809
 21
208.4447465836
 31
0.0
  0
LINE
  5
DC
330
1F
100
AcDbEntity
  8
0
100
AcDbLine
 10
225.0344129895
 20
208.4447465836
 30
0.0
 11
201.0344127809
 21
208.4447465836
 31
0.0
  0
LINE
  5
DD
330
1F
100
AcDbEntity
  8
0
100
AcDbLine
 10
215.0344127473
 20
208.0447467974
 30
0.0
 11
210.0344123934
 21
208.0447467974
 31
0.0
  0
LINE
  5
DE
330
1F
100
AcDbEntity
  8
0
100
AcDbLine
 10
225.0344129895
 20
218.144746404
 30
0.0
 11
229.0344127138
 21
218.144746404
 31
0.0
  0
LINE
  5
DF
330
1F
100
AcDbEntity
  8
0
100
AcDbLine
 10
229.0344127138
 20
218.144746404
 30
0.0
 11
229.0344127138
 21
217.7447466179
 31
0.0
  0
LINE
  5
E0
330
1F
100
AcDbEntity
  8
0
100
AcDbLine
 10
229.0344127138
 20
217.7447466179
 30
0.0
 11
225.0344129895
 21
217.7447466179
 31
0.0
  0
LINE
  5
E1
330
1F
100
AcDbEntity
  8
0
100
AcDbLine
 10
215.0344127473
 20
218.144746404
 30
0.0
 11
210.0344123934
 21
218.144746404
 31
0.0
  0
LINE
  5
E2
330
1F
100
AcDbEntity
  8
0
100
AcDbLine
 10
225.0344129895
 20
217.7447466179
 30
0.0
 11
201.0344127809
 21
217.7447466179
 31
0.0
  0
LINE
  5
E3
330
1F
100
AcDbEntity
  8
0
100
AcDbLine
 10
197.0344121252
 20
217.7447466179
 30
0.0
 11
197.0344121252
 21
218.144746404
 31
0.0
  0
LINE
  5
E4
330
1F
100
AcDbEntity
  8
0
100
AcDbLine
 10
201.0344127809
 20
217.7447466179
 30
0.0
 11
197.0344121252
 21
217.7447466179
 31
0.0
  0
LINE
  5
E5
330
1F
100
AcDbEntity
  8
0
100
AcDbLine
 10
210.0344123934
 20
218.144746404
 30
0.0
 11
210.0344123934
 21
218.644746486
 31
0.0
  0
LINE
  5
E6
330
1F
100
AcDbEntity
  8
0
100
AcDbLine
 10
201.0344127809
 20
218.144746404
 30
0.0
 11
210.0344123934
 21
218.144746404
 31
0.0
  0
LINE
  5
E7
330
1F
100
AcDbEntity
  8
0
100
AcDbLine
 10
215.0344127473
 20
218.644746486
 30
0.0
 11
215.0344127473
 21
218.144746404
 31
0.0
  0
LINE
  5
E8
330
1F
100
AcDbEntity
  8
0
100
AcDbLine
 10
215.0344127473
 20
218.144746404
 30
0.0
 11
224.0344128256
 21
218.144746404
 31
0.0
  0
LINE
  5
E9
330
1F
100
AcDbEntity
  8
0
100
AcDbLine
 10
228.9994490017
 20
218.644746486
 30
0.0
 11
229.0344127138
 21
218.144746404
 31
0.0
  0
LINE
  5
EA
330
1F
100
AcDbEntity
  8
0
100
AcDbLine
 10
224.0344128256
 20
218.144746404
 30
0.0
 11
225.0344129895
 21
218.144746404
 31
0.0
  0
LINE
  5
EB
330
1F
100
AcDbEntity
  8
0
100
AcDbLine
 10
196.0693756734
 20
218.644746486
 30
0.0
 11
196.0344119613
 21
218.144746404
 31
0.0
  0
LINE
  5
EC
330
1F
100
AcDbEntity
  8
0
100
AcDbLine
 10
196.0344119613
 20
218.144746404
 30
0.0
 11
201.0344127809
 21
218.144746404
 31
0.0
  0
LINE
  5
ED
330
1F
100
AcDbEntity
  8
0
100
AcDbLine
 10
201.0344127809
 20
208.0447467974
 30
0.0
 11
196.0344119613
 21
208.0447467974
 31
0.0
  0
LINE
  5
EE
330
1F
100
AcDbEntity
  8
0
100
AcDbLine
 10
196.0693756734
 20
207.5447467155
 30
0.0
 11
196.0344119613
 21
208.0447467974
 31
0.0
  0
LINE
  5
EF
330
1F
100
AcDbEntity
  8
0
100
AcDbLine
 10
210.0344123934
 20
208.0447467974
 30
0.0
 11
201.0344127809
 21
208.0447467974
 31
0.0
  0
LINE
  5
F0
330
1F
100
AcDbEntity
  8
0
100
AcDbLine
 10
210.0344123934
 20
207.5447467155
 30
0.0
 11
210.0344123934
 21
208.0447467974
 31
0.0
  0
LINE
  5
F1
330
1F
100
AcDbEntity
  8
0
100
AcDbLine
 10
215.0344127473
 20
208.0447467974
 30
0.0
 11
215.0344127473
 21
207.5447467155
 31
0.0
  0
LINE
  5
F2
330
1F
100
AcDbEntity
  8
0
100
AcDbLine
 10
224.0344128256
 20
208.0447467974
 30
0.0
 11
215.0344127473
 21
208.0447467974
 31
0.0
  0
LINE
  5
F3
330
1F
100
AcDbEntity
  8
0
100
AcDbLine
 10
228.9994490017
 20
207.5447467155
 30
0.0
 11
229.0344127138
 21
208.0447467974
 31
0.0
  0
LINE
  5
F4
330
1F
100
AcDbEntity
  8
0
100
AcDbLine
 10
227.241383927
 20
208.0447467974
 30
0.0
 11
224.0344128256
 21
208.0447467974
 31
0.0
  0
LINE
  5
F5
330
1F
100
AcDbEntity
  8
0
100
AcDbLine
 10
218.5344128554
 20
217.7447466179
 30
0.0
 11
218.5344128554
 21
208.4447465836
 31
0.0
  0
LINE
  5
F6
330
1F
100
AcDbEntity
  8
0
100
AcDbLine
 10
191.0344130044
 20
218.144746404
 30
0.0
 11
196.0344119613
 21
218.144746404
 31
0.0
  0
LINE
  5
F7
330
1F
100
AcDbEntity
  8
0
100
AcDbLine
 10
191.0344130044
 20
208.0447467974
 30
0.0
 11
196.0344119613
 21
208.0447467974
 31
0.0
  0
LINE
  5
F8
330
1F
100
AcDbEntity
  8
0
100
AcDbLine
 10
153.5344152396
 20
208.4447465836
 30
0.0
 11
153.5344152396
 21
217.7447466179
 31
0.0
  0
LINE
  5
F9
330
1F
100
AcDbEntity
  8
0
100
AcDbLine
 10
169.5344141369
 20
218.144746404
 30
0.0
 11
186.053439105
 21
218.144746404
 31
0.0
  0
LINE
  5
FA
330
1F
100
AcDbEntity
  8
0
100
AcDbLine
 10
169.5344141369
 20
218.644746486
 30
0.0
 11
169.5344141369
 21
218.144746404
 31
0.0
  0
LINE
  5
FB
330
1F
100
AcDbEntity
  8
0
100
AcDbLine
 10
191.0344130044
 20
218.144746404
 30
0.0
 11
186.053439105
 21
218.144746404
 31
0.0
  0
LINE
  5
FC
330
1F
100
AcDbEntity
  8
0
100
AcDbLine
 10
190.9906687831
 20
218.644746486
 30
0.0
 11
191.0344130044
 21
218.144746404
 31
0.0
  0
LINE
  5
FD
330
1F
100
AcDbEntity
  8
0
100
AcDbLine
 10
164.5344114547
 20
218.144746404
 30
0.0
 11
164.5344114547
 21
218.644746486
 31
0.0
  0
LINE
  5
FE
330
1F
100
AcDbEntity
  8
0
100
AcDbLine
 10
148.0153827612
 20
218.144746404
 30
0.0
 11
164.5344114547
 21
218.144746404
 31
0.0
  0
LINE
  5
FF
330
1F
100
AcDbEntity
  8
0
100
AcDbLine
 10
143.0344163124
 20
218.144746404
 30
0.0
 11
143.0781586711
 21
218.644746486
 31
0.0
  0
LINE
  5
100
330
1F
100
AcDbEntity
  8
0
100
AcDbLine
 10
148.0153827612
 20
218.144746404
 30
0.0
 11
143.0344163124
 21
218.144746404
 31
0.0
  0
LINE
  5
101
330
1F
100
AcDbEntity
  8
0
100
AcDbLine
 10
186.053439105
 20
208.0447467974
 30
0.0
 11
169.5344141369
 21
208.0447467974
 31
0.0
  0
LINE
  5
102
330
1F
100
AcDbEntity
  8
0
100
AcDbLine
 10
169.5344141369
 20
208.0447467974
 30
0.0
 11
169.5344141369
 21
207.5447467155
 31
0.0
  0
LINE
  5
103
330
1F
100
AcDbEntity
  8
0
100
AcDbLine
 10
186.053439105
 20
208.0447467974
 30
0.0
 11
191.0344130044
 21
208.0447467974
 31
0.0
  0
LINE
  5
104
330
1F
100
AcDbEntity
  8
0
100
AcDbLine
 10
191.0344130044
 20
208.0447467974
 30
0.0
 11
190.9906687831
 21
207.5447467155
 31
0.0
  0
LINE
  5
105
330
1F
100
AcDbEntity
  8
0
100
AcDbLine
 10
164.5344114547
 20
208.0447467974
 30
0.0
 11
148.0153827612
 21
208.0447467974
 31
0.0
  0
LINE
  5
106
330
1F
100
AcDbEntity
  8
0
100
AcDbLine
 10
164.5344114547
 20
207.5447467155
 30
0.0
 11
164.5344114547
 21
208.0447467974
 31
0.0
  0
LINE
  5
107
330
1F
100
AcDbEntity
  8
0
100
AcDbLine
 10
143.0344163124
 20
208.0447467974
 30
0.0
 11
148.0153827612
 21
208.0447467974
 31
0.0
  0
LINE
  5
108
330
1F
100
AcDbEntity
  8
0
100
AcDbLine
 10
143.0781586711
 20
207.5447467155
 30
0.0
 11
143.0344163124
 21
208.0447467974
 31
0.0
  0
LINE
  5
109
330
1F
100
AcDbEntity
  8
0
  6
Continuous
 62
     8
370
     0
100
AcDbLine
 10
142.7323995774
 20
225.4447470418
 30
0.0
 11
229.3364229296
 21
225.4447470418
 31
0.0
  0
LINE
  5
10A
330
1F
100
AcDbEntity
  8
0
  6
Continuous
 62
     8
370
     0
100
AcDbLine
 10
229.5344127958
 20
225.4447470418
 30
0.0
 11
230.5344129597
 21
225.4447470418
 31
0.0
  0
LINE
  5
10B
330
1F
100
AcDbEntity
  8
0
  6
Continuous
 62
     8
370
     0
100
AcDbLine
 10
142.5344152992
 20
225.4447470418
 30
0.0
 11
141.5344132726
 21
225.4447470418
 31
0.0
  0
LINE
  5
10C
330
1F
100
AcDbEntity
  8
0
  6
Continuous
 62
     8
370
     0
100
AcDbLine
 10
142.7323995774
 20
200.7447461597
 30
0.0
 11
229.3364229296
 21
200.7447461597
 31
0.0
  0
LINE
  5
10D
330
1F
100
AcDbEntity
  8
0
  6
Continuous
 62
     8
370
     0
100
AcDbLine
 10
229.5344127958
 20
200.7447461597
 30
0.0
 11
230.5344129597
 21
200.7447461597
 31
0.0
  0
LINE
  5
10E
330
1F
100
AcDbEntity
  8
0
  6
Continuous
 62
     8
370
     0
100
AcDbLine
 10
142.5344152992
 20
200.7447461597
 30
0.0
 11
141.5344132726
 21
200.7447461597
 31
0.0
  0
LINE
  5
10F
330
1F
100
AcDbEntity
  8
0
  6
Continuous
 62
     8
370
     0
100
AcDbLine
 10
186.0344140475
 20
208.0447467974
 30
0.0
 11
186.0344140475
 21
208.4447465836
 31
0.0
  0
LINE
  5
110
330
1F
100
AcDbEntity
  8
0
  6
Continuous
 62
     8
370
     0
100
AcDbLine
 10
150.5344091599
 20
208.0447467974
 30
0.0
 11
150.5344091599
 21
208.4447465836
 31
0.0
  0
LINE
  5
111
330
1F
100
AcDbEntity
  8
0
  6
Continuous
 62
     8
370
     0
100
AcDbLine
 10
150.5344091599
 20
217.7447466179
 30
0.0
 11
150.5344091599
 21
218.144746404
 31
0.0
  0
LINE
  5
112
330
1F
100
AcDbEntity
  8
0
  6
Continuous
 62
     8
370
     0
100
AcDbLine
 10
186.0344140475
 20
217.7447466179
 30
0.0
 11
186.0344140475
 21
218.144746404
 31
0.0
  0
LINE
  5
113
330
1F
100
AcDbEntity
  8
0
  6
Continuous
 62
     8
370
     0
100
AcDbLine
 10
225.0344129895
 20
208.0447467974
 30
0.0
 11
225.0344129895
 21
208.4447465836
 31
0.0
  0
LINE
  5
114
330
1F
100
AcDbEntity
  8
0
  6
Continuous
 62
     8
370
     0
100
AcDbLine
 10
201.0344127809
 20
208.4447465836
 30
0.0
 11
201.0344127809
 21
208.0447467974
 31
0.0
  0
LINE
  5
115
330
1F
100
AcDbEntity
  8
0
  6
Continuous
 62
     8
370
     0
100
AcDbLine
 10
225.0344129895
 20
217.7447466179
 30
0.0
 11
225.0344129895
 21
218.144746404
 31
0.0
  0
LINE
  5
116
330
1F
100
AcDbEntity
  8
0
  6
Continuous
 62
     8
370
     0
100
AcDbLine
 10
201.0344127809
 20
218.144746404
 30
0.0
 11
201.0344127809
 21
217.7447466179
 31
0.0
  0
LINE
  5
117
330
1F
100
AcDbEntity
  8
0
  6
Continuous
 62
     8
370
     0
100
AcDbLine
 10
201.0344127809
 20
218.644746486
 30
0.0
 11
201.0344127809
 21
218.144746404
 31
0.0
  0
LINE
  5
118
330
1F
100
AcDbEntity
  8
0
  6
Continuous
 62
     8
370
     0
100
AcDbLine
 10
224.0344128256
 20
218.644746486
 30
0.0
 11
224.0344128256
 21
218.144746404
 31
0.0
  0
LINE
  5
119
330
1F
100
AcDbEntity
  8
0
  6
Continuous
 62
     8
370
     0
100
AcDbLine
 10
201.0344127809
 20
207.5447467155
 30
0.0
 11
201.0344127809
 21
208.0447467974
 31
0.0
  0
LINE
  5
11A
330
1F
100
AcDbEntity
  8
0
  6
Continuous
 62
     8
370
     0
100
AcDbLine
 10
224.0344128256
 20
207.5447467155
 30
0.0
 11
224.0344128256
 21
208.0447467974
 31
0.0
  0
LINE
  5
11B
330
1F
100
AcDbEntity
  8
0
  6
Continuous
 62
     8
370
     0
100
AcDbLine
 10
213.5344129671
 20
208.4447465836
 30
0.0
 11
213.5344129671
 21
217.7447466179
 31
0.0
  0
LINE
  5
11C
330
1F
100
AcDbEntity
  8
0
  6
Continuous
 62
     8
370
     0
100
AcDbLine
 10
158.5344141965
 20
217.7447466179
 30
0.0
 11
158.5344141965
 21
208.4447465836
 31
0.0
  0
LINE
  5
11D
330
1F
100
AcDbEntity
  8
0
  6
Continuous
 62
     8
370
     0
100
AcDbLine
 10
186.053439105
 20
218.144746404
 30
0.0
 11
186.0096967463
 21
218.644746486
 31
0.0
  0
LINE
  5
11E
330
1F
100
AcDbEntity
  8
0
  6
Continuous
 62
     8
370
     0
100
AcDbLine
 10
148.0591325705
 20
218.644746486
 30
0.0
 11
148.0153827612
 21
218.144746404
 31
0.0
  0
LINE
  5
11F
330
1F
100
AcDbEntity
  8
0
  6
Continuous
 62
     8
370
     0
100
AcDbLine
 10
186.0096967463
 20
207.5447467155
 30
0.0
 11
186.053439105
 21
208.0447467974
 31
0.0
  0
LINE
  5
120
330
1F
100
AcDbEntity
  8
0
  6
Continuous
 62
     8
370
     0
100
AcDbLine
 10
148.0153827612
 20
208.0447467974
 30
0.0
 11
148.0591325705
 21
207.5447467155
 31
0.0
  0
CIRCLE
  5
121
330
1F
100
AcDbEntity
  8
0
  6
Continuous
 62
     7
100
AcDbCircle
 10
283.1344152937544
 20
312.8638195302
 30
0.0
 40
1.400000000027258
  0
CIRCLE
  5
122
330
1F
100
AcDbEntity
  8
0
  6
Continuous
 62
     7
100
AcDbCircle
 10
300.2344152937544
 20
312.8638195302
 30
0.0
 40
1.40000000002726
  0
CIRCLE
  5
123
330
1F
100
AcDbEntity
  8
0
  6
Continuous
 62
     7
100
AcDbCircle
 10
283.1344152937544
 20
286.3638195302
 30
0.0
 40
1.400000000027318
  0
CIRCLE
  5
124
330
1F
100
AcDbEntity
  8
0
  6
Continuous
 62
     7
100
AcDbCircle
 10
300.2344152937544
 20
286.3638195302
 30
0.0
 40
1.400000000027318
  0
LINE
  5
125
330
1F
100
AcDbEntity
  8
0
100
AcDbLine
 10
296.3344153108544
 20
297.3638188001
 30
0.0
 11
296.7344150970544
 21
297.3638188001
 31
0.0
  0
LINE
  5
126
330
1F
100
AcDbEntity
  8
0
100
AcDbLine
 10
286.6344154904544
 20
297.3638188001
 30
0.0
 11
287.0344152765544
 21
297.3638188001
 31
0.0
  0
ELLIPSE
  5
127
330
1F
100
AcDbEntity
  8
0
100
AcDbEllipse
 10
279.3344152937544
 20
296.5638195302
 30
0.0
 11
-1.199999999999989
 21
7.347880794884052E-17
 31
0.0
210
0.0
220
0.0
230
1.0
 40
0.0016750844
 41
0.0
 42
1.570796326794897
  0
LINE
  5
128
330
1F
100
AcDbEntity
  8
0
100
AcDbLine
 10
279.3344148526544
 20
330.1658296864999
 30
0.0
 11
286.1344154084544
 21
330.1658296864999
 31
0.0
  0
CIRCLE
  5
129
330
1F
100
AcDbEntity
  8
0
100
AcDbCircle
 10
283.1344152937544
 20
312.8638195302
 30
0.0
 40
1.499999999999972
  0
LINE
  5
12A
330
1F
100
AcDbEntity
  8
0
100
AcDbLine
 10
286.1344154084544
 20
296.5618085023
 30
0.0
 11
279.3344148526544
 21
296.5618085023
 31
0.0
  0
LINE
  5
12B
330
1F
100
AcDbEntity
  8
0
100
AcDbLine
 10
286.1344154084544
 20
330.1658296864999
 30
0.0
 11
286.1344154084544
 21
296.5618085023
 31
0.0
  0
ELLIPSE
  5
12C
330
1F
100
AcDbEntity
  8
0
100
AcDbEllipse
 10
279.3344152937544
 20
330.1638195301999
 30
0.0
 11
-1.199999999999989
 21
7.347880794884052E-17
 31
0.0
210
0.0
220
0.0
230
1.0
 40
0.0016750844
 41
4.71238898038469
 42
6.283185307179586
  0
LINE
  5
12D
330
1F
100
AcDbEntity
  8
0
100
AcDbLine
 10
278.1344150284544
 20
330.1638198923
 30
0.0
 11
278.1344150284544
 21
296.5638201591
 31
0.0
  0
LINE
  5
12E
330
1F
100
AcDbEntity
  8
0
100
AcDbLine
 10
279.3344148526544
 20
296.3638186362
 30
0.0
 11
286.1344154084544
 21
296.3638186362
 31
0.0
  0
LINE
  5
12F
330
1F
100
AcDbEntity
  8
0
100
AcDbLine
 10
286.1344154084544
 20
296.3638186362
 30
0.0
 11
286.1344154084544
 21
295.3638203349
 31
0.0
  0
LINE
  5
130
330
1F
100
AcDbEntity
  8
0
100
AcDbLine
 10
279.3344148526544
 20
295.3638203349
 30
0.0
 11
286.1344154084544
 21
295.3638203349
 31
0.0
  0
ARC
  5
131
330
1F
100
AcDbEntity
  8
0
100
AcDbCircle
 10
279.3344152937544
 20
296.5638195302
 30
0.0
 40
1.200000000000045
100
AcDbArc
 50
180.0
 51
270.0
  0
ARC
  5
132
330
1F
100
AcDbEntity
  8
0
100
AcDbCircle
 10
279.3344152937544
 20
296.5638195302
 30
0.0
 40
0.2000000000000455
100
AcDbArc
 50
180.0
 51
270.0
  0
LINE
  5
133
330
1F
100
AcDbEntity
  8
0
100
AcDbLine
 10
286.1344154084544
 20
330.3638195525999
 30
0.0
 11
279.3344148526544
 21
330.3638195525999
 31
0.0
  0
LINE
  5
134
330
1F
100
AcDbEntity
  8
0
100
AcDbLine
 10
286.1344154084544
 20
331.3638197165
 30
0.0
 11
279.3344148526544
 21
331.3638197165
 31
0.0
  0
LINE
  5
135
330
1F
100
AcDbEntity
  8
0
100
AcDbLine
 10
286.1344154084544
 20
330.3638195525999
 30
0.0
 11
286.1344154084544
 21
331.3638197165
 31
0.0
  0
ARC
  5
136
330
1F
100
AcDbEntity
  8
0
100
AcDbCircle
 10
279.3344152937544
 20
330.1638195301999
 30
0.0
 40
1.199999999999989
100
AcDbArc
 50
90.0
 51
180.0
  0
ARC
  5
137
330
1F
100
AcDbEntity
  8
0
100
AcDbCircle
 10
279.3344152937544
 20
330.1638195301999
 30
0.0
 40
0.1999999999999886
100
AcDbArc
 50
90.0
 51
180.0
  0
LINE
  5
138
330
1F
100
AcDbEntity
  8
0
100
AcDbLine
 10
278.1344150284544
 20
288.3638191875
 30
0.0
 11
279.3344148526544
 21
288.3638191875
 31
0.0
  0
ELLIPSE
  5
139
330
1F
100
AcDbEntity
  8
0
100
AcDbEllipse
 10
279.3344152937544
 20
243.5638195302
 30
0.0
 11
-1.199999999999989
 21
7.347880794884052E-17
 31
0.0
210
0.0
220
0.0
230
1.0
 40
0.0016750844
 41
0.0
 42
1.570796326794897
  0
LINE
  5
13A
330
1F
100
AcDbEntity
  8
0
100
AcDbLine
 10
278.1344150284544
 20
288.3638191875
 30
0.0
 11
278.1344150284544
 21
243.5638189223
 31
0.0
  0
LINE
  5
13B
330
1F
100
AcDbEntity
  8
0
100
AcDbLine
 10
286.1344154084544
 20
243.5618072655
 30
0.0
 11
279.3344148526544
 21
243.5618072655
 31
0.0
  0
LINE
  5
13C
330
1F
100
AcDbEntity
  8
0
100
AcDbLine
 10
286.1344154084544
 20
288.3638191875
 30
0.0
 11
279.3344148526544
 21
288.3638191875
 31
0.0
  0
LINE
  5
13D
330
1F
100
AcDbEntity
  8
0
100
AcDbLine
 10
286.1344154084544
 20
288.3638191875
 30
0.0
 11
286.1344154084544
 21
243.5618072655
 31
0.0
  0
LINE
  5
13E
330
1F
100
AcDbEntity
  8
0
100
AcDbLine
 10
279.3344148526544
 20
243.3638229873
 30
0.0
 11
286.1344154084544
 21
243.3638229873
 31
0.0
  0
LINE
  5
13F
330
1F
100
AcDbEntity
  8
0
100
AcDbLine
 10
286.1344154084544
 20
243.3638229873
 30
0.0
 11
286.1344154084544
 21
242.3638209608
 31
0.0
  0
LINE
  5
140
330
1F
100
AcDbEntity
  8
0
100
AcDbLine
 10
279.3344148526544
 20
242.3638209608
 30
0.0
 11
286.1344154084544
 21
242.3638209608
 31
0.0
  0
ARC
  5
141
330
1F
100
AcDbEntity
  8
0
100
AcDbCircle
 10
279.3344152937544
 20
243.5638195302
 30
0.0
 40
0.1999999999999886
100
AcDbArc
 50
180.0
 51
270.0
  0
ARC
  5
142
330
1F
100
AcDbEntity
  8
0
100
AcDbCircle
 10
279.3344152937544
 20
243.5638195302
 30
0.0
 40
1.199999999999989
100
AcDbArc
 50
180.0
 51
270.0
  0
LINE
  5
143
330
1F
100
AcDbEntity
  8
0
100
AcDbLine
 10
278.1344150284544
 20
296.5638201591
 30
0.0
 11
278.1344150284544
 21
288.3638191875
 31
0.0
  0
LINE
  5
144
330
1F
100
AcDbEntity
  8
0
100
AcDbLine
 10
279.1344151923544
 20
295.3806027677
 30
0.0
 11
279.1344151923544
 21
288.3638191875
 31
0.0
  0
LINE
  5
145
330
1F
100
AcDbEntity
  8
0
100
AcDbLine
 10
297.2344151789544
 20
330.1658296864999
 30
0.0
 11
297.2344151789544
 21
296.5618085023
 31
0.0
  0
LINE
  5
146
330
1F
100
AcDbEntity
  8
0
100
AcDbLine
 10
304.0344157347544
 20
330.1658296864999
 30
0.0
 11
297.2344151789544
 21
330.1658296864999
 31
0.0
  0
LINE
  5
147
330
1F
100
AcDbEntity
  8
0
100
AcDbLine
 10
297.2344151789544
 20
296.5618085023
 30
0.0
 11
304.0344157347544
 21
296.5618085023
 31
0.0
  0
CIRCLE
  5
148
330
1F
100
AcDbEntity
  8
0
100
AcDbCircle
 10
300.2344152937544
 20
312.8638195302
 30
0.0
 40
1.5
  0
ELLIPSE
  5
149
330
1F
100
AcDbEntity
  8
0
100
AcDbEllipse
 10
304.0344152937544
 20
296.5638195302
 30
0.0
 11
-1.200000000000017
 21
7.347880794884224E-17
 31
0.0
210
0.0
220
0.0
230
1.0
 40
0.0016750844
 41
1.570796326794897
 42
3.14159265358972
  0
ELLIPSE
  5
14A
330
1F
100
AcDbEntity
  8
0
100
AcDbEllipse
 10
304.0344152937544
 20
330.1638195301999
 30
0.0
 11
-1.200000000000017
 21
7.347880794884224E-17
 31
0.0
210
0.0
220
0.0
230
1.0
 40
0.0016750844
 41
3.14159265358972
 42
4.71238898038469
  0
LINE
  5
14B
330
1F
100
AcDbEntity
  8
0
100
AcDbLine
 10
305.2344155589544
 20
330.1638198923
 30
0.0
 11
305.2344155589544
 21
296.5638201591
 31
0.0
  0
ARC
  5
14C
330
1F
100
AcDbEntity
  8
0
100
AcDbCircle
 10
304.0344152937544
 20
296.5638195302
 30
0.0
 40
0.2000000000000455
100
AcDbArc
 50
270.0
 51
0.0
  0
ARC
  5
14D
330
1F
100
AcDbEntity
  8
0
100
AcDbCircle
 10
304.0344152937544
 20
296.5638195302
 30
0.0
 40
1.200000000000045
100
AcDbArc
 50
270.0
 51
0.0
  0
LINE
  5
14E
330
1F
100
AcDbEntity
  8
0
100
AcDbLine
 10
304.0344157347544
 20
296.3638186362
 30
0.0
 11
297.2344151789544
 21
296.3638186362
 31
0.0
  0
LINE
  5
14F
330
1F
100
AcDbEntity
  8
0
100
AcDbLine
 10
297.2344151789544
 20
296.3638186362
 30
0.0
 11
297.2344151789544
 21
295.3638203349
 31
0.0
  0
LINE
  5
150
330
1F
100
AcDbEntity
  8
0
100
AcDbLine
 10
304.0344157347544
 20
295.3638203349
 30
0.0
 11
297.2344151789544
 21
295.3638203349
 31
0.0
  0
ARC
  5
151
330
1F
100
AcDbEntity
  8
0
100
AcDbCircle
 10
304.0344152937544
 20
330.1638195301999
 30
0.0
 40
1.199999999999989
100
AcDbArc
 50
0.0
 51
90.0
  0
ARC
  5
152
330
1F
100
AcDbEntity
  8
0
100
AcDbCircle
 10
304.0344152937544
 20
330.1638195301999
 30
0.0
 40
0.2000000000000171
100
AcDbArc
 50
0.0
 51
90.0
  0
LINE
  5
153
330
1F
100
AcDbEntity
  8
0
100
AcDbLine
 10
297.2344151789544
 20
331.3638197165
 30
0.0
 11
304.0344157347544
 21
331.3638197165
 31
0.0
  0
LINE
  5
154
330
1F
100
AcDbEntity
  8
0
100
AcDbLine
 10
297.2344151789544
 20
330.3638195525999
 30
0.0
 11
304.0344157347544
 21
330.3638195525999
 31
0.0
  0
LINE
  5
155
330
1F
100
AcDbEntity
  8
0
100
AcDbLine
 10
297.2344151789544
 20
330.3638195525999
 30
0.0
 11
297.2344151789544
 21
331.3638197165
 31
0.0
  0
ELLIPSE
  5
156
330
1F
100
AcDbEntity
  8
0
100
AcDbEllipse
 10
304.0344152937544
 20
243.5638195302
 30
0.0
 11
-1.200000000000017
 21
7.347880794884224E-17
 31
0.0
210
0.0
220
0.0
230
1.0
 40
0.0016750844
 41
1.570796326794897
 42
3.14159265358972
  0
LINE
  5
157
330
1F
100
AcDbEntity
  8
0
100
AcDbLine
 10
305.2344155589544
 20
288.3638191875
 30
0.0
 11
304.0344157347544
 21
288.3638191875
 31
0.0
  0
LINE
  5
158
330
1F
100
AcDbEntity
  8
0
100
AcDbLine
 10
305.2344155589544
 20
288.3638191875
 30
0.0
 11
305.2344155589544
 21
243.5638189223
 31
0.0
  0
LINE
  5
159
330
1F
100
AcDbEntity
  8
0
100
AcDbLine
 10
297.2344151789544
 20
243.5618072655
 30
0.0
 11
304.0344157347544
 21
243.5618072655
 31
0.0
  0
LINE
  5
15A
330
1F
100
AcDbEntity
  8
0
100
AcDbLine
 10
297.2344151789544
 20
288.3638191875
 30
0.0
 11
297.2344151789544
 21
243.5618072655
 31
0.0
  0
LINE
  5
15B
330
1F
100
AcDbEntity
  8
0
100
AcDbLine
 10
297.2344151789544
 20
288.3638191875
 30
0.0
 11
304.0344157347544
 21
288.3638191875
 31
0.0
  0
ARC
  5
15C
330
1F
100
AcDbEntity
  8
0
100
AcDbCircle
 10
304.0344152937544
 20
243.5638195302
 30
0.0
 40
1.199999999999989
100
AcDbArc
 50
270.0
 51
0.0
  0
ARC
  5
15D
330
1F
100
AcDbEntity
  8
0
100
AcDbCircle
 10
304.0344152937544
 20
243.5638195302
 30
0.0
 40
0.2000000000000171
100
AcDbArc
 50
270.0
 51
0.0
  0
LINE
  5
15E
330
1F
100
AcDbEntity
  8
0
100
AcDbLine
 10
297.2344151789544
 20
243.3638229873
 30
0.0
 11
297.2344151789544
 21
242.3638209608
 31
0.0
  0
LINE
  5
15F
330
1F
100
AcDbEntity
  8
0
100
AcDbLine
 10
304.0344157347544
 20
243.3638229873
 30
0.0
 11
297.2344151789544
 21
243.3638229873
 31
0.0
  0
LINE
  5
160
330
1F
100
AcDbEntity
  8
0
100
AcDbLine
 10
304.0344157347544
 20
242.3638209608
 30
0.0
 11
297.2344151789544
 21
242.3638209608
 31
0.0
  0
LINE
  5
161
330
1F
100
AcDbEntity
  8
0
100
AcDbLine
 10
304.2344153950544
 20
295.3806027677
 30
0.0
 11
304.2344153950544
 21
288.3638191875
 31
0.0
  0
LINE
  5
162
330
1F
100
AcDbEntity
  8
0
100
AcDbLine
 10
305.2344155589544
 20
296.5638201591
 30
0.0
 11
305.2344155589544
 21
288.3638191875
 31
0.0
  0
LINE
  5
163
330
1F
100
AcDbEntity
  8
0
100
AcDbLine
 10
296.3344153108544
 20
301.8638186063999
 30
0.0
 11
296.3344153108544
 21
297.3638188001
 31
0.0
  0
LINE
  5
164
330
1F
100
AcDbEntity
  8
0
100
AcDbLine
 10
296.3344153108544
 20
323.3638193365
 30
0.0
 11
296.3344153108544
 21
301.8638186063999
 31
0.0
  0
LINE
  5
165
330
1F
100
AcDbEntity
  8
0
100
AcDbLine
 10
296.7344150970544
 20
315.3638194222
 30
0.0
 11
296.7344150970544
 21
310.3638190682999
 31
0.0
  0
LINE
  5
166
330
1F
100
AcDbEntity
  8
0
100
AcDbLine
 10
296.7344150970544
 20
329.3638193887
 30
0.0
 11
296.3344153108544
 21
329.3638193887
 31
0.0
  0
LINE
  5
167
330
1F
100
AcDbEntity
  8
0
100
AcDbLine
 10
296.3344153108544
 20
329.3638193887
 30
0.0
 11
296.3344153108544
 21
323.3638193365
 31
0.0
  0
LINE
  5
168
330
1F
100
AcDbEntity
  8
0
100
AcDbLine
 10
287.0344152765544
 20
301.8638186063999
 30
0.0
 11
287.0344152765544
 21
297.3638188001
 31
0.0
  0
LINE
  5
169
330
1F
100
AcDbEntity
  8
0
100
AcDbLine
 10
287.0344152765544
 20
323.3638193365
 30
0.0
 11
287.0344152765544
 21
301.8638186063999
 31
0.0
  0
LINE
  5
16A
330
1F
100
AcDbEntity
  8
0
100
AcDbLine
 10
286.6344154904544
 20
315.3638194222
 30
0.0
 11
286.6344154904544
 21
310.3638190682999
 31
0.0
  0
LINE
  5
16B
330
1F
100
AcDbEntity
  8
0
100
AcDbLine
 10
287.0344152765544
 20
329.3638193887
 30
0.0
 11
286.6344154904544
 21
329.3638193887
 31
0.0
  0
LINE
  5
16C
330
1F
100
AcDbEntity
  8
0
100
AcDbLine
 10
287.0344152765544
 20
329.3638193887
 30
0.0
 11
287.0344152765544
 21
323.3638193365
 31
0.0
  0
LINE
  5
16D
330
1F
100
AcDbEntity
  8
0
100
AcDbLine
 10
296.7344150970544
 20
244.3638175633
 30
0.0
 11
296.3344153108544
 21
244.3638175633
 31
0.0
  0
LINE
  5
16E
330
1F
100
AcDbEntity
  8
0
100
AcDbLine
 10
296.3344153108544
 20
244.3638175633
 30
0.0
 11
296.3344153108544
 21
248.3638182189
 31
0.0
  0
LINE
  5
16F
330
1F
100
AcDbEntity
  8
0
100
AcDbLine
 10
296.3344153108544
 20
249.8638212588
 30
0.0
 11
296.3344153108544
 21
248.3638182189
 31
0.0
  0
LINE
  5
170
330
1F
100
AcDbEntity
  8
0
100
AcDbLine
 10
296.3344153108544
 20
249.8638212588
 30
0.0
 11
296.3344153108544
 21
253.8638219144
 31
0.0
  0
LINE
  5
171
330
1F
100
AcDbEntity
  8
0
100
AcDbLine
 10
287.0344152765544
 20
244.3638175633
 30
0.0
 11
286.6344154904544
 21
244.3638175633
 31
0.0
  0
LINE
  5
172
330
1F
100
AcDbEntity
  8
0
100
AcDbLine
 10
287.0344152765544
 20
248.3638182189
 30
0.0
 11
287.0344152765544
 21
244.3638175633
 31
0.0
  0
LINE
  5
173
330
1F
100
AcDbEntity
  8
0
100
AcDbLine
 10
287.0344152765544
 20
249.8638212588
 30
0.0
 11
287.0344152765544
 21
248.3638182189
 31
0.0
  0
LINE
  5
174
330
1F
100
AcDbEntity
  8
0
100
AcDbLine
 10
287.0344152765544
 20
253.8638219144
 30
0.0
 11
287.0344152765544
 21
249.8638212588
 31
0.0
  0
LINE
  5
175
330
1F
100
AcDbEntity
  8
0
100
AcDbLine
 10
300.9716468954544
 20
313.3398692031
 30
0.0
 11
300.1907599250544
 21
313.7403053137999
 31
0.0
  0
LINE
  5
176
330
1F
100
AcDbEntity
  8
0
100
AcDbLine
 10
300.1907599250544
 20
313.7403053137999
 30
0.0
 11
299.4535282345544
 21
313.2642555888999
 31
0.0
  0
LINE
  5
177
330
1F
100
AcDbEntity
  8
0
100
AcDbLine
 10
299.4535282345544
 20
313.2642555888999
 30
0.0
 11
299.4971844459544
 21
312.3877697531
 31
0.0
  0
LINE
  5
178
330
1F
100
AcDbEntity
  8
0
100
AcDbLine
 10
299.4971844459544
 20
312.3877697531
 30
0.0
 11
300.2780704850544
 21
311.9873336423
 31
0.0
  0
LINE
  5
179
330
1F
100
AcDbEntity
  8
0
100
AcDbLine
 10
300.2780704850544
 20
311.9873336423
 30
0.0
 11
301.0153017098544
 21
312.4633833672999
 31
0.0
  0
CIRCLE
  5
17A
330
1F
100
AcDbEntity
  8
0
100
AcDbCircle
 10
300.2344152937544
 20
312.8638195302
 30
0.0
 40
1.400000000000032
  0
LINE
  5
17B
330
1F
100
AcDbEntity
  8
0
100
AcDbLine
 10
301.0153017098544
 20
312.4633833672999
 30
0.0
 11
300.9716468954544
 21
313.3398692031
 31
0.0
  0
LINE
  5
17C
330
1F
100
AcDbEntity
  8
0
100
AcDbLine
 10
283.7011703381544
 20
313.5338357557
 30
0.0
 11
282.8375418762544
 21
313.689652076
 31
0.0
  0
LINE
  5
17D
330
1F
100
AcDbEntity
  8
0
100
AcDbLine
 10
282.8375418762544
 20
313.689652076
 30
0.0
 11
282.2707864547544
 21
313.0196357983999
 31
0.0
  0
LINE
  5
17E
330
1F
100
AcDbEntity
  8
0
100
AcDbLine
 10
282.5676604265544
 20
312.1938032004999
 30
0.0
 11
283.4312888885544
 21
312.0379868801999
 31
0.0
  0
CIRCLE
  5
17F
330
1F
100
AcDbEntity
  8
0
100
AcDbCircle
 10
283.1344152937544
 20
312.8638195302
 30
0.0
 40
1.400000000000052
  0
LINE
  5
180
330
1F
100
AcDbEntity
  8
0
100
AcDbLine
 10
283.9980443099544
 20
312.7080036233999
 30
0.0
 11
283.7011703381544
 21
313.5338357557
 31
0.0
  0
LINE
  5
181
330
1F
100
AcDbEntity
  8
0
100
AcDbLine
 10
282.2707864547544
 20
313.0196357983999
 30
0.0
 11
282.5676604265544
 21
312.1938032004999
 31
0.0
  0
LINE
  5
182
330
1F
100
AcDbEntity
  8
0
100
AcDbLine
 10
283.4312888885544
 20
312.0379868801999
 30
0.0
 11
283.9980443099544
 21
312.7080036233999
 31
0.0
  0
LINE
  5
183
330
1F
100
AcDbEntity
  8
0
100
AcDbLine
 10
286.6344154904544
 20
243.86381655
 30
0.0
 11
286.6344154904544
 21
248.8638192322
 31
0.0
  0
LINE
  5
184
330
1F
100
AcDbEntity
  8
0
100
AcDbLine
 10
286.1344154084544
 20
243.8987821247
 30
0.0
 11
286.6344154904544
 21
243.86381655
 31
0.0
  0
LINE
  5
185
330
1F
100
AcDbEntity
  8
0
100
AcDbLine
 10
286.6344154904544
 20
248.8638192322
 30
0.0
 11
286.6344154904544
 21
253.8638219144
 31
0.0
  0
LINE
  5
186
330
1F
100
AcDbEntity
  8
0
100
AcDbLine
 10
279.6344152743544
 20
288.3638191875
 30
0.0
 11
279.6344152743544
 21
295.3638203349
 31
0.0
  0
LINE
  5
187
330
1F
100
AcDbEntity
  8
0
100
AcDbLine
 10
279.6344152743544
 20
296.3638186362
 30
0.0
 11
279.6344152743544
 21
296.5618085023
 31
0.0
  0
LINE
  5
188
330
1F
100
AcDbEntity
  8
0
100
AcDbLine
 10
297.2344151789544
 20
243.8987821247
 30
0.0
 11
296.7344150970544
 21
243.86381655
 31
0.0
  0
LINE
  5
189
330
1F
100
AcDbEntity
  8
0
100
AcDbLine
 10
296.7344150970544
 20
248.8638192322
 30
0.0
 11
296.7344150970544
 21
243.86381655
 31
0.0
  0
LINE
  5
18A
330
1F
100
AcDbEntity
  8
0
100
AcDbLine
 10
296.7344150970544
 20
253.8638219144
 30
0.0
 11
296.7344150970544
 21
248.8638192322
 31
0.0
  0
LINE
  5
18B
330
1F
100
AcDbEntity
  8
0
100
AcDbLine
 10
303.7344153130544
 20
296.5618085023
 30
0.0
 11
303.7344153130544
 21
296.3638186362
 31
0.0
  0
LINE
  5
18C
330
1F
100
AcDbEntity
  8
0
100
AcDbLine
 10
303.7344153130544
 20
295.3638203349
 30
0.0
 11
303.7344153130544
 21
288.3638191875
 31
0.0
  0
LINE
  5
18D
330
1F
100
AcDbEntity
  8
0
100
AcDbLine
 10
286.6344154904544
 20
294.363820171
 30
0.0
 11
296.7344150970544
 21
294.363820171
 31
0.0
  0
LINE
  5
18E
330
1F
100
AcDbEntity
  8
0
100
AcDbLine
 10
286.6344154904544
 20
294.363820171
 30
0.0
 11
286.6344154904544
 21
296.3638186362
 31
0.0
  0
LINE
  5
18F
330
1F
100
AcDbEntity
  8
0
100
AcDbLine
 10
296.7344150970544
 20
294.363820171
 30
0.0
 11
296.7344150970544
 21
296.3638186362
 31
0.0
  0
LINE
  5
190
330
1F
100
AcDbEntity
  8
0
100
AcDbLine
 10
287.0344152765544
 20
318.8638195302
 30
0.0
 11
296.3344153108544
 21
318.8638195302
 31
0.0
  0
LINE
  5
191
330
1F
100
AcDbEntity
  8
0
100
AcDbLine
 10
286.6344154904544
 20
293.8638191577
 30
0.0
 11
286.6344154904544
 21
294.363820171
 31
0.0
  0
LINE
  5
192
330
1F
100
AcDbEntity
  8
0
100
AcDbLine
 10
296.7344150970544
 20
294.363820171
 30
0.0
 11
296.7344150970544
 21
293.8638191577
 31
0.0
  0
LINE
  5
193
330
1F
100
AcDbEntity
  8
0
100
AcDbLine
 10
286.6344154904544
 20
253.8638219144
 30
0.0
 11
296.7344150970544
 21
253.8638219144
 31
0.0
  0
LINE
  5
194
330
1F
100
AcDbEntity
  8
0
100
AcDbLine
 10
286.6344154904544
 20
253.8638219144
 30
0.0
 11
286.6344154904544
 21
293.8638191577
 31
0.0
  0
LINE
  5
195
330
1F
100
AcDbEntity
  8
0
100
AcDbLine
 10
296.7344150970544
 20
253.8638219144
 30
0.0
 11
296.7344150970544
 21
293.8638191577
 31
0.0
  0
LINE
  5
196
330
1F
100
AcDbEntity
  8
0
100
AcDbLine
 10
286.6344154904544
 20
296.3638186362
 30
0.0
 11
284.3713803308544
 21
296.5618085023
 31
0.0
  0
LINE
  5
197
330
1F
100
AcDbEntity
  8
0
100
AcDbLine
 10
286.6344154904544
 20
301.3447925355
 30
0.0
 11
286.6344154904544
 21
296.3638186362
 31
0.0
  0
LINE
  5
198
330
1F
100
AcDbEntity
  8
0
100
AcDbLine
 10
286.1344154084544
 20
315.3638194222
 30
0.0
 11
286.6344154904544
 21
315.3638194222
 31
0.0
  0
LINE
  5
199
330
1F
100
AcDbEntity
  8
0
100
AcDbLine
 10
286.6344154904544
 20
315.3638194222
 30
0.0
 11
286.6344154904544
 21
324.382845955
 31
0.0
  0
LINE
  5
19A
330
1F
100
AcDbEntity
  8
0
100
AcDbLine
 10
286.6344154904544
 20
310.3638190682999
 30
0.0
 11
286.1344154084544
 21
310.3638190682999
 31
0.0
  0
LINE
  5
19B
330
1F
100
AcDbEntity
  8
0
100
AcDbLine
 10
286.6344154904544
 20
301.3447925355
 30
0.0
 11
286.6344154904544
 21
310.3638190682999
 31
0.0
  0
LINE
  5
19C
330
1F
100
AcDbEntity
  8
0
100
AcDbLine
 10
286.1344154084544
 20
329.3200751672999
 30
0.0
 11
286.6344154904544
 21
329.3638193887
 31
0.0
  0
LINE
  5
19D
330
1F
100
AcDbEntity
  8
0
100
AcDbLine
 10
286.6344154904544
 20
329.3638193887
 30
0.0
 11
286.6344154904544
 21
324.382845955
 31
0.0
  0
LINE
  5
19E
330
1F
100
AcDbEntity
  8
0
100
AcDbLine
 10
284.3599069023544
 20
296.5618085023
 30
0.0
 11
286.6344154904544
 21
296.3628165331
 31
0.0
  0
LINE
  5
19F
330
1F
100
AcDbEntity
  8
0
100
AcDbLine
 10
296.7344150970544
 20
296.3638186362
 30
0.0
 11
296.7344150970544
 21
301.3447925355
 31
0.0
  0
LINE
  5
1A0
330
1F
100
AcDbEntity
  8
0
100
AcDbLine
 10
298.9974502565544
 20
296.5618085023
 30
0.0
 11
296.7344150970544
 21
296.3638186362
 31
0.0
  0
LINE
  5
1A1
330
1F
100
AcDbEntity
  8
0
100
AcDbLine
 10
297.2344151789544
 20
310.3638190682999
 30
0.0
 11
296.7344150970544
 21
310.3638190682999
 31
0.0
  0
LINE
  5
1A2
330
1F
100
AcDbEntity
  8
0
100
AcDbLine
 10
296.7344150970544
 20
310.3638190682999
 30
0.0
 11
296.7344150970544
 21
301.3447925355
 31
0.0
  0
LINE
  5
1A3
330
1F
100
AcDbEntity
  8
0
100
AcDbLine
 10
296.7344150970544
 20
315.3638194222
 30
0.0
 11
297.2344151789544
 21
315.3638194222
 31
0.0
  0
LINE
  5
1A4
330
1F
100
AcDbEntity
  8
0
100
AcDbLine
 10
296.7344150970544
 20
324.382845955
 30
0.0
 11
296.7344150970544
 21
315.3638194222
 31
0.0
  0
LINE
  5
1A5
330
1F
100
AcDbEntity
  8
0
100
AcDbLine
 10
296.7344150970544
 20
329.3638193887
 30
0.0
 11
297.2344151789544
 21
329.3200751672999
 31
0.0
  0
LINE
  5
1A6
330
1F
100
AcDbEntity
  8
0
100
AcDbLine
 10
296.7344150970544
 20
324.382845955
 30
0.0
 11
296.7344150970544
 21
329.3638193887
 31
0.0
  0
LINE
  5
1A7
330
1F
100
AcDbEntity
  8
0
  6
Continuous
 62
     8
370
     0
100
AcDbLine
 10
279.3344148526544
 20
296.5618085023
 30
0.0
 11
279.3344148526544
 21
330.1658296864999
 31
0.0
  0
LINE
  5
1A8
330
1F
100
AcDbEntity
  8
0
  6
Continuous
 62
     8
370
     0
100
AcDbLine
 10
279.3344148526544
 20
296.3638186362
 30
0.0
 11
279.3344148526544
 21
295.3638203349
 31
0.0
  0
LINE
  5
1A9
330
1F
100
AcDbEntity
  8
0
  6
Continuous
 62
     8
370
     0
100
AcDbLine
 10
279.3344148526544
 20
330.3638195525999
 30
0.0
 11
279.3344148526544
 21
331.3638197165
 31
0.0
  0
LINE
  5
1AA
330
1F
100
AcDbEntity
  8
0
  6
Continuous
 62
     8
370
     0
100
AcDbLine
 10
279.3344148526544
 20
243.5618072655
 30
0.0
 11
279.3344148526544
 21
288.3638191875
 31
0.0
  0
LINE
  5
1AB
330
1F
100
AcDbEntity
  8
0
  6
Continuous
 62
     8
370
     0
100
AcDbLine
 10
279.3344148526544
 20
243.3638229873
 30
0.0
 11
279.3344148526544
 21
242.3638209608
 31
0.0
  0
LINE
  5
1AC
330
1F
100
AcDbEntity
  8
0
  6
Continuous
 62
     8
370
     0
100
AcDbLine
 10
279.3344148526544
 20
296.5618085023
 30
0.0
 11
279.3344148526544
 21
296.3638186362
 31
0.0
  0
LINE
  5
1AD
330
1F
100
AcDbEntity
  8
0
  6
Continuous
 62
     8
370
     0
100
AcDbLine
 10
279.3344148526544
 20
295.3638203349
 30
0.0
 11
279.3344148526544
 21
288.3638191875
 31
0.0
  0
LINE
  5
1AE
330
1F
100
AcDbEntity
  8
0
  6
Continuous
 62
     8
370
     0
100
AcDbLine
 10
304.0344157347544
 20
296.5618085023
 30
0.0
 11
304.0344157347544
 21
330.1658296864999
 31
0.0
  0
LINE
  5
1AF
330
1F
100
AcDbEntity
  8
0
  6
Continuous
 62
     8
370
     0
100
AcDbLine
 10
304.0344157347544
 20
296.3638186362
 30
0.0
 11
304.0344157347544
 21
295.3638203349
 31
0.0
  0
LINE
  5
1B0
330
1F
100
AcDbEntity
  8
0
  6
Continuous
 62
     8
370
     0
100
AcDbLine
 10
304.0344157347544
 20
330.3638195525999
 30
0.0
 11
304.0344157347544
 21
331.3638197165
 31
0.0
  0
LINE
  5
1B1
330
1F
100
AcDbEntity
  8
0
  6
Continuous
 62
     8
370
     0
100
AcDbLine
 10
304.0344157347544
 20
243.5618072655
 30
0.0
 11
304.0344157347544
 21
288.3638191875
 31
0.0
  0
LINE
  5
1B2
330
1F
100
AcDbEntity
  8
0
  6
Continuous
 62
     8
370
     0
100
AcDbLine
 10
304.0344157347544
 20
243.3638229873
 30
0.0
 11
304.0344157347544
 21
242.3638209608
 31
0.0
  0
LINE
  5
1B3
330
1F
100
AcDbEntity
  8
0
  6
Continuous
 62
     8
370
     0
100
AcDbLine
 10
304.0344157347544
 20
296.5618085023
 30
0.0
 11
304.0344157347544
 21
296.3638186362
 31
0.0
  0
LINE
  5
1B4
330
1F
100
AcDbEntity
  8
0
  6
Continuous
 62
     8
370
     0
100
AcDbLine
 10
304.0344157347544
 20
295.3638203349
 30
0.0
 11
304.0344157347544
 21
288.3638191875
 31
0.0
  0
LINE
  5
1B5
330
1F
100
AcDbEntity
  8
0
  6
Continuous
 62
     8
370
     0
100
AcDbLine
 10
296.7344150970544
 20
301.8638186063999
 30
0.0
 11
296.3344153108544
 21
301.8638186063999
 31
0.0
  0
LINE
  5
1B6
330
1F
100
AcDbEntity
  8
0
  6
Continuous
 62
     8
370
     0
100
AcDbLine
 10
296.7344150970544
 20
323.3638193365
 30
0.0
 11
296.3344153108544
 21
323.3638193365
 31
0.0
  0
LINE
  5
1B7
330
1F
100
AcDbEntity
  8
0
  6
Continuous
 62
     8
370
     0
100
AcDbLine
 10
287.0344152765544
 20
301.8638186063999
 30
0.0
 11
286.6344154904544
 21
301.8638186063999
 31
0.0
  0
LINE
  5
1B8
330
1F
100
AcDbEntity
  8
0
  6
Continuous
 62
     8
370
     0
100
AcDbLine
 10
287.0344152765544
 20
323.3638193365
 30
0.0
 11
286.6344154904544
 21
323.3638193365
 31
0.0
  0
LINE
  5
1B9
330
1F
100
AcDbEntity
  8
0
  6
Continuous
 62
     8
370
     0
100
AcDbLine
 10
296.3344153108544
 20
248.3638182189
 30
0.0
 11
296.7344150970544
 21
248.3638182189
 31
0.0
  0
LINE
  5
1BA
330
1F
100
AcDbEntity
  8
0
  6
Continuous
 62
     8
370
     0
100
AcDbLine
 10
296.7344150970544
 20
249.8638212588
 30
0.0
 11
296.3344153108544
 21
249.8638212588
 31
0.0
  0
LINE
  5
1BB
330
1F
100
AcDbEntity
  8
0
  6
Continuous
 62
     8
370
     0
100
AcDbLine
 10
286.6344154904544
 20
248.3638182189
 30
0.0
 11
287.0344152765544
 21
248.3638182189
 31
0.0
  0
LINE
  5
1BC
330
1F
100
AcDbEntity
  8
0
  6
Continuous
 62
     8
370
     0
100
AcDbLine
 10
287.0344152765544
 20
249.8638212588
 30
0.0
 11
286.6344154904544
 21
249.8638212588
 31
0.0
  0
LINE
  5
1BD
330
1F
100
AcDbEntity
  8
0
  6
Continuous
 62
     8
370
     0
100
AcDbLine
 10
286.1344154084544
 20
248.8638192322
 30
0.0
 11
286.6344154904544
 21
248.8638192322
 31
0.0
  0
LINE
  5
1BE
330
1F
100
AcDbEntity
  8
0
  6
Continuous
 62
     8
370
     0
100
AcDbLine
 10
281.0297804976544
 20
296.5618085023
 30
0.0
 11
281.0297804976544
 21
296.3638186362
 31
0.0
  0
LINE
  5
1BF
330
1F
100
AcDbEntity
  8
0
  6
Continuous
 62
     8
370
     0
100
AcDbLine
 10
281.0297804976544
 20
295.3638203349
 30
0.0
 11
281.0297804976544
 21
288.3638191875
 31
0.0
  0
LINE
  5
1C0
330
1F
100
AcDbEntity
  8
0
  6
Continuous
 62
     8
370
     0
100
AcDbLine
 10
297.2344151789544
 20
248.8638192322
 30
0.0
 11
296.7344150970544
 21
248.8638192322
 31
0.0
  0
LINE
  5
1C1
330
1F
100
AcDbEntity
  8
0
  6
Continuous
 62
     8
370
     0
100
AcDbLine
 10
302.3390500897544
 20
288.3638191875
 30
0.0
 11
302.3390500897544
 21
295.3638203349
 31
0.0
  0
LINE
  5
1C2
330
1F
100
AcDbEntity
  8
0
  6
Continuous
 62
     8
370
     0
100
AcDbLine
 10
302.3390500897544
 20
296.3638186362
 30
0.0
 11
302.3390500897544
 21
296.5618085023
 31
0.0
  0
LINE
  5
1C3
330
1F
100
AcDbEntity
  8
0
  6
Continuous
 62
     8
370
     0
100
AcDbLine
 10
296.3344153108544
 20
313.863819642
 30
0.0
 11
287.0344152765544
 21
313.863819642
 31
0.0
  0
LINE
  5
1C4
330
1F
100
AcDbEntity
  8
0
  6
Continuous
 62
     8
370
     0
100
AcDbLine
 10
296.7344150970544
 20
293.8638191577
 30
0.0
 11
286.6344154904544
 21
293.8638191577
 31
0.0
  0
LINE
  5
1C5
330
1F
100
AcDbEntity
  8
0
  6
Continuous
 62
     8
370
     0
100
AcDbLine
 10
286.1344154084544
 20
301.3885367569
 30
0.0
 11
286.6344154904544
 21
301.3447925355
 31
0.0
  0
LINE
  5
1C6
330
1F
100
AcDbEntity
  8
0
  6
Continuous
 62
     8
370
     0
100
AcDbLine
 10
286.6344154904544
 20
324.382845955
 30
0.0
 11
286.1344154084544
 21
324.3391017335999
 31
0.0
  0
LINE
  5
1C7
330
1F
100
AcDbEntity
  8
0
  6
Continuous
 62
     8
370
     0
100
AcDbLine
 10
296.7344150970544
 20
301.3447925355
 30
0.0
 11
297.2344151789544
 21
301.3885367569
 31
0.0
  0
LINE
  5
1C8
330
1F
100
AcDbEntity
  8
0
  6
Continuous
 62
     8
370
     0
100
AcDbLine
 10
297.2344151789544
 20
324.3391017335999
 30
0.0
 11
296.7344150970544
 21
324.382845955
 31
0.0
  0
CIRCLE
  5
1C9
330
1F
100
AcDbEntity
  8
0
  6
Continuous
 62
     7
100
AcDbCircle
 10
97.99922436018176
 20
312.8638195303
 30
0.0
 40
1.400000000027286
  0
CIRCLE
  5
1CA
330
1F
100
AcDbEntity
  8
0
  6
Continuous
 62
     7
100
AcDbCircle
 10
80.89922436018176
 20
312.8638195303
 30
0.0
 40
1.400000000027279
  0
CIRCLE
  5
1CB
330
1F
100
AcDbEntity
  8
0
  6
Continuous
 62
     7
100
AcDbCircle
 10
97.99922436018176
 20
286.3638195303
 30
0.0
 40
1.400000000027291
  0
CIRCLE
  5
1CC
330
1F
100
AcDbEntity
  8
0
  6
Continuous
 62
     7
100
AcDbCircle
 10
80.89922436018176
 20
286.3638195303
 30
0.0
 40
1.4000000000273
  0
ELLIPSE
  5
1CD
330
1F
100
AcDbEntity
  8
0
100
AcDbEllipse
 10
101.7992243601817
 20
243.5638195303
 30
0.0
 11
1.199999999999989
 21
-2.204364238465216E-16
 31
0.0
210
0.0
220
0.0
230
1.0
 40
0.0016750844
 41
4.71238898038469
 42
6.283185307179586
  0
LINE
  5
1CE
330
1F
100
AcDbEntity
  8
0
100
AcDbLine
 10
102.9992246254817
 20
243.5638189223
 30
0.0
 11
102.9992246254818
 21
330.1638198924
 31
0.0
  0
ELLIPSE
  5
1CF
330
1F
100
AcDbEntity
  8
0
100
AcDbEllipse
 10
101.7992243601818
 20
330.1638195303
 30
0.0
 11
1.199999999999989
 21
-2.204364238465216E-16
 31
0.0
210
0.0
220
0.0
230
1.0
 40
0.0016750844
 41
0.0
 42
1.570796326794897
  0
LINE
  5
1D0
330
1F
100
AcDbEntity
  8
0
100
AcDbLine
 10
94.99922424548177
 20
330.1658296865
 30
0.0
 11
101.7992248012818
 21
330.1658296865
 31
0.0
  0
CIRCLE
  5
1D1
330
1F
100
AcDbEntity
  8
0
100
AcDbCircle
 10
97.99922436018176
 20
286.8638195303
 30
0.0
 40
1.5
  0
LINE
  5
1D2
330
1F
100
AcDbEntity
  8
0
100
AcDbLine
 10
94.99922424548174
 20
243.5618072655
 30
0.0
 11
94.99922424548177
 21
330.1658296865
 31
0.0
  0
LINE
  5
1D3
330
1F
100
AcDbEntity
  8
0
100
AcDbLine
 10
101.7992248012818
 20
243.5618072655
 30
0.0
 11
94.99922424548174
 21
243.5618072655
 31
0.0
  0
ARC
  5
1D4
330
1F
100
AcDbEntity
  8
0
100
AcDbCircle
 10
101.7992243601817
 20
243.5638195303
 30
0.0
 40
0.2000000000000171
100
AcDbArc
 50
270.0
 51
0.0
  0
ARC
  5
1D5
330
1F
100
AcDbEntity
  8
0
100
AcDbCircle
 10
101.7992243601817
 20
243.5638195303
 30
0.0
 40
1.200000000000017
100
AcDbArc
 50
270.0
 51
0.0
  0
LINE
  5
1D6
330
1F
100
AcDbEntity
  8
0
100
AcDbLine
 10
94.99922424548174
 20
243.3638229873
 30
0.0
 11
101.7992248012818
 21
243.3638229873
 31
0.0
  0
LINE
  5
1D7
330
1F
100
AcDbEntity
  8
0
100
AcDbLine
 10
94.99922424548174
 20
243.3638229873
 30
0.0
 11
94.99922424548174
 21
242.3638209608
 31
0.0
  0
LINE
  5
1D8
330
1F
100
AcDbEntity
  8
0
100
AcDbLine
 10
94.99922424548174
 20
242.3638209608
 30
0.0
 11
101.7992248012818
 21
242.3638209608
 31
0.0
  0
ARC
  5
1D9
330
1F
100
AcDbEntity
  8
0
100
AcDbCircle
 10
101.7992243601818
 20
330.1638195303
 30
0.0
 40
1.199999999999996
100
AcDbArc
 50
0.0
 51
90.0
  0
ARC
  5
1DA
330
1F
100
AcDbEntity
  8
0
100
AcDbCircle
 10
101.7992243601818
 20
330.1638195303
 30
0.0
 40
0.1999999999999957
100
AcDbArc
 50
0.0
 51
90.0
  0
LINE
  5
1DB
330
1F
100
AcDbEntity
  8
0
100
AcDbLine
 10
101.7992248012818
 20
330.3638195526
 30
0.0
 11
94.99922424548177
 21
330.3638195526
 31
0.0
  0
LINE
  5
1DC
330
1F
100
AcDbEntity
  8
0
100
AcDbLine
 10
94.99922424548177
 20
330.3638195526
 30
0.0
 11
94.99922424548177
 21
331.3638197165
 31
0.0
  0
LINE
  5
1DD
330
1F
100
AcDbEntity
  8
0
100
AcDbLine
 10
101.7992248012818
 20
331.3638197165
 30
0.0
 11
94.99922424548177
 21
331.3638197165
 31
0.0
  0
LINE
  5
1DE
330
1F
100
AcDbEntity
  8
0
100
AcDbLine
 10
83.89922447498174
 20
243.5618072655
 30
0.0
 11
83.89922447498176
 21
330.1658296865
 31
0.0
  0
LINE
  5
1DF
330
1F
100
AcDbEntity
  8
0
100
AcDbLine
 10
77.09922391918172
 20
243.5618072655
 30
0.0
 11
83.89922447498174
 21
243.5618072655
 31
0.0
  0
LINE
  5
1E0
330
1F
100
AcDbEntity
  8
0
100
AcDbLine
 10
83.89922447498176
 20
330.1658296865
 30
0.0
 11
77.09922391918175
 21
330.1658296865
 31
0.0
  0
CIRCLE
  5
1E1
330
1F
100
AcDbEntity
  8
0
100
AcDbCircle
 10
80.89922436018176
 20
286.8638195303
 30
0.0
 40
1.5
  0
ELLIPSE
  5
1E2
330
1F
100
AcDbEntity
  8
0
100
AcDbEllipse
 10
77.09922436018175
 20
243.5638195303
 30
0.0
 11
1.200000000000017
 21
-2.204364238465267E-16
 31
0.0
210
0.0
220
0.0
230
1.0
 40
0.0016750844
 41
3.141592653619413
 42
4.71238898038469
  0
LINE
  5
1E3
330
1F
100
AcDbEntity
  8
0
100
AcDbLine
 10
75.89922409498175
 20
243.5638189223
 30
0.0
 11
75.89922409498178
 21
330.1638198924
 31
0.0
  0
ELLIPSE
  5
1E4
330
1F
100
AcDbEntity
  8
0
100
AcDbEllipse
 10
77.09922436018178
 20
330.1638195303
 30
0.0
 11
1.200000000000017
 21
-2.204364238465267E-16
 31
0.0
210
0.0
220
0.0
230
1.0
 40
0.0016750844
 41
1.570796326794897
 42
3.14159265358972
  0
ARC
  5
1E5
330
1F
100
AcDbEntity
  8
0
100
AcDbCircle
 10
77.09922436018175
 20
243.5638195303
 30
0.0
 40
1.200000000000017
100
AcDbArc
 50
180.0
 51
270.0
  0
ARC
  5
1E6
330
1F
100
AcDbEntity
  8
0
100
AcDbCircle
 10
77.09922436018175
 20
243.5638195303
 30
0.0
 40
0.2000000000000171
100
AcDbArc
 50
180.0
 51
270.0
  0
LINE
  5
1E7
330
1F
100
AcDbEntity
  8
0
100
AcDbLine
 10
83.89922447498174
 20
243.3638229873
 30
0.0
 11
77.09922391918172
 21
243.3638229873
 31
0.0
  0
LINE
  5
1E8
330
1F
100
AcDbEntity
  8
0
100
AcDbLine
 10
83.89922447498174
 20
243.3638229873
 30
0.0
 11
83.89922447498174
 21
242.3638209608
 31
0.0
  0
LINE
  5
1E9
330
1F
100
AcDbEntity
  8
0
100
AcDbLine
 10
83.89922447498174
 20
242.3638209608
 30
0.0
 11
77.09922391918172
 21
242.3638209608
 31
0.0
  0
ARC
  5
1EA
330
1F
100
AcDbEntity
  8
0
100
AcDbCircle
 10
77.09922436018178
 20
330.1638195303
 30
0.0
 40
1.199999999999989
100
AcDbArc
 50
90.0
 51
180.0
  0
ARC
  5
1EB
330
1F
100
AcDbEntity
  8
0
100
AcDbCircle
 10
77.09922436018178
 20
330.1638195303
 30
0.0
 40
0.2000000000000171
100
AcDbArc
 50
90.0
 51
180.0
  0
LINE
  5
1EC
330
1F
100
AcDbEntity
  8
0
100
AcDbLine
 10
77.09922391918175
 20
331.3638197165
 30
0.0
 11
83.89922447498176
 21
331.3638197165
 31
0.0
  0
LINE
  5
1ED
330
1F
100
AcDbEntity
  8
0
100
AcDbLine
 10
83.89922447498176
 20
330.3638195526
 30
0.0
 11
83.89922447498176
 21
331.3638197165
 31
0.0
  0
LINE
  5
1EE
330
1F
100
AcDbEntity
  8
0
100
AcDbLine
 10
77.09922391918175
 20
330.3638195526
 30
0.0
 11
83.89922447498176
 21
330.3638195526
 31
0.0
  0
LINE
  5
1EF
330
1F
100
AcDbEntity
  8
0
100
AcDbLine
 10
84.39922455688176
 20
329.3638193887
 30
0.0
 11
84.79922434308176
 21
329.3638193887
 31
0.0
  0
LINE
  5
1F0
330
1F
100
AcDbEntity
  8
0
100
AcDbLine
 10
84.79922434308176
 20
328.3638192248
 30
0.0
 11
84.79922434308176
 21
329.3638193887
 31
0.0
  0
LINE
  5
1F1
330
1F
100
AcDbEntity
  8
0
100
AcDbLine
 10
94.09922437738177
 20
329.3638193887
 30
0.0
 11
94.49922416348176
 21
329.3638193887
 31
0.0
  0
LINE
  5
1F2
330
1F
100
AcDbEntity
  8
0
100
AcDbLine
 10
94.09922437738177
 20
328.3638192248
 30
0.0
 11
94.09922437738177
 21
329.3638193887
 31
0.0
  0
LINE
  5
1F3
330
1F
100
AcDbEntity
  8
0
100
AcDbLine
 10
84.79922434308173
 20
244.3638175633
 30
0.0
 11
84.39922455688173
 21
244.3638175633
 31
0.0
  0
LINE
  5
1F4
330
1F
100
AcDbEntity
  8
0
100
AcDbLine
 10
84.39922455688173
 20
245.0277611521
 30
0.0
 11
84.39922455688173
 21
248.363818219
 31
0.0
  0
LINE
  5
1F5
330
1F
100
AcDbEntity
  8
0
100
AcDbLine
 10
84.79922434308173
 20
248.363818219
 30
0.0
 11
84.79922434308173
 21
244.3638175633
 31
0.0
  0
LINE
  5
1F6
330
1F
100
AcDbEntity
  8
0
100
AcDbLine
 10
84.39922455688173
 20
248.363818219
 30
0.0
 11
84.39922455688176
 21
324.3638195005
 31
0.0
  0
LINE
  5
1F7
330
1F
100
AcDbEntity
  8
0
100
AcDbLine
 10
84.79922434308173
 20
248.363818219
 30
0.0
 11
84.79922434308176
 21
324.3638195005
 31
0.0
  0
LINE
  5
1F8
330
1F
100
AcDbEntity
  8
0
100
AcDbLine
 10
84.39922455688176
 20
328.3638192248
 30
0.0
 11
84.79922434308176
 21
328.3638192248
 31
0.0
  0
LINE
  5
1F9
330
1F
100
AcDbEntity
  8
0
100
AcDbLine
 10
84.39922455688176
 20
324.3638195005
 30
0.0
 11
84.39922455688176
 21
327.6998765674
 31
0.0
  0
LINE
  5
1FA
330
1F
100
AcDbEntity
  8
0
100
AcDbLine
 10
84.79922434308176
 20
328.3638192248
 30
0.0
 11
84.79922434308176
 21
324.3638195005
 31
0.0
  0
LINE
  5
1FB
330
1F
100
AcDbEntity
  8
0
100
AcDbLine
 10
94.49922416348173
 20
248.363818219
 30
0.0
 11
94.49922416348173
 21
245.0277611521
 31
0.0
  0
LINE
  5
1FC
330
1F
100
AcDbEntity
  8
0
100
AcDbLine
 10
94.49922416348173
 20
244.3638175633
 30
0.0
 11
94.09922437738174
 21
244.3638175633
 31
0.0
  0
LINE
  5
1FD
330
1F
100
AcDbEntity
  8
0
100
AcDbLine
 10
94.09922437738174
 20
244.3638175633
 30
0.0
 11
94.09922437738174
 21
248.363818219
 31
0.0
  0
LINE
  5
1FE
330
1F
100
AcDbEntity
  8
0
100
AcDbLine
 10
94.49922416348173
 20
248.363818219
 30
0.0
 11
94.49922416348176
 21
324.3638195005
 31
0.0
  0
LINE
  5
1FF
330
1F
100
AcDbEntity
  8
0
100
AcDbLine
 10
94.09922437738174
 20
248.363818219
 30
0.0
 11
94.09922437738177
 21
324.3638195005
 31
0.0
  0
LINE
  5
200
330
1F
100
AcDbEntity
  8
0
100
AcDbLine
 10
94.09922437738177
 20
328.3638192248
 30
0.0
 11
94.49922416348176
 21
328.3638192248
 31
0.0
  0
LINE
  5
201
330
1F
100
AcDbEntity
  8
0
100
AcDbLine
 10
94.49922416348176
 20
327.6998765674
 30
0.0
 11
94.49922416348176
 21
324.3638195005
 31
0.0
  0
LINE
  5
202
330
1F
100
AcDbEntity
  8
0
100
AcDbLine
 10
94.09922437738177
 20
324.3638195005
 30
0.0
 11
94.09922437738177
 21
328.3638192248
 31
0.0
  0
LINE
  5
203
330
1F
100
AcDbEntity
  8
0
100
AcDbLine
 10
98.30895561718177
 20
285.5427220371
 30
0.0
 11
98.86518057428177
 21
286.2215071824
 31
0.0
  0
LINE
  5
204
330
1F
100
AcDbEntity
  8
0
100
AcDbLine
 10
98.86518057428177
 20
286.2215071824
 30
0.0
 11
98.55544969428178
 21
287.0426021424
 31
0.0
  0
LINE
  5
205
330
1F
100
AcDbEntity
  8
0
100
AcDbLine
 10
98.55544969428178
 20
287.0426021424
 30
0.0
 11
97.68949385728178
 21
287.1849156823
 31
0.0
  0
LINE
  5
206
330
1F
100
AcDbEntity
  8
0
100
AcDbLine
 10
97.68949385728178
 20
287.1849156823
 30
0.0
 11
97.13326796878178
 21
286.5061342623
 31
0.0
  0
LINE
  5
207
330
1F
100
AcDbEntity
  8
0
100
AcDbLine
 10
97.13326796878178
 20
286.5061342623
 30
0.0
 11
97.44299884878177
 21
285.6850355771
 31
0.0
  0
LINE
  5
208
330
1F
100
AcDbEntity
  8
0
100
AcDbLine
 10
97.44299884878177
 20
285.6850355771
 30
0.0
 11
98.30895561718177
 21
285.5427220371
 31
0.0
  0
ARC
  5
209
330
1F
100
AcDbEntity
  8
0
100
AcDbCircle
 10
97.99922436018176
 20
286.3638195303
 30
0.0
 40
1.400000000000026
100
AcDbArc
 50
140.6672790788994
 51
181.6372450805015
  0
ARC
  5
20A
330
1F
100
AcDbEntity
  8
0
100
AcDbCircle
 10
97.99922436018176
 20
286.3638195303
 30
0.0
 40
1.400000000000026
100
AcDbArc
 50
358.3627549168989
 51
140.6672790788994
  0
ARC
  5
20B
330
1F
100
AcDbEntity
  8
0
100
AcDbCircle
 10
80.89922436018176
 20
286.3638195303
 30
0.0
 40
1.400000000000026
100
AcDbArc
 50
140.6672790788994
 51
181.6372450758004
  0
ARC
  5
20C
330
1F
100
AcDbEntity
  8
0
100
AcDbCircle
 10
80.89922436018176
 20
286.3638195303
 30
0.0
 40
1.400000000000026
100
AcDbArc
 50
358.3627549231989
 51
140.6672790788994
  0
LINE
  5
20D
330
1F
100
AcDbEntity
  8
0
100
AcDbLine
 10
81.20895486318176
 20
285.5427220371
 30
0.0
 11
81.76518075158177
 21
286.2215071824
 31
0.0
  0
LINE
  5
20E
330
1F
100
AcDbEntity
  8
0
100
AcDbLine
 10
81.76518075158177
 20
286.2215071824
 30
0.0
 11
81.45544987168176
 21
287.0426021424
 31
0.0
  0
LINE
  5
20F
330
1F
100
AcDbEntity
  8
0
100
AcDbLine
 10
81.45544987168176
 20
287.0426021424
 30
0.0
 11
80.58949310328177
 21
287.1849156823
 31
0.0
  0
LINE
  5
210
330
1F
100
AcDbEntity
  8
0
100
AcDbLine
 10
80.58949310328177
 20
287.1849156823
 30
0.0
 11
80.03326814618177
 21
286.5061342623
 31
0.0
  0
LINE
  5
211
330
1F
100
AcDbEntity
  8
0
100
AcDbLine
 10
80.03326814618177
 20
286.5061342623
 30
0.0
 11
80.34299902608177
 21
285.6850355771
 31
0.0
  0
LINE
  5
212
330
1F
100
AcDbEntity
  8
0
100
AcDbLine
 10
80.34299902608177
 20
285.6850355771
 30
0.0
 11
81.20895486318176
 21
285.5427220371
 31
0.0
  0
LINE
  5
213
330
1F
100
AcDbEntity
  8
0
100
AcDbLine
 10
94.99922424548174
 20
243.8987821248
 30
0.0
 11
94.49922416348173
 21
243.86381655
 31
0.0
  0
LINE
  5
214
330
1F
100
AcDbEntity
  8
0
100
AcDbLine
 10
94.49922416348173
 20
245.0277611521
 30
0.0
 11
94.49922416348173
 21
243.86381655
 31
0.0
  0
LINE
  5
215
330
1F
100
AcDbEntity
  8
0
100
AcDbLine
 10
94.99922424548174
 20
257.6138183382
 30
0.0
 11
94.49922416348173
 21
257.6138183382
 31
0.0
  0
LINE
  5
216
330
1F
100
AcDbEntity
  8
0
100
AcDbLine
 10
94.49922416348173
 20
257.6138183382
 30
0.0
 11
94.49922416348173
 21
248.8638192322
 31
0.0
  0
LINE
  5
217
330
1F
100
AcDbEntity
  8
0
100
AcDbLine
 10
94.49922416348173
 20
262.6138210204
 30
0.0
 11
94.99922424548174
 21
262.6138210204
 31
0.0
  0
LINE
  5
218
330
1F
100
AcDbEntity
  8
0
100
AcDbLine
 10
94.99922424548177
 20
310.113819493
 30
0.0
 11
94.49922416348176
 21
310.113819493
 31
0.0
  0
ARC
  5
219
330
1F
100
AcDbEntity
  8
0
100
AcDbCircle
 10
97.99922436018176
 20
286.3638195303
 30
0.0
 40
1.650000000000009
100
AcDbArc
 50
25.96861758660055
 51
154.0313824106001
  0
LINE
  5
21A
330
1F
100
AcDbEntity
  8
0
100
AcDbLine
 10
94.49922416348176
 20
310.113819493
 30
0.0
 11
94.49922416348173
 21
262.6138210204
 31
0.0
  0
LINE
  5
21B
330
1F
100
AcDbEntity
  8
0
100
AcDbLine
 10
94.49922416348176
 20
315.1138196141
 30
0.0
 11
94.99922424548177
 21
315.1138196141
 31
0.0
  0
LINE
  5
21C
330
1F
100
AcDbEntity
  8
0
100
AcDbLine
 10
94.49922416348176
 20
323.8638194185
 30
0.0
 11
94.49922416348176
 21
315.1138196141
 31
0.0
  0
LINE
  5
21D
330
1F
100
AcDbEntity
  8
0
100
AcDbLine
 10
94.99922424548177
 20
328.828856526
 30
0.0
 11
94.49922416348176
 21
328.8638193068
 31
0.0
  0
LINE
  5
21E
330
1F
100
AcDbEntity
  8
0
100
AcDbLine
 10
94.49922416348176
 20
328.8638193068
 30
0.0
 11
94.49922416348176
 21
327.6998765674
 31
0.0
  0
LINE
  5
21F
330
1F
100
AcDbEntity
  8
0
100
AcDbLine
 10
83.89922447498174
 20
243.8987821248
 30
0.0
 11
84.39922455688173
 21
243.86381655
 31
0.0
  0
LINE
  5
220
330
1F
100
AcDbEntity
  8
0
100
AcDbLine
 10
84.39922455688173
 20
243.86381655
 30
0.0
 11
84.39922455688173
 21
245.0277611521
 31
0.0
  0
LINE
  5
221
330
1F
100
AcDbEntity
  8
0
100
AcDbLine
 10
84.39922455688173
 20
257.6138183382
 30
0.0
 11
83.89922447498174
 21
257.6138183382
 31
0.0
  0
LINE
  5
222
330
1F
100
AcDbEntity
  8
0
100
AcDbLine
 10
84.39922455688173
 20
248.8638192322
 30
0.0
 11
84.39922455688173
 21
257.6138183382
 31
0.0
  0
LINE
  5
223
330
1F
100
AcDbEntity
  8
0
100
AcDbLine
 10
84.39922455688176
 20
310.113819493
 30
0.0
 11
83.89922447498176
 21
310.113819493
 31
0.0
  0
LINE
  5
224
330
1F
100
AcDbEntity
  8
0
100
AcDbLine
 10
83.89922447498174
 20
262.6138210204
 30
0.0
 11
84.39922455688173
 21
262.6138210204
 31
0.0
  0
ARC
  5
225
330
1F
100
AcDbEntity
  8
0
100
AcDbCircle
 10
80.89922436018176
 20
286.3638195303
 30
0.0
 40
1.650000000000005
100
AcDbArc
 50
25.96861759209834
 51
154.0313824078006
  0
LINE
  5
226
330
1F
100
AcDbEntity
  8
0
100
AcDbLine
 10
84.39922455688173
 20
262.6138210204
 30
0.0
 11
84.39922455688176
 21
310.113819493
 31
0.0
  0
LINE
  5
227
330
1F
100
AcDbEntity
  8
0
100
AcDbLine
 10
83.89922447498176
 20
315.1138196141
 30
0.0
 11
84.39922455688176
 21
315.1138196141
 31
0.0
  0
LINE
  5
228
330
1F
100
AcDbEntity
  8
0
100
AcDbLine
 10
84.39922455688176
 20
315.1138196141
 30
0.0
 11
84.39922455688176
 21
323.8638194185
 31
0.0
  0
LINE
  5
229
330
1F
100
AcDbEntity
  8
0
100
AcDbLine
 10
83.89922447498176
 20
328.828856526
 30
0.0
 11
84.39922455688176
 21
328.8638193068
 31
0.0
  0
LINE
  5
22A
330
1F
100
AcDbEntity
  8
0
100
AcDbLine
 10
84.39922455688176
 20
327.6998765674
 30
0.0
 11
84.39922455688176
 21
328.8638193068
 31
0.0
  0
LINE
  5
22B
330
1F
100
AcDbEntity
  8
0
100
AcDbLine
 10
94.09922437738174
 20
253.8638219145
 30
0.0
 11
84.79922434308173
 21
253.8638219145
 31
0.0
  0
LINE
  5
22C
330
1F
100
AcDbEntity
  8
0
100
AcDbLine
 10
84.79922434308176
 20
318.8638195303
 30
0.0
 11
94.09922437738177
 21
318.8638195303
 31
0.0
  0
LINE
  5
22D
330
1F
100
AcDbEntity
  8
0
100
AcDbLine
 10
94.49922416348176
 20
329.3638193887
 30
0.0
 11
94.99922424548177
 21
329.3200751674
 31
0.0
  0
LINE
  5
22E
330
1F
100
AcDbEntity
  8
0
100
AcDbLine
 10
94.49922416348176
 20
328.8638193068
 30
0.0
 11
94.49922416348176
 21
329.3638193887
 31
0.0
  0
LINE
  5
22F
330
1F
100
AcDbEntity
  8
0
100
AcDbLine
 10
83.89922447498176
 20
329.3200751674
 30
0.0
 11
84.39922455688176
 21
329.3638193887
 31
0.0
  0
LINE
  5
230
330
1F
100
AcDbEntity
  8
0
100
AcDbLine
 10
84.39922455688176
 20
329.3638193887
 30
0.0
 11
84.39922455688176
 21
328.8638193068
 31
0.0
  0
LINE
  5
231
330
1F
100
AcDbEntity
  8
0
  6
Continuous
 62
     8
370
     0
100
AcDbLine
 10
101.7992248012818
 20
330.1658296865
 30
0.0
 11
101.7992248012818
 21
243.5618072655
 31
0.0
  0
LINE
  5
232
330
1F
100
AcDbEntity
  8
0
  6
Continuous
 62
     8
370
     0
100
AcDbLine
 10
101.7992248012818
 20
243.3638229873
 30
0.0
 11
101.7992248012818
 21
242.3638209608
 31
0.0
  0
LINE
  5
233
330
1F
100
AcDbEntity
  8
0
  6
Continuous
 62
     8
370
     0
100
AcDbLine
 10
101.7992248012818
 20
330.3638195526
 30
0.0
 11
101.7992248012818
 21
331.3638197165
 31
0.0
  0
LINE
  5
234
330
1F
100
AcDbEntity
  8
0
  6
Continuous
 62
     8
370
     0
100
AcDbLine
 10
77.09922391918175
 20
330.1658296865
 30
0.0
 11
77.09922391918172
 21
243.5618072655
 31
0.0
  0
LINE
  5
235
330
1F
100
AcDbEntity
  8
0
  6
Continuous
 62
     8
370
     0
100
AcDbLine
 10
77.09922391918172
 20
243.3638229873
 30
0.0
 11
77.09922391918172
 21
242.3638209608
 31
0.0
  0
LINE
  5
236
330
1F
100
AcDbEntity
  8
0
  6
Continuous
 62
     8
370
     0
100
AcDbLine
 10
77.09922391918175
 20
330.3638195526
 30
0.0
 11
77.09922391918175
 21
331.3638197165
 31
0.0
  0
LINE
  5
237
330
1F
100
AcDbEntity
  8
0
  6
Continuous
 62
     8
370
     0
100
AcDbLine
 10
84.39922455688173
 20
248.363818219
 30
0.0
 11
84.79922434308173
 21
248.363818219
 31
0.0
  0
LINE
  5
238
330
1F
100
AcDbEntity
  8
0
  6
Continuous
 62
     8
370
     0
100
AcDbLine
 10
84.79922434308176
 20
324.3638195005
 30
0.0
 11
84.39922455688176
 21
324.3638195005
 31
0.0
  0
LINE
  5
239
330
1F
100
AcDbEntity
  8
0
  6
Continuous
 62
     8
370
     0
100
AcDbLine
 10
94.09922437738174
 20
248.363818219
 30
0.0
 11
94.49922416348173
 21
248.363818219
 31
0.0
  0
LINE
  5
23A
330
1F
100
AcDbEntity
  8
0
  6
Continuous
 62
     8
370
     0
100
AcDbLine
 10
94.49922416348176
 20
324.3638195005
 30
0.0
 11
94.09922437738177
 21
324.3638195005
 31
0.0
  0
LINE
  5
23B
330
1F
100
AcDbEntity
  8
0
  6
Continuous
 62
     8
370
     0
100
AcDbLine
 10
94.99922424548174
 20
248.8638192322
 30
0.0
 11
94.49922416348173
 21
248.8638192322
 31
0.0
  0
LINE
  5
23C
330
1F
100
AcDbEntity
  8
0
  6
Continuous
 62
     8
370
     0
100
AcDbLine
 10
94.99922424548177
 20
323.8638194185
 30
0.0
 11
94.49922416348176
 21
323.8638194185
 31
0.0
  0
LINE
  5
23D
330
1F
100
AcDbEntity
  8
0
  6
Continuous
 62
     8
370
     0
100
AcDbLine
 10
83.89922447498174
 20
248.8638192322
 30
0.0
 11
84.39922455688173
 21
248.8638192322
 31
0.0
  0
LINE
  5
23E
330
1F
100
AcDbEntity
  8
0
  6
Continuous
 62
     8
370
     0
100
AcDbLine
 10
83.89922447498176
 20
323.8638194185
 30
0.0
 11
84.39922455688176
 21
323.8638194185
 31
0.0
  0
LINE
  5
23F
330
1F
100
AcDbEntity
  8
0
  6
Continuous
 62
     8
370
     0
100
AcDbLine
 10
84.79922434308173
 20
258.8638208714
 30
0.0
 11
94.09922437738174
 21
258.8638208714
 31
0.0
  0
LINE
  5
240
330
1F
100
AcDbEntity
  8
0
  6
Continuous
 62
     8
370
     0
100
AcDbLine
 10
94.09922437738177
 20
313.863819642
 30
0.0
 11
84.79922434308176
 21
313.863819642
 31
0.0
  0
LWPOLYLINE
  5
241
330
1F
100
AcDbEntity
  8
0
100
AcDbPolyline
 90
       10
 70
   128
 43
0.0
 10
195.7324026768
 20
242.3638209608
 10
195.7324324791
 20
242.3820525315
 10
195.7325237487
 20
242.4361884501
 10
195.7326727604
 20
242.5245895889
 10
195.732873926
 20
242.6445662883
 10
195.7331216578
 20
242.7924752143
 10
195.7334085052
 20
242.9638162163
 10
195.7337251549
 20
243.1533962396
 10
195.7340641563
 20
243.3554410842
 10
195.7344124709
 20
243.5638189223
  0
LINE
  5
242
330
1F
100
AcDbEntity
  8
0
100
AcDbLine
 10
195.7324026768
 20
243.3638229874
 30
0.0
 11
195.7324026768
 21
242.3638209608
 31
0.0
  0
LWPOLYLINE
  5
243
330
1F
100
AcDbEntity
  8
0
100
AcDbPolyline
 90
       10
 70
   128
 43
0.0
 10
195.7324026768
 20
243.3638229874
 10
195.7324324791
 20
243.3668553737
 10
195.7325237487
 20
243.3758780268
 10
195.7326727604
 20
243.3906152752
 10
195.732873926
 20
243.4106126335
 10
195.7331216578
 20
243.4352591541
 10
195.7334085052
 20
243.4638172295
 10
195.7337251549
 20
243.4954151419
 10
195.7340641563
 20
243.5290917662
 10
195.7344124709
 20
243.5638189223
  0
LWPOLYLINE
  5
244
330
1F
100
AcDbEntity
  8
0
100
AcDbPolyline
 90
        9
 70
   128
 43
0.0
 10
229.3344131355
 20
243.5638189223
 10
229.3348052223
 20
243.3297142294
 10
229.335182408
 20
243.1046023872
 10
229.3355297913
 20
242.8971335199
 10
229.3358343338
 20
242.7152946499
 10
229.3360839282
 20
242.5660595205
 10
229.3362701927
 20
242.4551650789
 10
229.3363847454
 20
242.3868805077
 10
229.3364229296
 20
242.3638209608
  0
LWPOLYLINE
  5
245
330
1F
100
AcDbEntity
  8
0
100
AcDbPolyline
 90
        9
 70
   128
 43
0.0
 10
229.3344131355
 20
243.5638189223
 10
229.3348052223
 20
243.5248002317
 10
229.335182408
 20
243.4872865584
 10
229.3355297913
 20
243.4527084139
 10
229.3358343338
 20
243.422399452
 10
229.3360839282
 20
243.3975219634
 10
229.3362701927
 20
243.3790445235
 10
229.3363847454
 20
243.3676600364
 10
229.3364229296
 20
243.3638229874
  0
LINE
  5
246
330
1F
100
AcDbEntity
  8
0
100
AcDbLine
 10
229.3364229296
 20
243.3638229874
 30
0.0
 11
229.3364229296
 21
242.3638209608
 31
0.0
  0
LINE
  5
247
330
1F
100
AcDbEntity
  8
0
100
AcDbLine
 10
229.3364229296
 20
242.3638209608
 30
0.0
 11
195.7324026768
 21
242.3638209608
 31
0.0
  0
LWPOLYLINE
  5
248
330
1F
100
AcDbEntity
  8
0
100
AcDbPolyline
 90
       10
 70
   128
 43
0.0
 10
195.7344124709
 20
243.5638189223
 10
195.5260346328
 20
243.563468745
 10
195.3239879255
 20
243.5631334689
 10
195.1344134902
 20
243.5628130939
 10
194.9630669002
 20
243.5625299719
 10
194.8151598369
 20
243.5622766521
 10
194.6951831375
 20
243.5620754865
 10
194.6067819987
 20
243.5619339254
 10
194.5526442175
 20
243.5618370679
 10
194.5344126468
 20
243.5618072656
  0
LINE
  5
249
330
1F
100
AcDbEntity
  8
0
100
AcDbLine
 10
194.5344126468
 20
243.5618072656
 30
0.0
 11
194.5344126468
 21
288.3638191876
 31
0.0
  0
LINE
  5
24A
330
1F
100
AcDbEntity
  8
0
100
AcDbLine
 10
195.7344124709
 20
288.3638191876
 30
0.0
 11
194.5344126468
 21
288.3638191876
 31
0.0
  0
LINE
  5
24B
330
1F
100
AcDbEntity
  8
0
100
AcDbLine
 10
195.7344124709
 20
296.5638201591
 30
0.0
 11
195.7344124709
 21
288.3638191876
 31
0.0
  0
LINE
  5
24C
330
1F
100
AcDbEntity
  8
0
100
AcDbLine
 10
187.534413362
 20
296.5638201591
 30
0.0
 11
195.7344124709
 21
296.5638201591
 31
0.0
  0
LWPOLYLINE
  5
24D
330
1F
100
AcDbEntity
  8
0
100
AcDbPolyline
 90
       10
 70
   128
 43
0.0
 10
230.5344129597
 20
243.5618072656
 10
230.5161823203
 20
243.5618370679
 10
230.4620436077
 20
243.5619339254
 10
230.3736434002
 20
243.5620754865
 10
230.2536657696
 20
243.5622766521
 10
230.1057577749
 20
243.5625299719
 10
229.9344130476
 20
243.5628130939
 10
229.7448367496
 20
243.5631334689
 10
229.5427909737
 20
243.563468745
 10
229.3344131355
 20
243.5638189223
  0
LINE
  5
24E
330
1F
100
AcDbEntity
  8
0
100
AcDbLine
 10
229.5344127958
 20
243.5618072656
 30
0.0
 11
230.5344129597
 21
243.5618072656
 31
0.0
  0
LWPOLYLINE
  5
24F
330
1F
100
AcDbEntity
  8
0
100
AcDbPolyline
 90
       10
 70
   128
 43
0.0
 10
229.5344127958
 20
243.5618072656
 10
229.5313748215
 20
243.5618370679
 10
229.5223512371
 20
243.5619339254
 10
229.507617714
 20
243.5620754865
 10
229.487621287
 20
243.5622766521
 10
229.4629701098
 20
243.5625299719
 10
229.4344129656
 20
243.5628130939
 10
229.402816916
 20
243.5631334689
 10
229.3691421543
 20
243.563468745
 10
229.3344131355
 20
243.5638189223
  0
LINE
  5
250
330
1F
100
AcDbEntity
  8
0
100
AcDbLine
 10
230.5344129597
 20
330.1658296865
 30
0.0
 11
230.5344129597
 21
243.5618072656
 31
0.0
  0
LWPOLYLINE
  5
251
330
1F
100
AcDbEntity
  8
0
100
AcDbPolyline
 90
        9
 70
   128
 43
0.0
 10
229.3344131355
 20
330.1638198924
 10
229.5685215537
 20
330.1642119792
 10
229.7936333959
 20
330.1645891648
 10
230.0010966753
 20
330.1649365481
 10
230.1829411333
 20
330.1652410906
 10
230.3321762626
 20
330.1654906851
 10
230.4430679102
 20
330.1656769496
 10
230.5113552754
 20
330.165790571
 10
230.5344129597
 20
330.1658296865
  0
LWPOLYLINE
  5
252
330
1F
100
AcDbEntity
  8
0
100
AcDbPolyline
 90
        9
 70
   128
 43
0.0
 10
195.7344124709
 20
243.5638189223
 10
195.695395643
 20
243.5634240415
 10
195.6578763817
 20
243.5630515125
 10
195.6232982372
 20
243.5627013352
 10
195.592991138
 20
243.5623958614
 10
195.5681192373
 20
243.5621499923
 10
195.5496362095
 20
243.5619637277
 10
195.5382554476
 20
243.5618445185
 10
195.5344128107
 20
243.5618072656
  0
LINE
  5
253
330
1F
100
AcDbEntity
  8
0
100
AcDbLine
 10
195.5344128107
 20
243.5618072656
 30
0.0
 11
194.5344126468
 21
243.5618072656
 31
0.0
  0
LWPOLYLINE
  5
254
330
1F
100
AcDbEntity
  8
0
100
AcDbPolyline
 90
       10
 70
   128
 43
0.0
 10
142.7323995774
 20
295.3638203349
 10
142.7324368303
 20
295.382050043
 10
142.7325262372
 20
295.4361878243
 10
142.7326752489
 20
295.5245889631
 10
142.7328764145
 20
295.6445656624
 10
142.7331222837
 20
295.7924745884
 10
142.7334054058
 20
295.9638193157
 10
142.7337257807
 20
296.1533956137
 10
142.7340610568
 20
296.355442321
 10
142.7344112341
 20
296.5638201591
  0
LINE
  5
255
330
1F
100
AcDbEntity
  8
0
100
AcDbLine
 10
142.7323995774
 20
296.3638186362
 30
0.0
 11
142.7323995774
 21
295.3638203349
 31
0.0
  0
LWPOLYLINE
  5
256
330
1F
100
AcDbEntity
  8
0
100
AcDbPolyline
 90
       10
 70
   128
 43
0.0
 10
142.7323995774
 20
296.3638186362
 10
142.7324368303
 20
296.3668584731
 10
142.7325262372
 20
296.3758811262
 10
142.7326752489
 20
296.3906146493
 10
142.7328764145
 20
296.410610145
 10
142.7331222837
 20
296.4352622536
 10
142.7334054058
 20
296.463820329
 10
142.7337257807
 20
296.4954163787
 10
142.7340610568
 20
296.5290892777
 10
142.7344112341
 20
296.5638201591
  0
LINE
  5
257
330
1F
100
AcDbEntity
  8
0
100
AcDbLine
 10
187.534413362
 20
295.3638203349
 30
0.0
 11
142.7323995774
 21
295.3638203349
 31
0.0
  0
LINE
  5
258
330
1F
100
AcDbEntity
  8
0
100
AcDbLine
 10
187.534413362
 20
295.3638203349
 30
0.0
 11
187.534413362
 21
296.5638201591
 31
0.0
  0
LWPOLYLINE
  5
259
330
1F
100
AcDbEntity
  8
0
100
AcDbPolyline
 90
        9
 70
   128
 43
0.0
 10
142.7344112341
 20
296.5638201591
 10
142.5003065412
 20
296.563427141
 10
142.275194699
 20
296.5630508867
 10
142.0677258317
 20
296.562702572
 10
141.8858869617
 20
296.5623989609
 10
141.7366518323
 20
296.5621475038
 10
141.6257573907
 20
296.5619631019
 10
141.5574728196
 20
296.5618476179
 10
141.5344132726
 20
296.5618085024
  0
LWPOLYLINE
  5
25A
330
1F
100
AcDbEntity
  8
0
100
AcDbPolyline
 90
        9
 70
   128
 43
0.0
 10
142.7344112341
 20
296.5638201591
 10
142.6953925435
 20
296.563427141
 10
142.6578788702
 20
296.5630508867
 10
142.6233007257
 20
296.562702572
 10
142.5929917638
 20
296.5623989609
 10
142.5681217258
 20
296.5621475038
 10
142.5496368353
 20
296.5619631019
 10
142.5382523482
 20
296.5618476179
 10
142.5344152992
 20
296.5618085024
  0
LINE
  5
25B
330
1F
100
AcDbEntity
  8
0
100
AcDbLine
 10
142.5344152992
 20
296.5618085024
 30
0.0
 11
141.5344132726
 21
296.5618085024
 31
0.0
  0
LINE
  5
25C
330
1F
100
AcDbEntity
  8
0
100
AcDbLine
 10
141.5344132726
 20
296.5618085024
 30
0.0
 11
141.5344132726
 21
330.1658296865
 31
0.0
  0
LWPOLYLINE
  5
25D
330
1F
100
AcDbEntity
  8
0
100
AcDbPolyline
 90
       10
 70
   128
 43
0.0
 10
142.7344112341
 20
330.1638198924
 10
142.526033396
 20
330.164168207
 10
142.3239885514
 20
330.1645072084
 10
142.1344159787
 20
330.1648247894
 10
141.9630675261
 20
330.1651116368
 10
141.8151586001
 20
330.1653593686
 10
141.6951819007
 20
330.1655605343
 10
141.6067807619
 20
330.1657086146
 10
141.5526448433
 20
330.1657989529
 10
141.5344132726
 20
330.1658296865
  0
LWPOLYLINE
  5
25E
330
1F
100
AcDbEntity
  8
0
100
AcDbPolyline
 90
        9
 70
   128
 43
0.0
 10
142.7323995774
 20
331.3638197165
 10
142.7324442809
 20
331.3407620322
 10
142.7325560396
 20
331.2724746671
 10
142.7327423041
 20
331.1615830195
 10
142.7329881732
 20
331.0123478901
 10
142.733293647
 20
330.8305034321
 10
142.7336438243
 20
330.6230392214
 10
142.7340238039
 20
330.3979283106
 10
142.7344112341
 20
330.1638198924
  0
LWPOLYLINE
  5
25F
330
1F
100
AcDbEntity
  8
0
100
AcDbPolyline
 90
        9
 70
   128
 43
0.0
 10
142.7323995774
 20
330.3638195526
 10
142.7324442809
 20
330.3599769157
 10
142.7325560396
 20
330.3485952225
 10
142.7327423041
 20
330.330113126
 10
142.7329881732
 20
330.3052412253
 10
142.733293647
 20
330.2749331948
 10
142.7336438243
 20
330.2403559816
 10
142.7340238039
 20
330.2028376516
 10
142.7344112341
 20
330.1638198924
  0
LINE
  5
260
330
1F
100
AcDbEntity
  8
0
100
AcDbLine
 10
142.7323995774
 20
330.3638195526
 30
0.0
 11
142.7323995774
 21
331.3638197165
 31
0.0
  0
LWPOLYLINE
  5
261
330
1F
100
AcDbEntity
  8
0
100
AcDbPolyline
 90
       10
 70
   128
 43
0.0
 10
229.3364229296
 20
331.3638197165
 10
229.336392196
 20
331.3455890772
 10
229.3363018577
 20
331.2914503646
 10
229.3361537774
 20
331.2030501571
 10
229.3359526117
 20
331.0830725264
 10
229.3357048799
 20
330.9351645317
 10
229.3354180326
 20
330.7638198045
 10
229.3351004516
 20
330.5742435065
 10
229.3347614502
 20
330.3721977305
 10
229.3344131355
 20
330.1638198924
  0
LINE
  5
262
330
1F
100
AcDbEntity
  8
0
100
AcDbLine
 10
229.3364229296
 20
330.3638195526
 30
0.0
 11
229.3364229296
 21
331.3638197165
 31
0.0
  0
LWPOLYLINE
  5
263
330
1F
100
AcDbEntity
  8
0
100
AcDbPolyline
 90
       10
 70
   128
 43
0.0
 10
229.3364229296
 20
330.3638195526
 10
229.336392196
 20
330.3607806471
 10
229.3363018577
 20
330.351757994
 10
229.3361537774
 20
330.3370244708
 10
229.3359526117
 20
330.3170280438
 10
229.3357048799
 20
330.2923768666
 10
229.3354180326
 20
330.2638197225
 10
229.3351004516
 20
330.2322236728
 10
229.3347614502
 20
330.1985489112
 10
229.3344131355
 20
330.1638198924
  0
LINE
  5
264
330
1F
100
AcDbEntity
  8
0
100
AcDbLine
 10
142.7323995774
 20
331.3638197165
 30
0.0
 11
229.3364229296
 21
331.3638197165
 31
0.0
  0
LWPOLYLINE
  5
265
330
1F
100
AcDbEntity
  8
0
100
AcDbPolyline
 90
        9
 70
   128
 43
0.0
 10
229.3344131355
 20
330.1638198924
 10
229.3734308948
 20
330.1642119792
 10
229.4109492247
 20
330.1645891648
 10
229.4455264379
 20
330.1649365481
 10
229.4758344685
 20
330.1652410906
 10
229.5007063692
 20
330.1654906851
 10
229.5191884656
 20
330.1656769496
 10
229.5305701588
 20
330.165790571
 10
229.5344127958
 20
330.1658296865
  0
LINE
  5
266
330
1F
100
AcDbEntity
  8
0
100
AcDbLine
 10
229.5344127958
 20
330.1658296865
 30
0.0
 11
230.5344129597
 21
330.1658296865
 31
0.0
  0
LINE
  5
267
330
1F
100
AcDbEntity
  8
0
100
AcDbLine
 10
142.5344152992
 20
330.1658296865
 30
0.0
 11
141.5344132726
 21
330.1658296865
 31
0.0
  0
LWPOLYLINE
  5
268
330
1F
100
AcDbEntity
  8
0
100
AcDbPolyline
 90
       10
 70
   128
 43
0.0
 10
142.7344112341
 20
330.1638198924
 10
142.699684078
 20
330.164168207
 10
142.6660074537
 20
330.1645072084
 10
142.6344095414
 20
330.1648247894
 10
142.6058589165
 20
330.1651116368
 10
142.5812049453
 20
330.1653593686
 10
142.561207587
 20
330.1655605343
 10
142.5464777892
 20
330.1657086146
 10
142.5374476855
 20
330.1657989529
 10
142.5344152992
 20
330.1658296865
  0
ARC
  5
269
330
1F
100
AcDbEntity
  8
0
100
AcDbCircle
 10
193.5344128554
 20
293.8638195303
 30
0.0
 40
0.5
100
AcDbArc
 50
0.0
 51
90.0
  0
LINE
  5
26A
330
1F
100
AcDbEntity
  8
0
100
AcDbLine
 10
193.5344124828
 20
294.363820171
 30
0.0
 11
153.5344152396
 21
294.363820171
 31
0.0
  0
LINE
  5
26B
330
1F
100
AcDbEntity
  8
0
100
AcDbLine
 10
153.5344152396
 20
294.363820171
 30
0.0
 11
153.5344152396
 21
295.3638203349
 31
0.0
  0
LINE
  5
26C
330
1F
100
AcDbEntity
  8
0
100
AcDbLine
 10
194.5344126468
 20
253.8638219145
 30
0.0
 11
194.0344134961
 21
253.8638219145
 31
0.0
  0
LINE
  5
26D
330
1F
100
AcDbEntity
  8
0
100
AcDbLine
 10
194.0344134961
 20
253.8638219145
 30
0.0
 11
194.0344134961
 21
293.8638191578
 31
0.0
  0
LINE
  5
26E
330
1F
100
AcDbEntity
  8
0
  6
Continuous
 62
     8
370
     0
100
AcDbLine
 10
195.7344124709
 20
243.5638189223
 30
0.0
 11
229.3344131355
 21
243.5638189223
 31
0.0
  0
LINE
  5
26F
330
1F
100
AcDbEntity
  8
0
  6
Continuous
 62
     8
370
     0
100
AcDbLine
 10
195.7344124709
 20
288.3638191876
 30
0.0
 11
195.7344124709
 21
243.5638189223
 31
0.0
  0
LINE
  5
270
330
1F
100
AcDbEntity
  8
0
  6
Continuous
 62
     8
370
     0
100
AcDbLine
 10
142.7344112341
 20
296.5638201591
 30
0.0
 11
187.534413362
 21
296.5638201591
 31
0.0
  0
LINE
  5
271
330
1F
100
AcDbEntity
  8
0
  6
Continuous
 62
     8
370
     0
100
AcDbLine
 10
142.7344112341
 20
330.1638198924
 30
0.0
 11
142.7344112341
 21
296.5638201591
 31
0.0
  0
LINE
  5
272
330
1F
100
AcDbEntity
  8
0
  6
Continuous
 62
     8
370
     0
100
AcDbLine
 10
229.3344131355
 20
330.1638198924
 30
0.0
 11
142.7344112341
 21
330.1638198924
 31
0.0
  0
LINE
  5
273
330
1F
100
AcDbEntity
  8
0
  6
Continuous
 62
     8
370
     0
100
AcDbLine
 10
229.3344131355
 20
243.5638189223
 30
0.0
 11
229.3344131355
 21
330.1638198924
 31
0.0
  0
LINE
  5
274
330
1F
100
AcDbEntity
  8
0
100
AcDbLine
 10
282.3102612031
 20
54.9745089177
 30
0.0
 11
355.8813089423
 21
71.6638211216
 31
0.0
  0
LINE
  5
275
330
1F
100
AcDbEntity
  8
0
100
AcDbLine
 10
356.8142875973
 20
72.8309993756
 30
0.0
 11
356.891405441
 21
153.404443095
 31
0.0
  0
LINE
  5
276
330
1F
100
AcDbEntity
  8
0
100
AcDbLine
 10
267.8454159696
 20
95.1118554168
 30
0.0
 11
267.8154930974
 21
63.8481589265
 31
0.0
  0
LINE
  5
277
330
1F
100
AcDbEntity
  8
0
100
AcDbLine
 10
306.8381894993
 20
104.9127533009
 30
0.0
 11
268.7783922511
 21
96.2790331323
 31
0.0
  0
LINE
  5
278
330
1F
100
AcDbEntity
  8
0
100
AcDbLine
 10
312.9168747464
 20
154.6351855497
 30
0.0
 11
312.8769801184
 21
112.9529054274
 31
0.0
  0
LINE
  5
279
330
1F
100
AcDbEntity
  8
0
100
AcDbLine
 10
342.3966349601
 20
162.2780908325
 30
0.0
 11
313.8498526086
 21
155.8023618912
 31
0.0
  0
LINE
  5
27A
330
1F
100
AcDbEntity
  8
0
100
AcDbLine
 10
280.7449180765
 20
92.8644463019
 30
0.0
 11
280.533892312
 21
92.9891988063
 31
0.0
  0
LINE
  5
27B
330
1F
100
AcDbEntity
  8
0
100
AcDbLine
 10
276.4456058307
 20
64.2365652838
 30
0.0
 11
276.6566315952
 21
64.1118127795
 31
0.0
  0
LINE
  5
27C
330
1F
100
AcDbEntity
  8
0
100
AcDbLine
 10
320.4293224905
 20
144.07241363
 30
0.0
 11
320.6403482549
 21
143.9476611257
 31
0.0
  0
LINE
  5
27D
330
1F
100
AcDbEntity
  8
0
100
AcDbLine
 10
345.1012059459
 20
156.8548614324
 30
0.0
 11
344.8901801814
 21
156.9796139368
 31
0.0
  0
LINE
  5
27E
330
1F
100
AcDbEntity
  8
0
100
AcDbLine
 10
272.4483044433
 20
77.6437824153
 30
0.0
 11
272.8744866094
 21
77.7404602178
 31
0.0
  0
LINE
  5
27F
330
1F
100
AcDbEntity
  8
0
100
AcDbLine
 10
316.9183643077
 20
153.161066842
 30
0.0
 11
316.7226829723
 21
152.9548540362
 31
0.0
  0
LINE
  5
280
330
1F
100
AcDbEntity
  8
0
100
AcDbLine
 10
315.3841497016
 20
111.345091877
 30
0.0
 11
315.3776129258
 21
104.5154074785
 31
0.0
  0
LINE
  5
281
330
1F
100
AcDbEntity
  8
0
100
AcDbLine
 10
344.2321089365
 20
157.3462946351
 30
0.0
 11
342.1984133986
 21
158.2540813525
 31
0.0
  0
LINE
  5
282
330
1F
100
AcDbEntity
  8
0
100
AcDbLine
 10
271.6417864107
 20
93.7589975723
 30
0.0
 11
271.4686387265
 21
93.5394628353
 31
0.0
  0
LINE
  5
283
330
1F
100
AcDbEntity
  8
0
100
AcDbLine
 10
297.8107486583
 20
100.8628406114
 30
0.0
 11
284.7765708682
 21
97.9060869814
 31
0.0
  0
LINE
  5
284
330
1F
100
AcDbEntity
  8
0
100
AcDbLine
 10
272.4369182804
 20
65.7503967349
 30
0.0
 11
274.3135761166
 21
64.0519211967
 31
0.0
  0
LINE
  5
285
330
1F
100
AcDbEntity
  8
0
100
AcDbLine
 10
327.7336028776
 20
97.2449713979
 30
0.0
 11
327.7409047421
 21
104.8740276236
 31
0.0
  0
LINE
  5
286
330
1F
100
AcDbEntity
  8
0
100
AcDbLine
 10
320.7675856235
 20
95.6647568931
 30
0.0
 11
327.7336028776
 21
97.2449713979
 31
0.0
  0
ELLIPSE
  5
287
330
1F
100
AcDbEntity
  8
0
100
AcDbEllipse
 10
282.046342847
 20
56.1451278202
 30
0.0
 11
1.200001018206933
 21
0.0006877493572332586
 31
0.0
210
0.0
220
0.0
230
1.0
 40
0.3674361876
 41
3.697112828495767
 42
5.267909155290621
  0
ELLIPSE
  5
288
330
1F
100
AcDbEntity
  8
0
100
AcDbEllipse
 10
282.0762626783
 20
87.4056471875
 30
0.0
 11
1.199997507813293
 21
-0.002982260308797889
 31
0.0
210
0.0
220
0.0
230
1.0
 40
0.3657908924
 41
3.698234060183653
 42
5.269030386978509
  0
ELLIPSE
  5
289
330
1F
100
AcDbEntity
  8
0
100
AcDbEllipse
 10
282.0762626783
 20
87.4056471875
 30
0.0
 11
0.199997067480524
 21
-0.002018805609054652
 31
0.0
210
0.0
220
0.0
230
1.0
 40
0.3616521403
 41
3.700979487640057
 42
5.271775814434893
  0
LINE
  5
28A
330
1F
100
AcDbEntity
  8
0
100
AcDbLine
 10
282.1817742926
 20
87.3432699729
 30
0.0
 11
282.7093390723
 21
87.0313884942
 31
0.0
  0
ELLIPSE
  5
28B
330
1F
100
AcDbEntity
  8
0
100
AcDbEllipse
 10
282.0762626783
 20
87.4056471875
 30
0.0
 11
-0.04627617505252601
 21
0.1945811518050107
 31
0.0
210
0.0
220
0.0
230
1.0
 40
0.4873844786
 41
4.272913970376486
 42
5.843710297171557
  0
ELLIPSE
  5
28C
330
1F
100
AcDbEntity
  8
0
100
AcDbEllipse
 10
282.0762626783
 20
87.4056471875
 30
0.0
 11
-0.2675103093814641
 21
1.169804067592978
 31
0.0
210
0.0
220
0.0
230
1.0
 40
0.4904942154
 41
4.277135798029184
 42
5.847932124824123
  0
ARC
  5
28D
330
1F
100
AcDbEntity
  8
0
100
AcDbCircle
 10
318.9194781553
 20
95.760548702
 30
0.0
 40
1.850588361749202
100
AcDbArc
 50
357.0328786266
 51
48.917766634
  0
LINE
  5
28E
330
1F
100
AcDbEntity
  8
0
100
AcDbLine
 10
278.3189236924
 20
89.4897705859
 30
0.0
 11
281.9063638995
 21
87.3689767048
 31
0.0
  0
LINE
  5
28F
330
1F
100
AcDbEntity
  8
0
100
AcDbLine
 10
277.4694075792
 20
89.2970610884
 30
0.0
 11
281.0568477863
 21
87.1762672074
 31
0.0
  0
LINE
  5
290
330
1F
100
AcDbEntity
  8
0
100
AcDbLine
 10
278.3189236924
 20
89.4897705859
 30
0.0
 11
277.4694075792
 21
89.2970610884
 31
0.0
  0
LINE
  5
291
330
1F
100
AcDbEntity
  8
0
100
AcDbLine
 10
281.0269243742
 20
55.9120066406
 30
0.0
 11
277.4394841671
 21
58.0328005216
 31
0.0
  0
LINE
  5
292
330
1F
100
AcDbEntity
  8
0
100
AcDbLine
 10
277.4394841671
 20
58.0328005216
 30
0.0
 11
277.4694075792
 21
89.2970610884
 31
0.0
  0
LWPOLYLINE
  5
293
330
1F
100
AcDbEntity
  8
0
100
AcDbPolyline
 90
       23
 70
   128
 43
0.0
 10
278.2462382779
 20
73.6622945301
 10
278.2786696403
 20
74.0365188237
 10
278.3725839222
 20
74.3425255583
 10
278.5203725773
 20
74.5555239374
 10
278.7100628662
 20
74.6582578709
 10
278.9262871774
 20
74.642404423
 10
279.1515279399
 20
74.5092484111
 10
279.3675375409
 20
74.2695773113
 10
279.5568169918
 20
73.9428071127
 10
279.7040307566
 20
73.5554115894
 10
279.7972533875
 20
73.1387747686
 10
279.8289321257
 20
72.7266503843
 10
279.7965007634
 20
72.3524260907
 10
279.7025864814
 20
72.0464193561
 10
279.554798072
 20
71.8334208317
 10
279.3651075374
 20
71.7306870435
 10
279.1488837176
 20
71.746540201
 10
278.9236429551
 20
71.8796962129
 10
278.7076328628
 20
72.1193676031
 10
278.5183536575
 20
72.4461376564
 10
278.371139647
 20
72.833533325
 10
278.2779170162
 20
73.2501701458
 10
278.2462382779
 20
73.6622945301
  0
LINE
  5
294
330
1F
100
AcDbEntity
  8
0
100
AcDbLine
 10
293.758696524
 20
92.5961062745
 30
0.0
 11
291.9122197951
 21
93.68769145
 31
0.0
  0
ARC
  5
295
330
1F
100
AcDbEntity
  8
0
100
AcDbCircle
 10
295.4894965204
 20
96.5643110851
 30
0.0
 40
4.329239892452013
100
AcDbArc
 50
246.4347586787
 51
283.6731520132
  0
LINE
  5
296
330
1F
100
AcDbEntity
  8
0
100
AcDbLine
 10
307.5565388077
 20
94.8629796079
 30
0.0
 11
296.5128546538
 21
92.3577618844
 31
0.0
  0
LWPOLYLINE
  5
297
330
1F
100
AcDbEntity
  8
0
100
AcDbPolyline
 90
        9
 70
   128
 43
0.0
 10
308.2004388013
 20
95.8721605518
 10
308.3736404434
 20
95.7430654245
 10
308.474891005
 20
95.6041193677
 10
308.5002990133
 20
95.460662129
 10
308.4488965019
 20
95.3182079083
 10
308.3226489735
 20
95.182229778
 10
308.1264135129
 20
95.0579540443
 10
307.8677311652
 20
94.9501568025
 10
307.5565388077
 20
94.8629796079
  0
LINE
  5
298
330
1F
100
AcDbEntity
  8
0
100
AcDbLine
 10
306.3539620724
 20
96.9637457274
 30
0.0
 11
308.2004388013
 21
95.8721605518
 31
0.0
  0
LINE
  5
299
330
1F
100
AcDbEntity
  8
0
100
AcDbLine
 10
306.3539620724
 20
96.9637457274
 30
0.0
 11
316.5481364425
 21
99.2762553892
 31
0.0
  0
LINE
  5
29A
330
1F
100
AcDbEntity
  8
0
100
AcDbLine
 10
320.1355766496
 20
97.1554615081
 30
0.0
 11
316.5481364425
 21
99.2762553892
 31
0.0
  0
LINE
  5
29B
330
1F
100
AcDbEntity
  8
0
100
AcDbLine
 10
282.0756211671
 20
88.5217054446
 30
0.0
 11
278.48818096
 21
90.6424993256
 31
0.0
  0
LINE
  5
29C
330
1F
100
AcDbEntity
  8
0
100
AcDbLine
 10
278.48818096
 20
90.6424993256
 30
0.0
 11
291.9122197951
 21
93.68769145
 31
0.0
  0
LINE
  5
29D
330
1F
100
AcDbEntity
  8
0
100
AcDbLine
 10
282.0747306974
 20
87.5913344248
 30
0.0
 11
278.4872904903
 21
89.7121283059
 31
0.0
  0
LINE
  5
29E
330
1F
100
AcDbEntity
  8
0
100
AcDbLine
 10
278.4872904903
 20
89.7121283059
 30
0.0
 11
278.48818096
 21
90.6424993256
 31
0.0
  0
ARC
  5
29F
330
1F
100
AcDbEntity
  8
0
100
AcDbCircle
 10
327.1268906152
 20
107.3979621001
 30
0.0
 40
2.597548573132974
100
AcDbArc
 50
246.4347904231
 51
283.6731100293001
  0
ELLIPSE
  5
2A0
330
1F
100
AcDbEntity
  8
0
100
AcDbEllipse
 10
327.147720405
 20
146.9289776644
 30
0.0
 11
1.199997507813293
 21
-0.002982260308755256
 31
0.0
210
0.0
220
0.0
230
1.0
 40
0.3657908924
 41
3.698234060183565
 42
5.26903038697848
  0
ELLIPSE
  5
2A1
330
1F
100
AcDbEntity
  8
0
100
AcDbEllipse
 10
327.147720405
 20
146.9289776644
 30
0.0
 11
0.199997067480524
 21
-0.002018805608997809
 31
0.0
210
0.0
220
0.0
230
1.0
 40
0.3616521403
 41
3.700979487639295
 42
5.271775814434703
  0
LINE
  5
2A2
330
1F
100
AcDbEntity
  8
0
100
AcDbLine
 10
327.253233071
 20
146.8666018388
 30
0.0
 11
327.7807978507
 21
146.5547203601
 31
0.0
  0
ELLIPSE
  5
2A3
330
1F
100
AcDbEntity
  8
0
100
AcDbEllipse
 10
327.147720405
 20
146.9289776644
 30
0.0
 11
-0.04627617505252601
 21
0.1945811518050391
 31
0.0
210
0.0
220
0.0
230
1.0
 40
0.4873844786
 41
4.272913970376384
 42
5.843710297171815
  0
ELLIPSE
  5
2A4
330
1F
100
AcDbEntity
  8
0
100
AcDbEllipse
 10
327.147720405
 20
146.9289776644
 30
0.0
 11
-0.2675103093814073
 21
1.16980406759302
 31
0.0
210
0.0
220
0.0
230
1.0
 40
0.4904942154
 41
4.277135798029267
 42
5.847932124824215
  0
ELLIPSE
  5
2A5
330
1F
100
AcDbEntity
  8
0
100
AcDbEllipse
 10
355.6914039626
 20
153.404003656
 30
0.0
 11
-0.2634275737156601
 21
1.170730216947732
 31
0.0
210
0.0
220
0.0
230
1.0
 40
0.4917224304
 41
4.278849139483661
 42
5.849645466278406
  0
LINE
  5
2A6
330
1F
100
AcDbEntity
  8
0
100
AcDbLine
 10
322.5009698753
 20
107.1378282686
 30
0.0
 11
322.5408647753
 21
148.8203925954
 31
0.0
  0
LINE
  5
2A7
330
1F
100
AcDbEntity
  8
0
100
AcDbLine
 10
322.5408647753
 20
148.8203925954
 30
0.0
 11
326.1283049824
 21
146.6995987143
 31
0.0
  0
LINE
  5
2A8
330
1F
100
AcDbEntity
  8
0
100
AcDbLine
 10
322.5009698753
 20
107.1378282686
 30
0.0
 11
326.0884100824
 21
105.0170343875
 31
0.0
  0
LINE
  5
2A9
330
1F
100
AcDbEntity
  8
0
100
AcDbLine
 10
323.3903793061
 20
149.0131017339
 30
0.0
 11
326.9778195133
 21
146.8923078528
 31
0.0
  0
LINE
  5
2AA
330
1F
100
AcDbEntity
  8
0
100
AcDbLine
 10
323.3903793061
 20
149.0131017339
 30
0.0
 11
322.5408647753
 21
148.8203925954
 31
0.0
  0
LINE
  5
2AB
330
1F
100
AcDbEntity
  8
0
100
AcDbLine
 10
327.1461910532
 20
147.1146614508
 30
0.0
 11
323.5587508461
 21
149.2354553319
 31
0.0
  0
LINE
  5
2AC
330
1F
100
AcDbEntity
  8
0
100
AcDbLine
 10
323.5587508461
 20
149.2354553319
 30
0.0
 11
323.5596413191
 21
150.1658298175
 31
0.0
  0
LINE
  5
2AD
330
1F
100
AcDbEntity
  8
0
100
AcDbLine
 10
327.1470815262
 20
148.0450359364
 30
0.0
 11
323.5596413191
 21
150.1658298175
 31
0.0
  0
LINE
  5
2AE
330
1F
100
AcDbEntity
  8
0
100
AcDbLine
 10
323.5596413191
 20
150.1658298175
 30
0.0
 11
352.1067401394
 21
156.6416305485
 31
0.0
  0
LINE
  5
2AF
330
1F
100
AcDbEntity
  8
0
100
AcDbLine
 10
352.1067401394
 20
156.6416305485
 30
0.0
 11
355.6941803465
 21
154.5208366674
 31
0.0
  0
ARC
  5
2B0
330
1F
100
AcDbEntity
  8
0
100
AcDbCircle
 10
281.565763912
 20
73.7679803144
 30
0.0
 40
2.472956930898361
100
AcDbArc
 50
163.4938749834
 51
222.0681825268
  0
ELLIPSE
  5
2B1
330
1F
100
AcDbEntity
  8
0
100
AcDbEllipse
 10
282.046342847
 20
56.1451278202
 30
0.0
 11
-0.2634275737157168
 21
1.170730216947767
 31
0.0
210
0.0
220
0.0
230
1.0
 40
0.4917224304
 41
2.708052812688754
 42
4.278849139483521
  0
ELLIPSE
  5
2B2
330
1F
100
AcDbEntity
  8
0
100
AcDbEllipse
 10
355.6142891593
 20
72.8337364773
 30
0.0
 11
-0.2675103093814641
 21
1.169804067592992
 31
0.0
210
0.0
220
0.0
230
1.0
 40
0.4904942154
 41
3.14073773506356
 42
4.27713579802918
  0
LINE
  5
2B3
330
1F
100
AcDbEntity
  8
0
100
AcDbLine
 10
278.4561239984
 20
57.1490862932
 30
0.0
 11
282.0435642055
 21
55.0282924121
 31
0.0
  0
LINE
  5
2B4
330
1F
100
AcDbEntity
  8
0
100
AcDbLine
 10
278.4563944242
 20
57.4316297146
 30
0.0
 11
278.4561239984
 21
57.1490862932
 31
0.0
  0
LINE
  5
2B5
330
1F
100
AcDbEntity
  8
0
100
AcDbLine
 10
306.3530716027
 20
96.0333747076
 30
0.0
 11
306.3539620724
 21
96.9637457274
 31
0.0
  0
LINE
  5
2B6
330
1F
100
AcDbEntity
  8
0
100
AcDbLine
 10
306.3530716027
 20
96.0333747076
 30
0.0
 11
308.0583898611
 21
95.0252384548
 31
0.0
  0
LINE
  5
2B7
330
1F
100
AcDbEntity
  8
0
100
AcDbLine
 10
327.7336028776
 20
97.2449713979
 30
0.0
 11
327.2060380979
 21
97.5568528767
 31
0.0
  0
LINE
  5
2B8
330
1F
100
AcDbEntity
  8
0
100
AcDbLine
 10
320.7264428406
 20
96.0869813507
 30
0.0
 11
327.2060380979
 21
97.5568528767
 31
0.0
  0
LINE
  5
2B9
330
1F
100
AcDbEntity
  8
0
100
AcDbLine
 10
327.2060380979
 20
97.5568528767
 30
0.0
 11
327.2129801305
 21
104.8099533945
 31
0.0
  0
ELLIPSE
  5
2BA
330
1F
100
AcDbEntity
  8
0
100
AcDbEllipse
 10
355.6914039626
 20
153.404003656
 30
0.0
 11
1.200001018207047
 21
0.0006877493572119423
 31
0.0
210
0.0
220
0.0
230
1.0
 40
0.3674361876
 41
5.267909155290685
 42
6.838705482085492
  0
ELLIPSE
  5
2BB
330
1F
100
AcDbEntity
  8
0
100
AcDbEllipse
 10
355.6142891593
 20
72.8337364773
 30
0.0
 11
1.199997507813293
 21
-0.002982260308769467
 31
0.0
210
0.0
220
0.0
230
1.0
 40
0.3657908924
 41
5.269030386978487
 42
6.283744274390051
  0
LINE
  5
2BC
330
1F
100
AcDbEntity
  8
0
100
AcDbLine
 10
356.7108233457
 20
153.6371266228
 30
0.0
 11
356.1141909164
 21
153.9898389559
 31
0.0
  0
LINE
  5
2BD
330
1F
100
AcDbEntity
  8
0
100
AcDbLine
 10
308.3637381711
 20
104.1146414427
 30
0.0
 11
313.9641641912
 21
105.3850767729
 31
0.0
  0
LINE
  5
2BE
330
1F
100
AcDbEntity
  8
0
100
AcDbLine
 10
313.9641641912
 20
105.3850767729
 30
0.0
 11
313.9706683682
 21
112.1807016932
 31
0.0
  0
LINE
  5
2BF
330
1F
100
AcDbEntity
  8
0
100
AcDbLine
 10
271.6134396055
 20
92.7589448633
 30
0.0
 11
268.0259993984
 21
94.8797387444
 31
0.0
  0
LINE
  5
2C0
330
1F
100
AcDbEntity
  8
0
100
AcDbLine
 10
272.4629557187
 20
92.9516543608
 30
0.0
 11
268.8755155116
 21
95.0724482419
 31
0.0
  0
LINE
  5
2C1
330
1F
100
AcDbEntity
  8
0
100
AcDbLine
 10
272.4629557187
 20
92.9516543608
 30
0.0
 11
271.6134396055
 21
92.7589448633
 31
0.0
  0
LINE
  5
2C2
330
1F
100
AcDbEntity
  8
0
100
AcDbLine
 10
271.5835161934
 20
61.4946842965
 30
0.0
 11
271.6134396055
 21
92.7589448633
 31
0.0
  0
LINE
  5
2C3
330
1F
100
AcDbEntity
  8
0
100
AcDbLine
 10
267.9960759863
 20
63.6154781776
 30
0.0
 11
271.5835161934
 21
61.4946842965
 31
0.0
  0
LWPOLYLINE
  5
2C4
330
1F
100
AcDbEntity
  8
0
100
AcDbPolyline
 90
       23
 70
   128
 43
0.0
 10
270.8075759652
 20
78.0598227411
 10
270.775897227
 20
78.4719471254
 10
270.6826745961
 20
78.8885839462
 10
270.5354605857
 20
79.2759796148
 10
270.3461813804
 20
79.6027496681
 10
270.1301712881
 20
79.8424210583
 10
269.9049305256
 20
79.9755770702
 10
269.6887067057
 20
79.9914302277
 10
269.4990161711
 20
79.8886964395
 10
269.3512277617
 20
79.6756979151
 10
269.2573134798
 20
79.3696911805
 10
269.2248821174
 20
78.9954668869
 10
269.2565608557
 20
78.5833425026
 10
269.3497834865
 20
78.1667056818
 10
269.4969972513
 20
77.7793101585
 10
269.6862767023
 20
77.4525399599
 10
269.9022863032
 20
77.2128688601
 10
270.1275270657
 20
77.0797128482
 10
270.3437513769
 20
77.0638594003
 10
270.5334416659
 20
77.1665933338
 10
270.6812303209
 20
77.379591713
 10
270.7751446029
 20
77.6855984475
 10
270.8075759652
 20
78.0598227411
  0
LINE
  5
2C5
330
1F
100
AcDbEntity
  8
0
100
AcDbLine
 10
272.4330323066
 20
61.687393794
 30
0.0
 11
272.4629557187
 21
92.9516543608
 31
0.0
  0
LINE
  5
2C6
330
1F
100
AcDbEntity
  8
0
100
AcDbLine
 10
272.4330323066
 20
61.687393794
 30
0.0
 11
271.5835161934
 21
61.4946842965
 31
0.0
  0
LINE
  5
2C7
330
1F
100
AcDbEntity
  8
0
100
AcDbLine
 10
269.0447727792
 20
96.2251769816
 30
0.0
 11
272.6322129863
 21
94.1043831005
 31
0.0
  0
LINE
  5
2C8
330
1F
100
AcDbEntity
  8
0
100
AcDbLine
 10
307.1047282617
 20
104.8589330451
 30
0.0
 11
309.8188480539
 21
103.2544216623
 31
0.0
  0
LINE
  5
2C9
330
1F
100
AcDbEntity
  8
0
100
AcDbLine
 10
299.6246736838
 20
100.9419120005
 30
0.0
 11
298.6515173698
 21
101.5172146778
 31
0.0
  0
ARC
  5
2CA
330
1F
100
AcDbEntity
  8
0
100
AcDbCircle
 10
296.9207184958
 20
97.549022837
 30
0.0
 40
4.329227555538361
100
AcDbArc
 50
66.43470366980002
 51
103.6732070221
  0
LINE
  5
2CB
330
1F
100
AcDbEntity
  8
0
100
AcDbLine
 10
295.8973592401
 20
101.7555590679
 30
0.0
 11
284.8536750861
 21
99.2503413444
 31
0.0
  0
LWPOLYLINE
  5
2CC
330
1F
100
AcDbEntity
  8
0
100
AcDbPolyline
 90
        9
 70
   128
 43
0.0
 10
284.8536750861
 20
99.2503413444
 10
284.5424827287
 20
99.1631641498
 10
284.2838003809
 20
99.055366908
 10
284.0875649203
 20
98.9310911743
 10
283.9613173919
 20
98.795113044
 10
283.9099148805
 20
98.6526588233
 10
283.9353260535
 20
98.5092023025
 10
284.0365734504
 20
98.3702555278
 10
284.2097750925
 20
98.2411604005
  0
LINE
  5
2CD
330
1F
100
AcDbEntity
  8
0
100
AcDbLine
 10
284.2097750925
 20
98.2411604005
 30
0.0
 11
285.1829314065
 21
97.6658577231
 31
0.0
  0
LINE
  5
2CE
330
1F
100
AcDbEntity
  8
0
100
AcDbLine
 10
272.6322129863
 20
94.1043831005
 30
0.0
 11
282.0726663405
 21
96.2459140182
 31
0.0
  0
LINE
  5
2CF
330
1F
100
AcDbEntity
  8
0
100
AcDbLine
 10
272.6313225166
 20
93.1740120808
 30
0.0
 11
272.6322129863
 21
94.1043831005
 31
0.0
  0
LINE
  5
2D0
330
1F
100
AcDbEntity
  8
0
100
AcDbLine
 10
269.0438823095
 20
95.2948059619
 30
0.0
 11
272.6313225166
 21
93.1740120808
 31
0.0
  0
LINE
  5
2D1
330
1F
100
AcDbEntity
  8
0
100
AcDbLine
 10
272.6313225166
 20
93.1740120808
 30
0.0
 11
282.0717758709
 21
95.3155429984
 31
0.0
  0
ELLIPSE
  5
2D2
330
1F
100
AcDbEntity
  8
0
100
AcDbEllipse
 10
269.0454147558
 20
95.1091184494
 30
0.0
 11
1.19999750781335
 21
-0.002982260308783678
 31
0.0
210
0.0
220
0.0
230
1.0
 40
0.3657908924
 41
2.127437733388672
 42
3.698234060183703
  0
LINE
  5
2D3
330
1F
100
AcDbEntity
  8
0
100
AcDbLine
 10
268.9399003859
 20
95.1714938691
 30
0.0
 11
268.4123356062
 21
95.4833753478
 31
0.0
  0
ELLIPSE
  5
2D4
330
1F
100
AcDbEntity
  8
0
100
AcDbEllipse
 10
269.0454147558
 20
95.1091184494
 30
0.0
 11
0.1999970674805809
 21
-0.002018805609054652
 31
0.0
210
0.0
220
0.0
230
1.0
 40
0.3616521403
 41
2.130183160845058
 42
3.700979487640489
  0
ELLIPSE
  5
2D5
330
1F
100
AcDbEntity
  8
0
100
AcDbEllipse
 10
269.0154949245
 20
63.8485990822
 30
0.0
 11
1.200001018206933
 21
0.000687749357240364
 31
0.0
210
0.0
220
0.0
230
1.0
 40
0.3674361876
 41
3.141030389112371
 42
3.697112828495755
  0
ELLIPSE
  5
2D6
330
1F
100
AcDbEntity
  8
0
100
AcDbEllipse
 10
269.0454147558
 20
95.1091184494
 30
0.0
 11
-0.2675103093814073
 21
1.169804067592978
 31
0.0
210
0.0
220
0.0
230
1.0
 40
0.4904942154
 41
5.847932124824121
 42
7.418728451619021
  0
ARC
  5
2D7
330
1F
100
AcDbEntity
  8
0
100
AcDbCircle
 10
306.9073181596
 20
104.5681934679
 30
0.0
 40
0.3514260237883677
100
AcDbArc
 50
55.8237746813
 51
101.3445757013
  0
ELLIPSE
  5
2D8
330
1F
100
AcDbEntity
  8
0
100
AcDbEllipse
 10
269.0454147558
 20
95.1091184494
 30
0.0
 11
-0.04627617505246919
 21
0.1945811518050106
 31
0.0
210
0.0
220
0.0
230
1.0
 40
0.4873844786
 41
5.843710297171774
 42
7.414506623966289
  0
LINE
  5
2D9
330
1F
100
AcDbEntity
  8
0
100
AcDbLine
 10
316.6848968016
 20
152.2822763703
 30
0.0
 11
313.0974565945
 21
154.4030702514
 31
0.0
  0
LINE
  5
2DA
330
1F
100
AcDbEntity
  8
0
100
AcDbLine
 10
316.6755165886
 20
142.4817421214
 30
0.0
 11
316.6848968016
 21
152.2822763703
 31
0.0
  0
LINE
  5
2DB
330
1F
100
AcDbEntity
  8
0
100
AcDbLine
 10
316.4843593789
 20
110.6946793906
 30
0.0
 11
313.0575616945
 21
112.7205059246
 31
0.0
  0
LINE
  5
2DC
330
1F
100
AcDbEntity
  8
0
100
AcDbLine
 10
317.5344113325
 20
152.4749855087
 30
0.0
 11
316.6848968016
 21
152.2822763703
 31
0.0
  0
LINE
  5
2DD
330
1F
100
AcDbEntity
  8
0
100
AcDbLine
 10
317.5250311194
 20
142.6744512599
 30
0.0
 11
317.5344113325
 21
152.4749855087
 31
0.0
  0
LINE
  5
2DE
330
1F
100
AcDbEntity
  8
0
100
AcDbLine
 10
317.5344113325
 20
152.4749855087
 30
0.0
 11
313.9469711254
 21
154.5957793898
 31
0.0
  0
ARC
  5
2DF
330
1F
100
AcDbEntity
  8
0
100
AcDbCircle
 10
272.5444081754
 20
79.1011530574
 30
0.0
 40
2.472957504387373
100
AcDbArc
 50
163.4938847455
 51
222.0681825901
  0
LINE
  5
2E0
330
1F
100
AcDbEntity
  8
0
100
AcDbLine
 10
317.7036733454
 20
153.6277135924
 30
0.0
 11
346.2507721657
 21
160.1035143234
 31
0.0
  0
LINE
  5
2E1
330
1F
100
AcDbEntity
  8
0
100
AcDbLine
 10
314.1162331383
 20
155.7485074735
 30
0.0
 11
317.7036733454
 21
153.6277135924
 31
0.0
  0
LINE
  5
2E2
330
1F
100
AcDbEntity
  8
0
100
AcDbLine
 10
346.2507721657
 20
160.1035143234
 30
0.0
 11
342.6633319586
 21
162.2243082045
 31
0.0
  0
LINE
  5
2E3
330
1F
100
AcDbEntity
  8
0
100
AcDbLine
 10
346.2498816927
 20
159.1731398377
 30
0.0
 11
346.2507721657
 21
160.1035143234
 31
0.0
  0
LINE
  5
2E4
330
1F
100
AcDbEntity
  8
0
100
AcDbLine
 10
317.7027828724
 20
152.6973391067
 30
0.0
 11
346.2498816927
 21
159.1731398377
 31
0.0
  0
LINE
  5
2E5
330
1F
100
AcDbEntity
  8
0
100
AcDbLine
 10
317.7027828724
 20
152.6973391067
 30
0.0
 11
317.7036733454
 21
153.6277135924
 31
0.0
  0
LINE
  5
2E6
330
1F
100
AcDbEntity
  8
0
100
AcDbLine
 10
314.1153426653
 20
154.8181329878
 30
0.0
 11
317.7027828724
 21
152.6973391067
 31
0.0
  0
LWPOLYLINE
  5
2E7
330
1F
100
AcDbEntity
  8
0
100
AcDbPolyline
 90
        3
 70
   128
 43
0.0
 10
284.8527846165
 20
98.3199703247
 10
284.541592259
 20
98.2327931301
 10
284.3509332654
 20
98.1577132726
  0
ELLIPSE
  5
2E8
330
1F
100
AcDbEntity
  8
0
100
AcDbEllipse
 10
314.1168724825
 20
154.6324489263
 30
0.0
 11
1.199997507813293
 21
-0.002982260308783678
 31
0.0
210
0.0
220
0.0
230
1.0
 40
0.3657908924
 41
2.127437733388657
 42
3.698234060183585
  0
ARC
  5
2E9
330
1F
100
AcDbEntity
  8
0
100
AcDbCircle
 10
313.1703987899
 20
112.9945423017
 30
0.0
 40
0.2963581381643878
100
AcDbArc
 50
188.0764981165
 51
247.6201175211
  0
LINE
  5
2EA
330
1F
100
AcDbEntity
  8
0
100
AcDbLine
 10
314.0113591643
 20
154.694825735
 30
0.0
 11
313.4837943846
 21
155.0067072137
 31
0.0
  0
ELLIPSE
  5
2EB
330
1F
100
AcDbEntity
  8
0
100
AcDbEllipse
 10
314.1168724825
 20
154.6324489263
 30
0.0
 11
0.1999970674805809
 21
-0.002018805609026231
 31
0.0
210
0.0
220
0.0
230
1.0
 40
0.3616521403
 41
2.130183160844946
 42
3.700979487639528
  0
ELLIPSE
  5
2EC
330
1F
100
AcDbEntity
  8
0
100
AcDbEllipse
 10
314.1168724825
 20
154.6324489263
 30
0.0
 11
-0.2675103093813505
 21
1.169804067592992
 31
0.0
210
0.0
220
0.0
230
1.0
 40
0.4904942154
 41
5.847932124824205
 42
7.418728451619021
  0
ELLIPSE
  5
2ED
330
1F
100
AcDbEntity
  8
0
100
AcDbEllipse
 10
342.6605560401
 20
161.107474918
 30
0.0
 11
-0.2634275737157168
 21
1.17073021694776
 31
0.0
210
0.0
220
0.0
230
1.0
 40
0.4917224304
 41
5.849645466278442
 42
6.284043730107895
  0
ELLIPSE
  5
2EE
330
1F
100
AcDbEntity
  8
0
100
AcDbEllipse
 10
314.1168724825
 20
154.6324489263
 30
0.0
 11
-0.04627617505246917
 21
0.1945811518050391
 31
0.0
210
0.0
220
0.0
230
1.0
 40
0.4873844786
 41
5.843710297172086
 42
7.414506623966627
  0
LINE
  5
2EF
330
1F
100
AcDbEntity
  8
0
100
AcDbLine
 10
277.4438921636
 20
62.639923931
 30
0.0
 11
272.601046496
 21
61.5413428208
 31
0.0
  0
LINE
  5
2F0
330
1F
100
AcDbEntity
  8
0
100
AcDbLine
 10
272.601046496
 20
61.5413428208
 30
0.0
 11
272.3759116157
 21
61.6744362381
 31
0.0
  0
LINE
  5
2F1
330
1F
100
AcDbEntity
  8
0
100
AcDbLine
 10
272.6001560247
 20
60.6109700681
 30
0.0
 11
269.0127158176
 21
62.7317639492
 31
0.0
  0
LINE
  5
2F2
330
1F
100
AcDbEntity
  8
0
100
AcDbLine
 10
272.601046496
 20
61.5413428208
 30
0.0
 11
272.6001560247
 21
60.6109700681
 31
0.0
  0
LINE
  5
2F3
330
1F
100
AcDbEntity
  8
0
100
AcDbLine
 10
277.4430016923
 20
61.7095511783
 30
0.0
 11
272.6001560247
 21
60.6109700681
 31
0.0
  0
LINE
  5
2F4
330
1F
100
AcDbEntity
  8
0
100
AcDbLine
 10
295.8964687704
 20
100.8251880481
 30
0.0
 11
284.8527846165
 21
98.3199703247
 31
0.0
  0
ARC
  5
2F5
330
1F
100
AcDbEntity
  8
0
100
AcDbCircle
 10
296.9321130414
 20
96.3703643016
 30
0.0
 40
4.573621504716461
100
AcDbArc
 50
70.4039216443
 51
103.0874851363
  0
ELLIPSE
  5
2F6
330
1F
100
AcDbEntity
  8
0
100
AcDbEllipse
 10
269.0154949245
 20
63.8485990822
 30
0.0
 11
-0.2634275737157168
 21
1.170730216947774
 31
0.0
210
0.0
220
0.0
230
1.0
 40
0.4917224304
 41
1.981159976957141
 42
2.708052812688627
  0
LINE
  5
2F7
330
1F
100
AcDbEntity
  8
0
100
AcDbLine
 10
346.2505017248
 20
159.82097494
 30
0.0
 11
347.2674151649
 21
159.2198042788
 31
0.0
  0
LINE
  5
2F8
330
1F
100
AcDbEntity
  8
0
100
AcDbLine
 10
346.4179006341
 20
159.0270951403
 30
0.0
 11
347.2674151649
 21
159.2198042788
 31
0.0
  0
LINE
  5
2F9
330
1F
100
AcDbEntity
  8
0
100
AcDbLine
 10
346.1927657538
 20
159.1601885576
 30
0.0
 11
346.4179006341
 21
159.0270951403
 31
0.0
  0
LINE
  5
2FA
330
1F
100
AcDbEntity
  8
0
100
AcDbLine
 10
346.4179006341
 20
159.0270951403
 30
0.0
 11
346.4143815681
 21
155.3503420702
 31
0.0
  0
LINE
  5
2FB
330
1F
100
AcDbEntity
  8
0
100
AcDbLine
 10
347.2674151649
 20
159.2198042788
 30
0.0
 11
347.2638960989
 21
155.5430512087
 31
0.0
  0
LINE
  5
2FC
330
1F
100
AcDbEntity
  8
0
100
AcDbLine
 10
313.4365994115
 20
105.6969582516
 30
0.0
 11
313.9641641912
 21
105.3850767729
 31
0.0
  0
LINE
  5
2FD
330
1F
100
AcDbEntity
  8
0
100
AcDbLine
 10
307.8361733914
 20
104.4265229214
 30
0.0
 11
313.4365994115
 21
105.6969582516
 31
0.0
  0
LINE
  5
2FE
330
1F
100
AcDbEntity
  8
0
100
AcDbLine
 10
313.4365994115
 20
105.6969582516
 30
0.0
 11
313.4431035885
 21
112.4925831719
 31
0.0
  0
LWPOLYLINE
  5
2FF
330
1F
100
AcDbEntity
  8
0
100
AcDbPolyline
 90
       15
 70
   128
 43
0.0
 10
274.4210427184
 20
88.2482862536
 10
274.4738436633
 20
88.9492182941
 10
274.6294726385
 20
89.6546832111
 10
274.8837031109
 20
90.3454435362
 10
275.2295815518
 20
91.0026515529
 10
275.6576873957
 20
91.6083829932
 10
276.1563296643
 20
92.146113053
 10
276.7119207593
 20
92.6011771552
 10
277.3092995626
 20
92.9611595724
 10
277.9321684019
 20
93.2162420424
 10
278.563536261
 20
93.3594654386
 10
279.186187239
 20
93.3869243992
 10
279.7831362642
 20
93.297870705
 10
280.3380973844
 20
93.0947311466
 10
280.533892312
 20
92.9891988063
  0
LWPOLYLINE
  5
300
330
1F
100
AcDbEntity
  8
0
100
AcDbPolyline
 90
       18
 70
   128
 43
0.0
 10
274.6320684829
 20
88.1235337492
 10
274.6848694278
 20
88.8244657898
 10
274.840498403
 20
89.5299307067
 10
275.0947288754
 20
90.2206910319
 10
275.4406073163
 20
90.8778990485
 10
275.8687131602
 20
91.4836304888
 10
276.3673554288
 20
92.0213605487
 10
276.9229465238
 20
92.4764246509
 10
277.5203253271
 20
92.836407068
 10
278.1431941663
 20
93.091489538
 10
278.7745620255
 20
93.2347129342
 10
279.3972130034
 20
93.2621718949
 10
279.9941620287
 20
93.1731182006
 10
280.5491231489
 20
92.9699786422
 10
281.0469524325
 20
92.6582943619
 10
281.4740844571
 20
92.2465703775
 10
281.8188548059
 20
91.7460334104
 10
281.971990041
 20
91.4327885111
  0
ARC
  5
301
330
1F
100
AcDbEntity
  8
0
100
AcDbCircle
 10
278.9266953905
 20
67.8228954766
 30
0.0
 40
4.324027155892897
100
AcDbArc
 50
176.0531591446
 51
249.9601732546
  0
LINE
  5
302
330
1F
100
AcDbEntity
  8
0
100
AcDbLine
 10
274.6129233521
 20
68.1205221653
 30
0.0
 11
274.6320684829
 21
88.1235337492
 31
0.0
  0
LINE
  5
303
330
1F
100
AcDbEntity
  8
0
100
AcDbLine
 10
274.4018975876
 20
68.2452746696
 30
0.0
 11
274.4210427184
 21
88.2482862536
 31
0.0
  0
ARC
  5
304
330
1F
100
AcDbEntity
  8
0
100
AcDbCircle
 10
278.944544329
 20
68.0358799519
 30
0.0
 40
4.54747023792998
100
AcDbArc
 50
177.3608013599
 51
236.6657199895
  0
LINE
  5
305
330
1F
100
AcDbEntity
  8
0
100
AcDbLine
 10
279.7374245509
 20
72.5382530955
 30
0.0
 11
279.7378674271
 21
73.0009743448
 31
0.0
  0
LINE
  5
306
330
1F
100
AcDbEntity
  8
0
100
AcDbLine
 10
279.5262335309
 20
72.4903451098
 30
0.0
 11
279.5276808594
 21
74.0025274948
 31
0.0
  0
ARC
  5
307
330
1F
100
AcDbEntity
  8
0
100
AcDbCircle
 10
323.9726603125
 20
147.995816576
 30
0.0
 40
4.693487974696233
100
AcDbArc
 50
105.9761930955
 51
179.7573165069
  0
ARC
  5
308
330
1F
100
AcDbEntity
  8
0
100
AcDbCircle
 10
323.7491636524
 20
148.1300121247
 30
0.0
 40
4.68098661225849
100
AcDbArc
 50
105.8612567235
 51
179.8722528788
  0
LINE
  5
309
330
1F
100
AcDbEntity
  8
0
100
AcDbLine
 10
322.6808344482
 20
152.5080239411
 30
0.0
 11
343.0691800238
 21
157.1330425467
 31
0.0
  0
ARC
  5
30A
330
1F
100
AcDbEntity
  8
0
100
AcDbCircle
 10
343.7402676798
 20
154.557472191
 30
0.0
 40
2.661563694392437
100
AcDbArc
 50
16.6943173032
 51
104.60420451
  0
ARC
  5
30B
330
1F
100
AcDbEntity
  8
0
100
AcDbCircle
 10
322.040149592
 20
146.3703945025
 30
0.0
 40
2.773537534398219
100
AcDbArc
 50
174.8338671851
 51
280.2967318862
  0
LINE
  5
30C
330
1F
100
AcDbEntity
  8
0
100
AcDbLine
 10
319.2778787301
 20
146.6201346478
 30
0.0
 11
319.2792144396
 21
148.0156963763
 31
0.0
  0
LINE
  5
30D
330
1F
100
AcDbEntity
  8
0
100
AcDbLine
 10
319.0668529656
 20
146.7448871521
 30
0.0
 11
319.0681886751
 21
148.1404488806
 31
0.0
  0
LINE
  5
30E
330
1F
100
AcDbEntity
  8
0
100
AcDbLine
 10
322.4698086837
 20
152.6327764454
 30
0.0
 11
342.8581542593
 21
157.2577950511
 31
0.0
  0
ARC
  5
30F
330
1F
100
AcDbEntity
  8
0
100
AcDbCircle
 10
322.0491932232
 20
146.5817905867
 30
0.0
 40
2.986796595273416
100
AcDbArc
 50
176.8697583448
 51
237.1566628718
  0
ARC
  5
310
330
1F
100
AcDbEntity
  8
0
100
AcDbCircle
 10
343.5285894042
 20
154.594366772
 30
0.0
 40
2.74651296764494
100
AcDbArc
 50
60.2806141399
 51
104.1288964965
  0
ARC
  5
311
330
1F
100
AcDbEntity
  8
0
100
AcDbCircle
 10
273.2714965301
 20
79.2660901077
 30
0.0
 40
2.719681815432265
100
AcDbArc
 50
180.5434434996
 51
205.0186245148
  0
ARC
  5
312
330
1F
100
AcDbEntity
  8
0
100
AcDbCircle
 10
272.1526318217
 20
79.6628851991
 30
0.0
 40
0.851494524002424
100
AcDbArc
 50
28.2224572868
 51
69.48807798009999
  0
LWPOLYLINE
  5
313
330
1F
100
AcDbEntity
  8
0
100
AcDbPolyline
 90
        9
 70
   128
 43
0.0
 10
272.8744866094
 20
77.7404602178
 10
272.9643811775
 20
77.77469177
 10
273.1297151414
 20
77.9339742601
 10
273.2448515551
 20
78.1973760107
 10
273.2995597174
 20
78.5414929462
 10
273.2889788112
 20
78.935748447
 10
273.214048697
 20
79.3451110733
 10
273.0814273525
 20
79.7332076685
 10
272.9028991154
 20
80.0655536885
  0
LWPOLYLINE
  5
314
330
1F
100
AcDbEntity
  8
0
100
AcDbPolyline
 90
       12
 70
   128
 43
0.0
 10
272.4482646824
 20
77.605183677
 10
272.5058473682
 20
77.5613235728
 10
272.7494796081
 20
77.4485266651
 10
272.9794132539
 20
77.4586400241
 10
273.1785945885
 20
77.5909138726
 10
273.3322516382
 20
77.8355378569
 10
273.4289879661
 20
78.1743690036
 10
273.4616292861
 20
78.5822782989
 10
273.4277547093
 20
79.0290122848
 10
273.3298768574
 20
79.4814395304
 10
273.1752542044
 20
79.9060049831
 10
273.0836554565
 20
80.0913433438
  0
ARC
  5
315
330
1F
100
AcDbEntity
  8
0
100
AcDbCircle
 10
282.2925320461
 20
73.932844624
 30
0.0
 40
2.719360492737836
100
AcDbArc
 50
180.5419668942
 51
205.0200805019
  0
LINE
  5
316
330
1F
100
AcDbEntity
  8
0
100
AcDbLine
 10
325.1274525633
 20
148.3080895637
 30
0.0
 11
324.9440288927
 21
148.0946296796
 31
0.0
  0
LINE
  5
317
330
1F
100
AcDbEntity
  8
0
100
AcDbLine
 10
323.5104613825
 20
106.5410447042
 30
0.0
 11
323.5010580862
 21
96.7163929344
 31
0.0
  0
LINE
  5
318
330
1F
100
AcDbEntity
  8
0
100
AcDbLine
 10
334.3634553741
 20
155.7958911783
 30
0.0
 11
342.0090849649
 21
157.5302731554
 31
0.0
  0
ARC
  5
319
330
1F
100
AcDbEntity
  8
0
100
AcDbCircle
 10
342.8506847859
 20
154.2512725332
 30
0.0
 40
3.385282165368352
100
AcDbArc
 50
56.23025652150001
 51
104.3950091712
  0
LINE
  5
31A
330
1F
100
AcDbEntity
  8
0
100
AcDbLine
 10
318.2137765495
 20
142.8306870028
 30
0.0
 11
318.2182289078
 21
147.4825524993
 31
0.0
  0
ARC
  5
31B
330
1F
100
AcDbEntity
  8
0
100
AcDbCircle
 10
324.0691568466
 20
147.4697284734
 30
0.0
 40
5.850941992662749
100
AcDbArc
 50
105.8591069168
 51
179.8744196834
  0
LINE
  5
31C
330
1F
100
AcDbEntity
  8
0
100
AcDbLine
 10
322.4702539202
 20
153.0979636883
 30
0.0
 11
330.1158831155
 21
154.8323455756
 31
0.0
  0
LINE
  5
31D
330
1F
100
AcDbEntity
  8
0
100
AcDbLine
 10
330.1158831155
 20
154.8323455756
 30
0.0
 11
330.115437879
 21
154.3671583328
 31
0.0
  0
LINE
  5
31E
330
1F
100
AcDbEntity
  8
0
100
AcDbLine
 10
334.3630101376
 20
155.3307039355
 30
0.0
 11
334.3634553741
 21
155.7958911783
 31
0.0
  0
LINE
  5
31F
330
1F
100
AcDbEntity
  8
0
100
AcDbLine
 10
330.1158831155
 20
154.8323455756
 30
0.0
 11
329.1357223955
 21
155.2908644658
 31
0.0
  0
LINE
  5
320
330
1F
100
AcDbEntity
  8
0
100
AcDbLine
 10
331.8241316651
 20
155.9007166643
 30
0.0
 11
333.2250168598
 21
155.0725526874
 31
0.0
  0
LINE
  5
321
330
1F
100
AcDbEntity
  8
0
100
AcDbLine
 10
333.3832946541
 20
156.2544100684
 30
0.0
 11
334.3634553741
 21
155.7958911783
 31
0.0
  0
LINE
  5
322
330
1F
100
AcDbEntity
  8
0
100
AcDbLine
 10
287.4017568047
 20
93.8104596086
 30
0.0
 11
287.4006597641
 21
92.6642612975
 31
0.0
  0
LINE
  5
323
330
1F
100
AcDbEntity
  8
0
100
AcDbLine
 10
321.3823301267
 20
101.5188233532
 30
0.0
 11
287.4017568047
 21
93.8104596086
 31
0.0
  0
ARC
  5
324
330
1F
100
AcDbEntity
  8
0
100
AcDbCircle
 10
321.2204556495
 20
102.0831501354
 30
0.0
 40
0.5870843750666008
100
AcDbArc
 50
286.0052888461
 51
359.7282207563
  0
LINE
  5
325
330
1F
100
AcDbEntity
  8
0
100
AcDbLine
 10
321.8431522642
 20
139.2952667886
 30
0.0
 11
321.8075334198
 21
102.0803653447
 31
0.0
  0
LINE
  5
326
330
1F
100
AcDbEntity
  8
0
100
AcDbLine
 10
322.5318974941
 20
139.451506023
 30
0.0
 11
321.8431522642
 21
139.2952667886
 31
0.0
  0
LINE
  5
327
330
1F
100
AcDbEntity
  8
0
100
AcDbLine
 10
287.4017568047
 20
93.8104596086
 30
0.0
 11
282.0733536107
 21
96.9604619048
 31
0.0
  0
LINE
  5
328
330
1F
100
AcDbEntity
  8
0
100
AcDbLine
 10
282.0733536107
 20
96.9604619048
 30
0.0
 11
282.0680838704
 21
91.454588007
 31
0.0
  0
LINE
  5
329
330
1F
100
AcDbEntity
  8
0
100
AcDbLine
 10
316.0539269327
 20
104.6688256494
 30
0.0
 11
282.0733536107
 21
96.9604619048
 31
0.0
  0
LINE
  5
32A
330
1F
100
AcDbEntity
  8
0
100
AcDbLine
 10
321.8431522642
 20
139.2952667886
 30
0.0
 11
316.5147490702
 21
142.4452690848
 31
0.0
  0
LINE
  5
32B
330
1F
100
AcDbEntity
  8
0
100
AcDbLine
 10
316.5147490702
 20
142.4452690848
 30
0.0
 11
316.4791302258
 21
105.2303676409
 31
0.0
  0
LINE
  5
32C
330
1F
100
AcDbEntity
  8
0
100
AcDbLine
 10
321.6495134449
 20
143.6100708428
 30
0.0
 11
316.5147490702
 21
142.4452690848
 31
0.0
  0
ARC
  5
32D
330
1F
100
AcDbEntity
  8
0
100
AcDbCircle
 10
315.8920524555
 20
105.2331524315
 30
0.0
 40
0.5870843750665872
100
AcDbArc
 50
286.0052888461
 51
359.7282207563
  0
ELLIPSE
  5
32E
330
1F
100
AcDbEntity
  8
0
100
AcDbEllipse
 10
282.7394004592
 20
86.223862621
 30
0.0
 11
2.524674780124201
 21
4.316725069421267
 31
0.0
210
0.0
220
0.0
230
1.0
 40
0.7959608593
 41
1.398509935750581
 42
1.454479742893196
  0
LINE
  5
32F
330
1F
100
AcDbEntity
  8
0
100
AcDbLine
 10
306.3532779686
 20
96.2492002916
 30
0.0
 11
306.0892892129
 21
96.189315447
 31
0.0
  0
LINE
  5
330
330
1F
100
AcDbEntity
  8
0
100
AcDbLine
 10
279.8166748293
 20
72.491402557
 30
0.0
 11
279.7374245509
 21
72.5382530955
 31
0.0
  0
LINE
  5
331
330
1F
100
AcDbEntity
  8
0
100
AcDbLine
 10
279.7374245509
 20
72.5382530955
 30
0.0
 11
279.4536470029
 21
72.4738792386
 31
0.0
  0
LINE
  5
332
330
1F
100
AcDbEntity
  8
0
100
AcDbLine
 10
307.6219606403
 20
95.0214265787
 30
0.0
 11
307.7391281938
 21
94.9239657117
 31
0.0
  0
LINE
  5
333
330
1F
100
AcDbEntity
  8
0
100
AcDbLine
 10
306.0624408946
 20
96.184157135
 30
0.0
 11
307.6219606403
 21
95.0214265787
 31
0.0
  0
LINE
  5
334
330
1F
100
AcDbEntity
  8
0
100
AcDbLine
 10
306.0624408946
 20
96.184157135
 30
0.0
 11
292.7843985981
 21
93.1720837698
 31
0.0
  0
ELLIPSE
  5
335
330
1F
100
AcDbEntity
  8
0
100
AcDbEllipse
 10
306.0897374927
 20
96.6562780714
 30
0.0
 11
0.251766130704425
 21
0.4334145386740999
 31
0.0
210
0.0
220
0.0
230
1.0
 40
0.7893145696
 41
3.711727586165118
 42
3.774983685040183
  0
LINE
  5
336
330
1F
100
AcDbEntity
  8
0
100
AcDbLine
 10
277.4445794338
 20
63.3544718176
 30
0.0
 11
277.3536896024
 21
63.3338538053
 31
0.0
  0
ELLIPSE
  5
337
330
1F
100
AcDbEntity
  8
0
100
AcDbEllipse
 10
277.3905502353
 20
68.0108339568
 30
0.0
 11
2.582572667729323
 21
4.324965280269695
 31
0.0
210
0.0
220
0.0
230
1.0
 40
0.784451717
 41
2.220384280805771
 42
3.78358441105411
  0
LINE
  5
338
330
1F
100
AcDbEntity
  8
0
100
AcDbLine
 10
273.1267223334
 20
67.0081374146
 30
0.0
 11
273.1347535165
 21
75.3991925813
 31
0.0
  0
LINE
  5
339
330
1F
100
AcDbEntity
  8
0
100
AcDbLine
 10
273.1347535165
 20
75.3991925813
 30
0.0
 11
274.4090213569
 21
75.6882553916
 31
0.0
  0
LINE
  5
33A
330
1F
100
AcDbEntity
  8
0
100
AcDbLine
 10
274.4090213569
 20
75.6882553916
 30
0.0
 11
274.4134737131
 21
80.340118722
 31
0.0
  0
LINE
  5
33B
330
1F
100
AcDbEntity
  8
0
100
AcDbLine
 10
274.4134737131
 20
80.340118722
 30
0.0
 11
273.1392058727
 21
80.0510559116
 31
0.0
  0
LINE
  5
33C
330
1F
100
AcDbEntity
  8
0
100
AcDbLine
 10
273.1392058727
 20
80.0510559116
 30
0.0
 11
273.1472370558
 21
88.4421110783
 31
0.0
  0
ELLIPSE
  5
33D
330
1F
100
AcDbEntity
  8
0
100
AcDbEllipse
 10
277.4109970577
 20
89.3738650399
 30
0.0
 11
2.524674780124201
 21
4.316725069421267
 31
0.0
210
0.0
220
0.0
230
1.0
 40
0.7959608593
 41
0.6402391565062494
 42
2.203439286754575
  0
LINE
  5
33E
330
1F
100
AcDbEntity
  8
0
100
AcDbLine
 10
277.3830751517
 20
94.0361503125
 30
0.0
 11
279.098272603
 21
94.4252363271
 31
0.0
  0
LINE
  5
33F
330
1F
100
AcDbEntity
  8
0
100
AcDbLine
 10
279.098272603
 20
94.4252363271
 30
0.0
 11
279.097281937
 21
93.3901792885
 31
0.0
  0
LINE
  5
340
330
1F
100
AcDbEntity
  8
0
100
AcDbLine
 10
279.9987399789
 20
93.2342469293
 30
0.0
 11
282.070236962
 21
93.7041581368
 31
0.0
  0
LINE
  5
341
330
1F
100
AcDbEntity
  8
0
100
AcDbLine
 10
272.4510824988
 20
80.5501551929
 30
0.0
 11
273.1392058727
 21
80.0510559116
 31
0.0
  0
LINE
  5
342
330
1F
100
AcDbEntity
  8
0
100
AcDbLine
 10
279.098272603
 20
94.4252363271
 30
0.0
 11
278.7731405657
 21
94.5672599872
 31
0.0
  0
LINE
  5
343
330
1F
100
AcDbEntity
  8
0
100
AcDbLine
 10
281.3750680825
 20
95.1574966155
 30
0.0
 11
282.0712303103
 21
94.7459450612
 31
0.0
  0
LINE
  5
344
330
1F
100
AcDbEntity
  8
0
100
AcDbLine
 10
270.7162865422
 20
77.8712964871
 30
0.0
 11
270.7953184232
 21
77.824575059
 31
0.0
  0
LINE
  5
345
330
1F
100
AcDbEntity
  8
0
100
AcDbLine
 10
272.4475398081
 20
76.8478281863
 30
0.0
 11
274.4090213569
 21
75.6882553916
 31
0.0
  0
LINE
  5
346
330
1F
100
AcDbEntity
  8
0
100
AcDbLine
 10
270.7167289656
 20
78.3335446399
 30
0.0
 11
270.7162865422
 21
77.8712964871
 31
0.0
  0
LWPOLYLINE
  5
347
330
1F
100
AcDbEntity
  8
0
100
AcDbPolyline
 90
       12
 70
   128
 43
0.0
 10
272.4483095878
 20
77.6521012407
 10
272.6227090674
 20
77.5391177402
 10
272.8548931952
 20
77.4869628482
 10
273.0655603694
 20
77.5548669594
 10
273.2390863093
 20
77.737795128
 10
273.3626014201
 20
78.0221793877
 10
273.426944994
 20
78.3869290678
 10
273.4273451273
 20
78.8049920922
 10
273.3637721438
 20
79.2453624478
 10
273.2409407957
 20
79.6753798143
 10
273.0679610806
 20
80.0631523929
 10
273.030081003
 20
80.1302013476
  0
LINE
  5
348
330
1F
100
AcDbEntity
  8
0
100
AcDbLine
 10
273.1347535165
 20
75.3991925813
 30
0.0
 11
272.4466301426
 21
75.8982918625
 31
0.0
  0
ARC
  5
349
330
1F
100
AcDbEntity
  8
0
100
AcDbCircle
 10
270.9533482496
 20
76.7827540067
 30
0.0
 40
1.114056993456251
100
AcDbArc
 50
102.2859836741
 51
116.8563721014
  0
LINE
  5
34A
330
1F
100
AcDbEntity
  8
0
  6
Continuous
 62
     8
370
     0
100
AcDbLine
 10
327.7409047421
 20
104.8740276236
 30
0.0
 11
327.7807978507
 21
146.5547203601
 31
0.0
  0
LINE
  5
34B
330
1F
100
AcDbEntity
  8
0
  6
Continuous
 62
     8
370
     0
100
AcDbLine
 10
327.7807978507
 20
146.5547203601
 30
0.0
 11
356.324481973
 21
153.0297464798
 31
0.0
  0
LINE
  5
34C
330
1F
100
AcDbEntity
  8
0
  6
Continuous
 62
     8
370
     0
100
AcDbLine
 10
356.324481973
 20
153.0297464798
 30
0.0
 11
356.2473671687
 21
72.4594783986
 31
0.0
  0
LINE
  5
34D
330
1F
100
AcDbEntity
  8
0
  6
Continuous
 62
     8
370
     0
100
AcDbLine
 10
356.2473671687
 20
72.4594783986
 30
0.0
 11
282.6794192412
 21
55.7708693751
 31
0.0
  0
LINE
  5
34E
330
1F
100
AcDbEntity
  8
0
  6
Continuous
 62
     8
370
     0
100
AcDbLine
 10
282.6794192412
 20
55.7708693751
 30
0.0
 11
282.7093390723
 21
87.0313884942
 31
0.0
  0
LINE
  5
34F
330
1F
100
AcDbEntity
  8
0
  6
Continuous
 62
     8
370
     0
100
AcDbLine
 10
282.7093390723
 20
87.0313884942
 30
0.0
 11
320.7675856235
 21
95.6647568931
 31
0.0
  0
LINE
  5
350
330
1F
100
AcDbEntity
  8
0
  6
Continuous
 62
     8
370
     0
100
AcDbLine
 10
281.0568477863
 20
87.1762672074
 30
0.0
 11
281.0269243742
 21
55.9120066406
 31
0.0
  0
LINE
  5
351
330
1F
100
AcDbEntity
  8
0
  6
Continuous
 62
     8
370
     0
100
AcDbLine
 10
281.9063638995
 20
87.3689767048
 30
0.0
 11
281.0568477863
 21
87.1762672074
 31
0.0
  0
LINE
  5
352
330
1F
100
AcDbEntity
  8
0
  6
Continuous
 62
     8
370
     0
100
AcDbLine
 10
282.0747306974
 20
87.5913344248
 30
0.0
 11
282.0756211671
 21
88.5217054446
 31
0.0
  0
LINE
  5
353
330
1F
100
AcDbEntity
  8
0
  6
Continuous
 62
     8
370
     0
100
AcDbLine
 10
320.1355766496
 20
97.1554615081
 30
0.0
 11
282.0756211671
 21
88.5217054446
 31
0.0
  0
LINE
  5
354
330
1F
100
AcDbEntity
  8
0
  6
Continuous
 62
     8
370
     0
100
AcDbLine
 10
326.1283049824
 20
146.6995987143
 30
0.0
 11
326.0884100824
 21
105.0170343875
 31
0.0
  0
LINE
  5
355
330
1F
100
AcDbEntity
  8
0
  6
Continuous
 62
     8
370
     0
100
AcDbLine
 10
326.9778195133
 20
146.8923078528
 30
0.0
 11
326.1283049824
 21
146.6995987143
 31
0.0
  0
LINE
  5
356
330
1F
100
AcDbEntity
  8
0
  6
Continuous
 62
     8
370
     0
100
AcDbLine
 10
327.1461910532
 20
147.1146614508
 30
0.0
 11
327.1470815262
 21
148.0450359364
 31
0.0
  0
LINE
  5
357
330
1F
100
AcDbEntity
  8
0
  6
Continuous
 62
     8
370
     0
100
AcDbLine
 10
355.6941803465
 20
154.5208366674
 30
0.0
 11
327.1470815262
 21
148.0450359364
 31
0.0
  0
LINE
  5
358
330
1F
100
AcDbEntity
  8
0
  6
Continuous
 62
     8
370
     0
100
AcDbLine
 10
282.0442111274
 20
55.7042025303
 30
0.0
 11
282.0435642055
 21
55.0282924121
 31
0.0
  0
LINE
  5
359
330
1F
100
AcDbEntity
  8
0
  6
Continuous
 62
     8
370
     0
100
AcDbLine
 10
308.1996979121
 20
95.0980725236
 30
0.0
 11
308.2004388013
 21
95.8721605518
 31
0.0
  0
LINE
  5
35A
330
1F
100
AcDbEntity
  8
0
  6
Continuous
 62
     8
370
     0
100
AcDbLine
 10
356.2664505546
 20
153.5363223462
 30
0.0
 11
356.7108233457
 21
153.6371266228
 31
0.0
  0
LINE
  5
35B
330
1F
100
AcDbEntity
  8
0
  6
Continuous
 62
     8
370
     0
100
AcDbLine
 10
314.0112280064
 20
154.5577906636
 30
0.0
 11
314.0113591643
 21
154.694825735
 31
0.0
  0
LINE
  5
35C
330
1F
100
AcDbEntity
  8
0
  6
Continuous
 62
     8
370
     0
100
AcDbLine
 10
314.0113591643
 20
154.694825735
 30
0.0
 11
314.2372498269
 21
154.7460681721
 31
0.0
  0
LINE
  5
35D
330
1F
100
AcDbEntity
  8
0
  6
Continuous
 62
     8
370
     0
100
AcDbLine
 10
342.5523294067
 20
158.334364775
 30
0.0
 11
342.5521014642
 21
158.0962083712
 31
0.0
  0
LINE
  5
35E
330
1F
100
AcDbEntity
  8
0
  6
Continuous
 62
     8
370
     0
100
AcDbLine
 10
273.3551515633
 20
64.9193448771
 30
0.0
 11
272.435923709
 21
64.7108215365
 31
0.0
  0
LINE
  5
35F
330
1F
100
AcDbEntity
  8
0
  6
Continuous
 62
     8
370
     0
100
AcDbLine
 10
268.9397692279
 20
95.0344587977
 30
0.0
 11
268.9399003859
 21
95.1714938691
 31
0.0
  0
LINE
  5
360
330
1F
100
AcDbEntity
  8
0
  6
Continuous
 62
     8
370
     0
100
AcDbLine
 10
268.9399003859
 20
95.1714938691
 30
0.0
 11
269.1657957954
 21
95.2227373831
 31
0.0
  0
LINE
  5
361
330
1F
100
AcDbEntity
  8
0
  6
Continuous
 62
     8
370
     0
100
AcDbLine
 10
268.8755155116
 20
95.0724482419
 30
0.0
 11
268.0259993984
 21
94.8797387444
 31
0.0
  0
LINE
  5
362
330
1F
100
AcDbEntity
  8
0
  6
Continuous
 62
     8
370
     0
100
AcDbLine
 10
268.0259993984
 20
94.8797387444
 30
0.0
 11
267.9960759863
 21
63.6154781776
 31
0.0
  0
LINE
  5
363
330
1F
100
AcDbEntity
  8
0
  6
Continuous
 62
     8
370
     0
100
AcDbLine
 10
307.1047282617
 20
104.8589330451
 30
0.0
 11
269.0447727792
 21
96.2251769816
 31
0.0
  0
LINE
  5
364
330
1F
100
AcDbEntity
  8
0
  6
Continuous
 62
     8
370
     0
100
AcDbLine
 10
269.0438823095
 20
95.2948059619
 30
0.0
 11
269.0447727792
 21
96.2251769816
 31
0.0
  0
LINE
  5
365
330
1F
100
AcDbEntity
  8
0
  6
Continuous
 62
     8
370
     0
100
AcDbLine
 10
313.0974565945
 20
154.4030702514
 30
0.0
 11
313.0575616945
 21
112.7205059246
 31
0.0
  0
LINE
  5
366
330
1F
100
AcDbEntity
  8
0
  6
Continuous
 62
     8
370
     0
100
AcDbLine
 10
313.9469711254
 20
154.5957793898
 30
0.0
 11
313.0974565945
 21
154.4030702514
 31
0.0
  0
LINE
  5
367
330
1F
100
AcDbEntity
  8
0
  6
Continuous
 62
     8
370
     0
100
AcDbLine
 10
342.6633319586
 20
162.2243082045
 30
0.0
 11
314.1162331383
 21
155.7485074735
 31
0.0
  0
LINE
  5
368
330
1F
100
AcDbEntity
  8
0
  6
Continuous
 62
     8
370
     0
100
AcDbLine
 10
314.1153426653
 20
154.8181329878
 30
0.0
 11
314.1162331383
 21
155.7485074735
 31
0.0
  0
LINE
  5
369
330
1F
100
AcDbEntity
  8
0
  6
Continuous
 62
     8
370
     0
100
AcDbLine
 10
284.8527846165
 20
98.3199703247
 30
0.0
 11
284.8536750861
 21
99.2503413444
 31
0.0
  0
LINE
  5
36A
330
1F
100
AcDbEntity
  8
0
  6
Continuous
 62
     8
370
     0
100
AcDbLine
 10
272.4356654039
 20
64.4384177895
 30
0.0
 11
273.5957576407
 21
64.7015802986
 31
0.0
  0
LINE
  5
36B
330
1F
100
AcDbEntity
  8
0
  6
Continuous
 62
     8
370
     0
100
AcDbLine
 10
269.0129862434
 20
63.0143073705
 30
0.0
 11
269.0127158176
 21
62.7317639492
 31
0.0
  0
LINE
  5
36C
330
1F
100
AcDbEntity
  8
0
  6
Continuous
 62
     8
370
     0
100
AcDbLine
 10
295.8964687704
 20
100.8251880481
 30
0.0
 11
295.8973592401
 21
101.7555590679
 31
0.0
  0
LINE
  5
36D
330
1F
100
AcDbEntity
  8
0
  6
Continuous
 62
     8
370
     0
100
AcDbLine
 10
298.6507552865
 20
100.7209829633
 30
0.0
 11
298.6515173698
 21
101.5172146778
 31
0.0
  0
LINE
  5
36E
330
1F
100
AcDbEntity
  8
0
  6
Continuous
 62
     8
370
     0
100
AcDbLine
 10
342.8274219993
 20
157.9733113645
 30
0.0
 11
342.8278273888
 21
158.3968661202
 31
0.0
  0
LINE
  5
36F
330
1F
100
AcDbEntity
  8
0
  6
Continuous
 62
     8
370
     0
100
AcDbLine
 10
274.4210427184
 20
88.2482862536
 30
0.0
 11
274.6320684829
 21
88.1235337492
 31
0.0
  0
LINE
  5
370
330
1F
100
AcDbEntity
  8
0
  6
Continuous
 62
     8
370
     0
100
AcDbLine
 10
274.4018975876
 20
68.2452746696
 30
0.0
 11
274.6129233521
 21
68.1205221653
 31
0.0
  0
LINE
  5
371
330
1F
100
AcDbEntity
  8
0
  6
Continuous
 62
     8
370
     0
100
AcDbLine
 10
322.4698086837
 20
152.6327764454
 30
0.0
 11
322.6808344482
 21
152.5080239411
 31
0.0
  0
LINE
  5
372
330
1F
100
AcDbEntity
  8
0
  6
Continuous
 62
     8
370
     0
100
AcDbLine
 10
319.2792144396
 20
148.0156963763
 30
0.0
 11
319.0681886751
 21
148.1404488806
 31
0.0
  0
LINE
  5
373
330
1F
100
AcDbEntity
  8
0
  6
Continuous
 62
     8
370
     0
100
AcDbLine
 10
319.0668529656
 20
146.7448871521
 30
0.0
 11
319.2778787301
 21
146.6201346478
 31
0.0
  0
LINE
  5
374
330
1F
100
AcDbEntity
  8
0
  6
Continuous
 62
     8
370
     0
100
AcDbLine
 10
343.0691800238
 20
157.1330425467
 30
0.0
 11
342.8581542593
 21
157.2577950511
 31
0.0
  0
LINE
  5
375
330
1F
100
AcDbEntity
  8
0
  6
Continuous
 62
     8
370
     0
100
AcDbLine
 10
326.7931189253
 20
97.463184169
 30
0.0
 11
326.8001633917
 21
104.8233084606
 31
0.0
  0
LINE
  5
376
330
1F
100
AcDbEntity
  8
0
  6
Continuous
 62
     8
370
     0
100
AcDbLine
 10
317.5300905544
 20
147.9607873686
 30
0.0
 11
318.2182289078
 21
147.4825524993
 31
0.0
  0
LWPOLYLINE
  5
377
330
1F
100
AcDbEntity
  8
0
  6
Continuous
 62
     8
370
     0
100
AcDbPolyline
 90
        3
 70
   128
 43
0.0
 10
317.1181289557
 20
153.0429717889
 10
316.9958577796
 20
152.9074825621
 10
316.9308869168
 20
152.8317712927
  0
LINE
  5
378
330
1F
100
AcDbEntity
  8
0
  6
Continuous
 62
     8
370
     0
100
AcDbLine
 10
321.4900932002
 20
153.5564825784
 30
0.0
 11
322.4702539202
 21
153.0979636883
 31
0.0
  0
LINE
  5
379
330
1F
100
AcDbEntity
  8
0
  6
Continuous
 62
     8
370
     0
100
AcDbLine
 10
315.5579279337
 20
111.2423591512
 30
0.0
 11
315.5515272437
 21
104.5548584305
 31
0.0
  0
LINE
  5
37A
330
1F
100
AcDbEntity
  8
0
  6
Continuous
 62
     8
370
     0
100
AcDbLine
 10
341.0289242449
 20
157.9887920456
 30
0.0
 11
342.0090849649
 21
157.5302731554
 31
0.0
  0
LINE
  5
37B
330
1F
100
AcDbEntity
  8
0
  6
Continuous
 62
     8
370
     0
100
AcDbLine
 10
321.3823301267
 20
101.5188233532
 30
0.0
 11
316.0539269327
 21
104.6688256494
 31
0.0
  0
LINE
  5
37C
330
1F
100
AcDbEntity
  8
0
  6
Continuous
 62
     8
370
     0
100
AcDbLine
 10
316.4791302258
 20
105.2303676409
 30
0.0
 11
321.8075334198
 21
102.0803653447
 31
0.0
  0
ELLIPSE
  5
37D
330
1F
100
AcDbEntity
  8
0
  6
Continuous
 62
     8
370
     0
100
AcDbEllipse
 10
305.5249781873
 20
94.5448448582
 30
0.0
 11
2.499208422895379
 21
-0.1348786549400529
 31
0.0
210
0.0
220
0.0
230
1.0
 40
0.4347570367
 41
0.4737634604804613
 42
0.5791242658226216
  0
LINE
  5
37E
330
1F
100
AcDbEntity
  8
0
  6
Continuous
 62
     8
370
     0
100
AcDbLine
 10
306.0892892129
 20
96.189315447
 30
0.0
 11
307.6487627783
 21
95.026617393
 31
0.0
  0
ARC
  5
37F
330
1F
100
AcDbEntity
  8
0
  6
Continuous
 62
     8
370
     0
100
AcDbCircle
 10
307.5545290494
 20
95.4413915881
 30
0.0
 40
0.4253441296628831
100
AcDbArc
 50
279.1218261339
 51
282.799913804
  0
LINE
  5
380
330
1F
100
AcDbEntity
  8
0
  6
Continuous
 62
     8
370
     0
100
AcDbLine
 10
273.1472370558
 20
88.4421110783
 30
0.0
 11
272.4589954032
 21
88.8176316761
 31
0.0
  0
ELLIPSE
  5
381
330
1F
100
AcDbEntity
  8
0
  6
Continuous
 62
     8
370
     0
100
AcDbEllipse
 10
274.6910787342
 20
90.8579304466
 30
0.0
 11
2.504824848662564
 21
4.32797139655554
 31
0.0
210
0.0
220
0.0
230
1.0
 40
0.8085349455999999
 41
1.373078600147939
 42
1.429236620404089
  0
LINE
  5
382
330
1F
100
AcDbEntity
  8
0
  6
Continuous
 62
     8
370
     0
100
AcDbLine
 10
277.1037424752
 20
94.1885633832
 30
0.0
 11
277.3830751517
 21
94.0361503125
 31
0.0
  0
LINE
  5
383
330
1F
100
AcDbEntity
  8
0
  6
Continuous
 62
     8
370
     0
100
AcDbLine
 10
297.9560568494
 20
100.8346406026
 30
0.0
 11
284.85133817
 21
97.8618850404
 31
0.0
  0
LINE
  5
384
330
1F
100
AcDbEntity
  8
0
  6
Continuous
 62
     8
370
     0
100
AcDbLine
 10
272.4387172378
 20
67.630814946
 30
0.0
 11
273.1267223334
 21
67.0081374146
 31
0.0
  0
LINE
  5
385
330
1F
100
AcDbEntity
  8
0
100
AcDbLine
 10
195.7344124709
 20
355.4063710829
 30
0.0
 11
229.3344131355
 21
355.4063710829
 31
0.0
  0
ELLIPSE
  5
386
330
1F
100
AcDbEntity
  8
0
100
AcDbEllipse
 10
195.7344128554
 20
356.6063713482
 30
0.0
 11
0.0
 21
1.199999999999989
 31
0.0
210
0.0
220
0.0
230
1.0
 40
0.0016750844
 41
1.570796326794897
 42
3.141592653612255
  0
ELLIPSE
  5
387
330
1F
100
AcDbEntity
  8
0
100
AcDbEllipse
 10
229.3344128554
 20
356.6063713482
 30
0.0
 11
0.0
 21
1.199999999999989
 31
0.0
210
0.0
220
0.0
230
1.0
 40
0.0016750844
 41
3.14159265358972
 42
4.71238898038469
  0
LINE
  5
388
330
1F
100
AcDbEntity
  8
0
100
AcDbLine
 10
195.7324026768
 20
356.6063709071
 30
0.0
 11
195.7324026768
 21
363.4063714629
 31
0.0
  0
LINE
  5
389
330
1F
100
AcDbEntity
  8
0
100
AcDbLine
 10
195.7324026768
 20
363.4063714629
 30
0.0
 11
229.3364229296
 21
363.4063714629
 31
0.0
  0
LINE
  5
38A
330
1F
100
AcDbEntity
  8
0
100
AcDbLine
 10
229.3364229296
 20
363.4063714629
 30
0.0
 11
229.3364229296
 21
356.6063709071
 31
0.0
  0
ARC
  5
38B
330
1F
100
AcDbEntity
  8
0
100
AcDbCircle
 10
229.3344128554
 20
356.6063713482
 30
0.0
 40
0.2000000000000171
100
AcDbArc
 50
270.0
 51
0.0
  0
ARC
  5
38C
330
1F
100
AcDbEntity
  8
0
100
AcDbCircle
 10
229.3344128554
 20
356.6063713482
 30
0.0
 40
1.200000000000017
100
AcDbArc
 50
270.0
 51
0.0
  0
ARC
  5
38D
330
1F
100
AcDbEntity
  8
0
100
AcDbCircle
 10
195.7344128554
 20
356.6063713482
 30
0.0
 40
0.1999999999999886
100
AcDbArc
 50
180.0
 51
270.0
  0
ARC
  5
38E
330
1F
100
AcDbEntity
  8
0
100
AcDbCircle
 10
195.7344128554
 20
356.6063713482
 30
0.0
 40
1.199999999999989
100
AcDbArc
 50
180.0
 51
270.0
  0
LINE
  5
38F
330
1F
100
AcDbEntity
  8
0
100
AcDbLine
 10
195.5344128107
 20
363.4063714629
 30
0.0
 11
195.5344128107
 21
356.6063709071
 31
0.0
  0
LINE
  5
390
330
1F
100
AcDbEntity
  8
0
100
AcDbLine
 10
195.5344128107
 20
363.4063714629
 30
0.0
 11
194.5344126468
 21
363.4063714629
 31
0.0
  0
LINE
  5
391
330
1F
100
AcDbEntity
  8
0
100
AcDbLine
 10
194.5344126468
 20
363.4063714629
 30
0.0
 11
194.5344126468
 21
356.6063709071
 31
0.0
  0
LINE
  5
392
330
1F
100
AcDbEntity
  8
0
100
AcDbLine
 10
229.5344127958
 20
363.4063714629
 30
0.0
 11
230.5344129597
 21
363.4063714629
 31
0.0
  0
LINE
  5
393
330
1F
100
AcDbEntity
  8
0
100
AcDbLine
 10
229.5344127958
 20
356.6063709071
 30
0.0
 11
229.5344127958
 21
363.4063714629
 31
0.0
  0
LINE
  5
394
330
1F
100
AcDbEntity
  8
0
100
AcDbLine
 10
230.5344129597
 20
356.6063709071
 30
0.0
 11
230.5344129597
 21
363.4063714629
 31
0.0
  0
LINE
  5
395
330
1F
100
AcDbEntity
  8
0
100
AcDbLine
 10
187.534413362
 20
356.6063709071
 30
0.0
 11
187.534413362
 21
355.4063710829
 31
0.0
  0
ELLIPSE
  5
396
330
1F
100
AcDbEntity
  8
0
100
AcDbEllipse
 10
142.7344128554
 20
356.6063713482
 30
0.0
 11
0.0
 21
1.199999999999989
 31
0.0
210
0.0
220
0.0
230
1.0
 40
0.0016750844
 41
1.570796326794897
 42
3.14159265358972
  0
LINE
  5
397
330
1F
100
AcDbEntity
  8
0
100
AcDbLine
 10
142.7344112341
 20
355.4063710829
 30
0.0
 11
187.534413362
 21
355.4063710829
 31
0.0
  0
LINE
  5
398
330
1F
100
AcDbEntity
  8
0
100
AcDbLine
 10
158.5344141965
 20
359.9063708892
 30
0.0
 11
158.5344141965
 21
363.4063714629
 31
0.0
  0
ARC
  5
399
330
1F
100
AcDbEntity
  8
0
100
AcDbCircle
 10
160.5344128554
 20
359.9063713482
 30
0.0
 40
2.0
100
AcDbArc
 50
180.0
 51
270.0
  0
LINE
  5
39A
330
1F
100
AcDbEntity
  8
0
100
AcDbLine
 10
173.5344110672
 20
357.9063714927
 30
0.0
 11
160.5344145243
 21
357.9063714927
 31
0.0
  0
ARC
  5
39B
330
1F
100
AcDbEntity
  8
0
100
AcDbCircle
 10
173.5344128554
 20
359.9063713482
 30
0.0
 40
2.0
100
AcDbArc
 50
270.0
 51
0.0
  0
LINE
  5
39C
330
1F
100
AcDbEntity
  8
0
100
AcDbLine
 10
175.5344113951
 20
363.4063714629
 30
0.0
 11
175.5344113951
 21
359.9063708892
 31
0.0
  0
LINE
  5
39D
330
1F
100
AcDbEntity
  8
0
100
AcDbLine
 10
175.5344113951
 20
363.4063714629
 30
0.0
 11
187.534413362
 21
363.4063714629
 31
0.0
  0
LINE
  5
39E
330
1F
100
AcDbEntity
  8
0
100
AcDbLine
 10
187.534413362
 20
356.6063709071
 30
0.0
 11
187.534413362
 21
363.4063714629
 31
0.0
  0
LINE
  5
39F
330
1F
100
AcDbEntity
  8
0
100
AcDbLine
 10
142.7323995774
 20
363.4063714629
 30
0.0
 11
158.5344141965
 21
363.4063714629
 31
0.0
  0
LINE
  5
3A0
330
1F
100
AcDbEntity
  8
0
100
AcDbLine
 10
142.7323995774
 20
356.6063709071
 30
0.0
 11
142.7323995774
 21
363.4063714629
 31
0.0
  0
ARC
  5
3A1
330
1F
100
AcDbEntity
  8
0
100
AcDbCircle
 10
142.7344128554
 20
356.6063713482
 30
0.0
 40
0.2000000000000171
100
AcDbArc
 50
180.0
 51
270.0
  0
ARC
  5
3A2
330
1F
100
AcDbEntity
  8
0
100
AcDbCircle
 10
142.7344128554
 20
356.6063713482
 30
0.0
 40
1.200000000000017
100
AcDbArc
 50
180.0
 51
270.0
  0
LINE
  5
3A3
330
1F
100
AcDbEntity
  8
0
100
AcDbLine
 10
141.5344132726
 20
363.4063714629
 30
0.0
 11
141.5344132726
 21
356.6063709071
 31
0.0
  0
LINE
  5
3A4
330
1F
100
AcDbEntity
  8
0
100
AcDbLine
 10
142.5344152992
 20
363.4063714629
 30
0.0
 11
141.5344132726
 21
363.4063714629
 31
0.0
  0
LINE
  5
3A5
330
1F
100
AcDbEntity
  8
0
100
AcDbLine
 10
142.5344152992
 20
363.4063714629
 30
0.0
 11
142.5344152992
 21
356.6063709071
 31
0.0
  0
LINE
  5
3A6
330
1F
100
AcDbEntity
  8
0
100
AcDbLine
 10
187.534413362
 20
356.4063712469
 30
0.0
 11
194.5511969422
 21
356.4063712469
 31
0.0
  0
LINE
  5
3A7
330
1F
100
AcDbEntity
  8
0
100
AcDbLine
 10
187.534413362
 20
355.4063710829
 30
0.0
 11
195.7344124709
 21
355.4063710829
 31
0.0
  0
LINE
  5
3A8
330
1F
100
AcDbEntity
  8
0
100
AcDbLine
 10
195.7324026768
 20
363.4063714629
 30
0.0
 11
195.5344128107
 21
363.4063714629
 31
0.0
  0
LINE
  5
3A9
330
1F
100
AcDbEntity
  8
0
100
AcDbLine
 10
194.5344126468
 20
363.4063714629
 30
0.0
 11
190.9906687831
 21
363.4063714629
 31
0.0
  0
LINE
  5
3AA
330
1F
100
AcDbEntity
  8
0
100
AcDbLine
 10
195.7324026768
 20
374.5063712335
 30
0.0
 11
229.3364229296
 21
374.5063712335
 31
0.0
  0
LINE
  5
3AB
330
1F
100
AcDbEntity
  8
0
100
AcDbLine
 10
195.7324026768
 20
381.3063717893
 30
0.0
 11
195.7324026768
 21
374.5063712335
 31
0.0
  0
LINE
  5
3AC
330
1F
100
AcDbEntity
  8
0
100
AcDbLine
 10
229.3364229296
 20
374.5063712335
 30
0.0
 11
229.3364229296
 21
381.3063717893
 31
0.0
  0
ELLIPSE
  5
3AD
330
1F
100
AcDbEntity
  8
0
100
AcDbEllipse
 10
195.7344128554
 20
381.3063713482
 30
0.0
 11
0.0
 21
1.199999999999989
 31
0.0
210
0.0
220
0.0
230
1.0
 40
0.0016750844
 41
0.0
 42
1.570796326794897
  0
LINE
  5
3AE
330
1F
100
AcDbEntity
  8
0
100
AcDbLine
 10
195.7344124709
 20
382.5063716134
 30
0.0
 11
229.3344131355
 21
382.5063716134
 31
0.0
  0
ELLIPSE
  5
3AF
330
1F
100
AcDbEntity
  8
0
100
AcDbEllipse
 10
229.3344128554
 20
381.3063713482
 30
0.0
 11
0.0
 21
1.199999999999989
 31
0.0
210
0.0
220
0.0
230
1.0
 40
0.0016750844
 41
4.71238898038469
 42
6.283185307179586
  0
LINE
  5
3B0
330
1F
100
AcDbEntity
  8
0
100
AcDbLine
 10
229.5344127958
 20
381.3063717893
 30
0.0
 11
229.5344127958
 21
374.5063712335
 31
0.0
  0
LINE
  5
3B1
330
1F
100
AcDbEntity
  8
0
100
AcDbLine
 10
230.5344129597
 20
381.3063717893
 30
0.0
 11
230.5344129597
 21
374.5063712335
 31
0.0
  0
LINE
  5
3B2
330
1F
100
AcDbEntity
  8
0
100
AcDbLine
 10
229.5344127958
 20
374.5063712335
 30
0.0
 11
230.5344129597
 21
374.5063712335
 31
0.0
  0
LINE
  5
3B3
330
1F
100
AcDbEntity
  8
0
100
AcDbLine
 10
194.5344126468
 20
374.5063712335
 30
0.0
 11
194.5344126468
 21
381.3063717893
 31
0.0
  0
LINE
  5
3B4
330
1F
100
AcDbEntity
  8
0
100
AcDbLine
 10
195.5344128107
 20
374.5063712335
 30
0.0
 11
195.5344128107
 21
381.3063717893
 31
0.0
  0
LINE
  5
3B5
330
1F
100
AcDbEntity
  8
0
100
AcDbLine
 10
195.5344128107
 20
374.5063712335
 30
0.0
 11
194.5344126468
 21
374.5063712335
 31
0.0
  0
ARC
  5
3B6
330
1F
100
AcDbEntity
  8
0
100
AcDbCircle
 10
229.3344128554
 20
381.3063713482
 30
0.0
 40
1.200000000000017
100
AcDbArc
 50
0.0
 51
90.0
  0
ARC
  5
3B7
330
1F
100
AcDbEntity
  8
0
100
AcDbCircle
 10
229.3344128554
 20
381.3063713482
 30
0.0
 40
0.2000000000000171
100
AcDbArc
 50
0.0
 51
90.0
  0
ARC
  5
3B8
330
1F
100
AcDbEntity
  8
0
100
AcDbCircle
 10
195.7344128554
 20
381.3063713482
 30
0.0
 40
1.199999999999989
100
AcDbArc
 50
90.0
 51
180.0
  0
ARC
  5
3B9
330
1F
100
AcDbEntity
  8
0
100
AcDbCircle
 10
195.7344128554
 20
381.3063713482
 30
0.0
 40
0.1999999999999886
100
AcDbArc
 50
90.0
 51
180.0
  0
LINE
  5
3BA
330
1F
100
AcDbEntity
  8
0
100
AcDbLine
 10
142.7323995774
 20
381.3063717893
 30
0.0
 11
142.7323995774
 21
374.5063712335
 31
0.0
  0
LINE
  5
3BB
330
1F
100
AcDbEntity
  8
0
100
AcDbLine
 10
187.534413362
 20
381.3063717893
 30
0.0
 11
187.534413362
 21
374.5063712335
 31
0.0
  0
LINE
  5
3BC
330
1F
100
AcDbEntity
  8
0
100
AcDbLine
 10
175.5344113951
 20
374.5063712335
 30
0.0
 11
187.534413362
 21
374.5063712335
 31
0.0
  0
LINE
  5
3BD
330
1F
100
AcDbEntity
  8
0
100
AcDbLine
 10
175.5344113951
 20
374.5063712335
 30
0.0
 11
175.5344113951
 21
378.0063718071
 31
0.0
  0
ARC
  5
3BE
330
1F
100
AcDbEntity
  8
0
100
AcDbCircle
 10
173.5344128554
 20
378.0063713482
 30
0.0
 40
2.0
100
AcDbArc
 50
0.0
 51
90.0
  0
LINE
  5
3BF
330
1F
100
AcDbEntity
  8
0
100
AcDbLine
 10
173.5344110672
 20
380.0063712036
 30
0.0
 11
160.5344145243
 21
380.0063712036
 31
0.0
  0
ARC
  5
3C0
330
1F
100
AcDbEntity
  8
0
100
AcDbCircle
 10
160.5344128554
 20
378.0063713482
 30
0.0
 40
2.0
100
AcDbArc
 50
90.0
 51
180.0
  0
LINE
  5
3C1
330
1F
100
AcDbEntity
  8
0
100
AcDbLine
 10
158.5344141965
 20
378.0063718071
 30
0.0
 11
158.5344141965
 21
374.5063712335
 31
0.0
  0
LINE
  5
3C2
330
1F
100
AcDbEntity
  8
0
100
AcDbLine
 10
142.7323995774
 20
374.5063712335
 30
0.0
 11
158.5344141965
 21
374.5063712335
 31
0.0
  0
ELLIPSE
  5
3C3
330
1F
100
AcDbEntity
  8
0
100
AcDbEllipse
 10
142.7344128554
 20
381.3063713482
 30
0.0
 11
0.0
 21
1.199999999999989
 31
0.0
210
0.0
220
0.0
230
1.0
 40
0.0016750844
 41
0.0
 42
1.570796326794897
  0
LINE
  5
3C4
330
1F
100
AcDbEntity
  8
0
100
AcDbLine
 10
187.534413362
 20
381.3063717893
 30
0.0
 11
187.534413362
 21
382.5063716134
 31
0.0
  0
LINE
  5
3C5
330
1F
100
AcDbEntity
  8
0
100
AcDbLine
 10
142.7344112341
 20
382.5063716134
 30
0.0
 11
187.534413362
 21
382.5063716134
 31
0.0
  0
LINE
  5
3C6
330
1F
100
AcDbEntity
  8
0
100
AcDbLine
 10
141.5344132726
 20
374.5063712335
 30
0.0
 11
141.5344132726
 21
381.3063717893
 31
0.0
  0
LINE
  5
3C7
330
1F
100
AcDbEntity
  8
0
100
AcDbLine
 10
142.5344152992
 20
374.5063712335
 30
0.0
 11
142.5344152992
 21
381.3063717893
 31
0.0
  0
LINE
  5
3C8
330
1F
100
AcDbEntity
  8
0
100
AcDbLine
 10
142.5344152992
 20
374.5063712335
 30
0.0
 11
141.5344132726
 21
374.5063712335
 31
0.0
  0
ARC
  5
3C9
330
1F
100
AcDbEntity
  8
0
100
AcDbCircle
 10
142.7344128554
 20
381.3063713482
 30
0.0
 40
1.200000000000017
100
AcDbArc
 50
90.0
 51
180.0
  0
ARC
  5
3CA
330
1F
100
AcDbEntity
  8
0
100
AcDbCircle
 10
142.7344128554
 20
381.3063713482
 30
0.0
 40
0.2000000000000171
100
AcDbArc
 50
90.0
 51
180.0
  0
LINE
  5
3CB
330
1F
100
AcDbEntity
  8
0
100
AcDbLine
 10
187.534413362
 20
381.5063714495
 30
0.0
 11
194.5511969422
 21
381.5063714495
 31
0.0
  0
LINE
  5
3CC
330
1F
100
AcDbEntity
  8
0
100
AcDbLine
 10
187.534413362
 20
382.5063716134
 30
0.0
 11
195.7344124709
 21
382.5063716134
 31
0.0
  0
LINE
  5
3CD
330
1F
100
AcDbEntity
  8
0
100
AcDbLine
 10
195.7324026768
 20
374.5063712335
 30
0.0
 11
195.5344128107
 21
374.5063712335
 31
0.0
  0
LINE
  5
3CE
330
1F
100
AcDbEntity
  8
0
100
AcDbLine
 10
194.5344126468
 20
374.5063712335
 30
0.0
 11
190.9906687831
 21
374.5063712335
 31
0.0
  0
LINE
  5
3CF
330
1F
100
AcDbEntity
  8
0
100
AcDbLine
 10
144.5344119017
 20
374.0063711515
 30
0.0
 11
144.5344119017
 21
373.6063713653
 31
0.0
  0
LINE
  5
3D0
330
1F
100
AcDbEntity
  8
0
100
AcDbLine
 10
150.0344155972
 20
374.0063711515
 30
0.0
 11
151.0959668701
 21
374.0063711515
 31
0.0
  0
LINE
  5
3D1
330
1F
100
AcDbEntity
  8
0
100
AcDbLine
 10
144.5344119017
 20
373.6063713653
 30
0.0
 11
153.5344152396
 21
373.6063713653
 31
0.0
  0
LINE
  5
3D2
330
1F
100
AcDbEntity
  8
0
100
AcDbLine
 10
144.5344119017
 20
364.3063713311
 30
0.0
 11
144.5344119017
 21
363.9063715449
 31
0.0
  0
LINE
  5
3D3
330
1F
100
AcDbEntity
  8
0
100
AcDbLine
 10
144.5344119017
 20
364.3063713311
 30
0.0
 11
153.5344152396
 21
364.3063713311
 31
0.0
  0
LINE
  5
3D4
330
1F
100
AcDbEntity
  8
0
100
AcDbLine
 10
201.0344127809
 20
373.6063713653
 30
0.0
 11
197.0344121252
 21
373.6063713653
 31
0.0
  0
LINE
  5
3D5
330
1F
100
AcDbEntity
  8
0
100
AcDbLine
 10
197.0344121252
 20
373.6063713653
 30
0.0
 11
197.0344121252
 21
374.0063711515
 31
0.0
  0
LINE
  5
3D6
330
1F
100
AcDbEntity
  8
0
100
AcDbLine
 10
201.0344127809
 20
373.6063713653
 30
0.0
 11
225.0344129895
 21
373.6063713653
 31
0.0
  0
LINE
  5
3D7
330
1F
100
AcDbEntity
  8
0
100
AcDbLine
 10
210.0344123934
 20
374.0063711515
 30
0.0
 11
215.0344127473
 21
374.0063711515
 31
0.0
  0
LINE
  5
3D8
330
1F
100
AcDbEntity
  8
0
100
AcDbLine
 10
229.0344127138
 20
374.0063711515
 30
0.0
 11
229.0344127138
 21
373.6063713653
 31
0.0
  0
LINE
  5
3D9
330
1F
100
AcDbEntity
  8
0
100
AcDbLine
 10
229.0344127138
 20
373.6063713653
 30
0.0
 11
225.0344129895
 21
373.6063713653
 31
0.0
  0
LINE
  5
3DA
330
1F
100
AcDbEntity
  8
0
100
AcDbLine
 10
227.241383927
 20
374.0063711515
 30
0.0
 11
229.0344127138
 21
374.0063711515
 31
0.0
  0
LINE
  5
3DB
330
1F
100
AcDbEntity
  8
0
100
AcDbLine
 10
197.0344121252
 20
363.9063715449
 30
0.0
 11
197.0344121252
 21
364.3063713311
 31
0.0
  0
LINE
  5
3DC
330
1F
100
AcDbEntity
  8
0
100
AcDbLine
 10
197.0344121252
 20
364.3063713311
 30
0.0
 11
201.0344127809
 21
364.3063713311
 31
0.0
  0
LINE
  5
3DD
330
1F
100
AcDbEntity
  8
0
100
AcDbLine
 10
229.0344127138
 20
364.3063713311
 30
0.0
 11
229.0344127138
 21
363.9063715449
 31
0.0
  0
LINE
  5
3DE
330
1F
100
AcDbEntity
  8
0
100
AcDbLine
 10
229.0344127138
 20
363.9063715449
 30
0.0
 11
227.241383927
 21
363.9063715449
 31
0.0
  0
LINE
  5
3DF
330
1F
100
AcDbEntity
  8
0
100
AcDbLine
 10
225.0344129895
 20
364.3063713311
 30
0.0
 11
229.0344127138
 21
364.3063713311
 31
0.0
  0
LINE
  5
3E0
330
1F
100
AcDbEntity
  8
0
100
AcDbLine
 10
210.0344123934
 20
363.9063715449
 30
0.0
 11
215.0344127473
 21
363.9063715449
 31
0.0
  0
LINE
  5
3E1
330
1F
100
AcDbEntity
  8
0
100
AcDbLine
 10
201.0344127809
 20
364.3063713311
 30
0.0
 11
225.0344129895
 21
364.3063713311
 31
0.0
  0
LINE
  5
3E2
330
1F
100
AcDbEntity
  8
0
100
AcDbLine
 10
210.0344123934
 20
363.9063715449
 30
0.0
 11
201.0344127809
 21
363.9063715449
 31
0.0
  0
LINE
  5
3E3
330
1F
100
AcDbEntity
  8
0
100
AcDbLine
 10
210.0344123934
 20
363.4063714629
 30
0.0
 11
210.0344123934
 21
363.9063715449
 31
0.0
  0
LINE
  5
3E4
330
1F
100
AcDbEntity
  8
0
100
AcDbLine
 10
201.0344127809
 20
363.9063715449
 30
0.0
 11
196.0344119613
 21
363.9063715449
 31
0.0
  0
LINE
  5
3E5
330
1F
100
AcDbEntity
  8
0
100
AcDbLine
 10
196.0693756734
 20
363.4063714629
 30
0.0
 11
196.0344119613
 21
363.9063715449
 31
0.0
  0
LINE
  5
3E6
330
1F
100
AcDbEntity
  8
0
100
AcDbLine
 10
224.0344128256
 20
363.9063715449
 30
0.0
 11
215.0344127473
 21
363.9063715449
 31
0.0
  0
LINE
  5
3E7
330
1F
100
AcDbEntity
  8
0
100
AcDbLine
 10
215.0344127473
 20
363.9063715449
 30
0.0
 11
215.0344127473
 21
363.4063714629
 31
0.0
  0
LINE
  5
3E8
330
1F
100
AcDbEntity
  8
0
100
AcDbLine
 10
228.9994490017
 20
363.4063714629
 30
0.0
 11
229.0344127138
 21
363.9063715449
 31
0.0
  0
LINE
  5
3E9
330
1F
100
AcDbEntity
  8
0
100
AcDbLine
 10
227.241383927
 20
363.9063715449
 30
0.0
 11
224.0344128256
 21
363.9063715449
 31
0.0
  0
LINE
  5
3EA
330
1F
100
AcDbEntity
  8
0
100
AcDbLine
 10
215.0344127473
 20
374.0063711515
 30
0.0
 11
224.0344128256
 21
374.0063711515
 31
0.0
  0
LINE
  5
3EB
330
1F
100
AcDbEntity
  8
0
100
AcDbLine
 10
215.0344127473
 20
374.5063712335
 30
0.0
 11
215.0344127473
 21
374.0063711515
 31
0.0
  0
LINE
  5
3EC
330
1F
100
AcDbEntity
  8
0
100
AcDbLine
 10
201.0344127809
 20
374.0063711515
 30
0.0
 11
210.0344123934
 21
374.0063711515
 31
0.0
  0
LINE
  5
3ED
330
1F
100
AcDbEntity
  8
0
100
AcDbLine
 10
210.0344123934
 20
374.0063711515
 30
0.0
 11
210.0344123934
 21
374.5063712335
 31
0.0
  0
LINE
  5
3EE
330
1F
100
AcDbEntity
  8
0
100
AcDbLine
 10
228.9994490017
 20
374.5063712335
 30
0.0
 11
229.0344127138
 21
374.0063711515
 31
0.0
  0
LINE
  5
3EF
330
1F
100
AcDbEntity
  8
0
100
AcDbLine
 10
224.0344128256
 20
374.0063711515
 30
0.0
 11
227.241383927
 21
374.0063711515
 31
0.0
  0
LINE
  5
3F0
330
1F
100
AcDbEntity
  8
0
100
AcDbLine
 10
196.0693756734
 20
374.5063712335
 30
0.0
 11
196.0344119613
 21
374.0063711515
 31
0.0
  0
LINE
  5
3F1
330
1F
100
AcDbEntity
  8
0
100
AcDbLine
 10
196.0344119613
 20
374.0063711515
 30
0.0
 11
201.0344127809
 21
374.0063711515
 31
0.0
  0
LINE
  5
3F2
330
1F
100
AcDbEntity
  8
0
100
AcDbLine
 10
196.0344119613
 20
374.0063711515
 30
0.0
 11
194.0344134961
 21
374.0063711515
 31
0.0
  0
LINE
  5
3F3
330
1F
100
AcDbEntity
  8
0
100
AcDbLine
 10
196.0344119613
 20
363.9063715449
 30
0.0
 11
194.0344134961
 21
363.9063715449
 31
0.0
  0
LINE
  5
3F4
330
1F
100
AcDbEntity
  8
0
100
AcDbLine
 10
194.0344134961
 20
363.9063715449
 30
0.0
 11
194.0344134961
 21
374.0063711515
 31
0.0
  0
LINE
  5
3F5
330
1F
100
AcDbEntity
  8
0
100
AcDbLine
 10
218.5344128554
 20
373.6063713653
 30
0.0
 11
218.5344128554
 21
364.3063713311
 31
0.0
  0
LINE
  5
3F6
330
1F
100
AcDbEntity
  8
0
100
AcDbLine
 10
193.5344124828
 20
374.0063711515
 30
0.0
 11
194.0344134961
 21
374.0063711515
 31
0.0
  0
LINE
  5
3F7
330
1F
100
AcDbEntity
  8
0
100
AcDbLine
 10
194.0344134961
 20
363.9063715449
 30
0.0
 11
193.5344124828
 21
363.9063715449
 31
0.0
  0
LINE
  5
3F8
330
1F
100
AcDbEntity
  8
0
100
AcDbLine
 10
153.5344152396
 20
363.9063715449
 30
0.0
 11
153.5344152396
 21
374.0063711515
 31
0.0
  0
LINE
  5
3F9
330
1F
100
AcDbEntity
  8
0
100
AcDbLine
 10
193.5344124828
 20
374.0063711515
 30
0.0
 11
153.5344152396
 21
374.0063711515
 31
0.0
  0
LINE
  5
3FA
330
1F
100
AcDbEntity
  8
0
100
AcDbLine
 10
193.5344124828
 20
363.9063715449
 30
0.0
 11
153.5344152396
 21
363.9063715449
 31
0.0
  0
SPLINE
  5
3FB
330
1F
100
AcDbEntity
  8
0
100
AcDbSpline
210
0.0
220
0.0
230
1.0
 70
     8
 71
     3
 72
    22
 73
    18
 74
     0
 42
0.000000001
 43
0.00000001
 40
0.0
 40
0.0
 40
0.0
 40
0.0
 40
0.0644652889972386
 40
0.1289306273907205
 40
0.1933959292510286
 40
0.2578612345808715
 40
0.3223268992706863
 40
0.3867927225424969
 40
0.4512586956936118
 40
0.5157249235003394
 40
0.580191387174502
 40
0.6446580138355743
 40
0.709124313730449
 40
0.7735910443414896
 40
0.8380587053030837
 40
0.902525584684361
 40
1.0
 40
1.0
 40
1.0
 40
1.0
 10
175.5028060321712
 20
360.9498619547361
 30
0.0
 10
175.5003778108605
 20
360.8667054233669
 30
0.0
 10
175.4955213663786
 20
360.7003922969101
 30
0.0
 10
175.4563734222335
 20
360.4534480191086
 30
0.0
 10
175.3942961967704
 20
360.2115354004463
 30
0.0
 10
175.3076293742072
 20
359.9771051725302
 30
0.0
 10
175.1978346214945
 20
359.7525492385929
 30
0.0
 10
175.065846711339
 20
359.5401605378311
 30
0.0
 10
174.9130342675361
 20
359.3421165905195
 30
0.0
 10
174.7409226792548
 20
359.1604568031502
 30
0.0
 10
174.5512519845813
 20
358.9970685606131
 30
0.0
 10
174.3459529011187
 20
358.8536336433866
 30
0.0
 10
174.1271194005029
 20
358.7317023375412
 30
0.0
 10
173.8969955597921
 20
358.6323596794627
 30
0.0
 10
173.6579340013644
 20
358.5573894142242
 30
0.0
 10
173.3705707519847
 20
358.4958565552572
 30
0.0
 10
173.1607234170505
 20
358.4867999248051
 30
0.0
 10
173.0344137792491
 20
358.4813486298793
 30
0.0
  0
LINE
  5
3FC
330
1F
100
AcDbEntity
  8
0
100
AcDbLine
 10
173.0344137792
 20
358.4813486299
 30
0.0
 11
161.0344118123
 21
358.4813486299
 31
0.0
  0
SPLINE
  5
3FD
330
1F
100
AcDbEntity
  8
0
100
AcDbSpline
210
0.0
220
0.0
230
1.0
 70
     8
 71
     3
 72
    22
 73
    18
 74
     0
 42
0.000000001
 43
0.00000001
 40
0.0
 40
0.0
 40
0.0
 40
0.0
 40
0.0644672357371223
 40
0.1289338911657233
 40
0.1934013542169641
 40
0.2578677468392938
 40
0.322334853943537
 40
0.3868009301314524
 40
0.4512673404419957
 40
0.5157340599715705
 40
0.5802000046370658
 40
0.6446658286283017
 40
0.7091316638686346
 40
0.7735971067069843
 40
0.8380622792685556
 40
0.9025274599435509
 40
1.0
 40
1.0
 40
1.0
 40
1.0
 10
161.0344118122958
 20
358.4813486298793
 30
0.0
 10
160.9509341031337
 20
358.4837955305611
 30
0.0
 10
160.7839794362428
 20
358.4886893098983
 30
0.0
 10
160.5361424745045
 20
358.5281435553407
 30
0.0
 10
160.2934671897727
 20
358.5906620880999
 30
0.0
 10
160.0584616243153
 20
358.6779025034072
 30
0.0
 10
159.833547412477
 20
358.788316930494
 30
0.0
 10
159.6210360541709
 20
358.9209188118918
 30
0.0
 10
159.4231000793079
 20
359.0742705852435
 30
0.0
 10
159.2417518249303
 20
359.2467842174578
 30
0.0
 10
159.0788372469051
 20
359.4366702646178
 30
0.0
 10
158.935985791432
 20
359.6419673736701
 30
0.0
 10
158.8146804849071
 20
359.8605639156011
 30
0.0
 10
158.7159429907489
 20
360.0902203150168
 30
0.0
 10
158.6414857926653
 20
360.3286089304169
 30
0.0
 10
158.5804138517966
 20
360.6149995775415
 30
0.0
 10
158.57142816673
 20
360.8240385336603
 30
0.0
 10
158.5660195593738
 20
360.9498619547361
 30
0.0
  0
LINE
  5
3FE
330
1F
100
AcDbEntity
  8
0
100
AcDbLine
 10
158.5660195594
 20
360.9498619547
 30
0.0
 11
158.5660195594
 21
363.9063715449
 31
0.0
  0
LINE
  5
3FF
330
1F
100
AcDbEntity
  8
0
100
AcDbLine
 10
175.5028060322
 20
363.9063715449
 30
0.0
 11
175.5028060322
 21
360.9498619547
 31
0.0
  0
LINE
  5
400
330
1F
100
AcDbEntity
  8
0
100
AcDbLine
 10
143.0781586711
 20
363.4063714629
 30
0.0
 11
143.0344163124
 21
363.9063715449
 31
0.0
  0
LINE
  5
401
330
1F
100
AcDbEntity
  8
0
100
AcDbLine
 10
143.0344163124
 20
363.9063715449
 30
0.0
 11
148.0153827612
 21
363.9063715449
 31
0.0
  0
LINE
  5
402
330
1F
100
AcDbEntity
  8
0
100
AcDbLine
 10
153.5344152396
 20
363.9063715449
 30
0.0
 11
148.0153827612
 21
363.9063715449
 31
0.0
  0
LINE
  5
403
330
1F
100
AcDbEntity
  8
0
100
AcDbLine
 10
191.0344130044
 20
363.9063715449
 30
0.0
 11
190.5018548165
 21
357.8192155322
 31
0.0
  0
LINE
  5
404
330
1F
100
AcDbEntity
  8
0
100
AcDbLine
 10
189.5056618993
 20
356.9063713288
 30
0.0
 11
187.534413362
 21
356.9063713288
 31
0.0
  0
ARC
  5
405
330
1F
100
AcDbEntity
  8
0
100
AcDbCircle
 10
189.5056610367
 20
357.9063713482
 30
0.0
 40
1.0
100
AcDbArc
 50
270.0
 51
355.0
  0
LINE
  5
406
330
1F
100
AcDbEntity
  8
0
100
AcDbLine
 10
148.0153827612
 20
374.0063711515
 30
0.0
 11
150.0344155972
 21
374.0063711515
 31
0.0
  0
LINE
  5
407
330
1F
100
AcDbEntity
  8
0
100
AcDbLine
 10
150.0344155972
 20
374.0063711515
 30
0.0
 11
150.0344155972
 21
374.5063712335
 31
0.0
  0
LINE
  5
408
330
1F
100
AcDbEntity
  8
0
100
AcDbLine
 10
148.0153827612
 20
374.0063711515
 30
0.0
 11
143.0344163124
 21
374.0063711515
 31
0.0
  0
LINE
  5
409
330
1F
100
AcDbEntity
  8
0
100
AcDbLine
 10
143.0344163124
 20
374.0063711515
 30
0.0
 11
143.0781586711
 21
374.5063712335
 31
0.0
  0
LINE
  5
40A
330
1F
100
AcDbEntity
  8
0
100
AcDbLine
 10
155.0344108288
 20
374.5063712335
 30
0.0
 11
155.0344108288
 21
374.0063711515
 31
0.0
  0
LINE
  5
40B
330
1F
100
AcDbEntity
  8
0
100
AcDbLine
 10
179.0344110374
 20
374.0063711515
 30
0.0
 11
179.0344110374
 21
374.5063712335
 31
0.0
  0
LINE
  5
40C
330
1F
100
AcDbEntity
  8
0
100
AcDbLine
 10
190.5018548165
 20
380.0935271641
 30
0.0
 11
191.0344130044
 21
374.0063711515
 31
0.0
  0
LINE
  5
40D
330
1F
100
AcDbEntity
  8
0
100
AcDbLine
 10
184.0344137196
 20
374.5063712335
 30
0.0
 11
184.0344137196
 21
374.0063711515
 31
0.0
  0
LINE
  5
40E
330
1F
100
AcDbEntity
  8
0
100
AcDbLine
 10
187.534413362
 20
381.0063713676
 30
0.0
 11
189.5056618993
 21
381.0063713676
 31
0.0
  0
ARC
  5
40F
330
1F
100
AcDbEntity
  8
0
100
AcDbCircle
 10
189.5056610367
 20
380.0063713482
 30
0.0
 40
1.0
100
AcDbArc
 50
5.0
 51
90.0
  0
LINE
  5
410
330
1F
100
AcDbEntity
  8
0
100
AcDbLine
 10
151.0959668701
 20
374.0063711515
 30
0.0
 11
153.5344152396
 21
374.0063711515
 31
0.0
  0
LINE
  5
411
330
1F
100
AcDbEntity
  8
0
  6
Continuous
 62
     8
370
     0
100
AcDbLine
 10
229.3364229296
 20
356.6063709071
 30
0.0
 11
195.7324026768
 21
356.6063709071
 31
0.0
  0
LINE
  5
412
330
1F
100
AcDbEntity
  8
0
  6
Continuous
 62
     8
370
     0
100
AcDbLine
 10
229.5344127958
 20
356.6063709071
 30
0.0
 11
230.5344129597
 21
356.6063709071
 31
0.0
  0
LINE
  5
413
330
1F
100
AcDbEntity
  8
0
  6
Continuous
 62
     8
370
     0
100
AcDbLine
 10
195.5344128107
 20
356.6063709071
 30
0.0
 11
194.5344126468
 21
356.6063709071
 31
0.0
  0
LINE
  5
414
330
1F
100
AcDbEntity
  8
0
  6
Continuous
 62
     8
370
     0
100
AcDbLine
 10
187.534413362
 20
356.6063709071
 30
0.0
 11
142.7323995774
 21
356.6063709071
 31
0.0
  0
LINE
  5
415
330
1F
100
AcDbEntity
  8
0
  6
Continuous
 62
     8
370
     0
100
AcDbLine
 10
142.5344152992
 20
356.6063709071
 30
0.0
 11
141.5344132726
 21
356.6063709071
 31
0.0
  0
LINE
  5
416
330
1F
100
AcDbEntity
  8
0
  6
Continuous
 62
     8
370
     0
100
AcDbLine
 10
187.534413362
 20
356.6063709071
 30
0.0
 11
194.5344126468
 21
356.6063709071
 31
0.0
  0
LINE
  5
417
330
1F
100
AcDbEntity
  8
0
  6
Continuous
 62
     8
370
     0
100
AcDbLine
 10
195.5344128107
 20
356.6063709071
 30
0.0
 11
195.7324026768
 21
356.6063709071
 31
0.0
  0
LINE
  5
418
330
1F
100
AcDbEntity
  8
0
  6
Continuous
 62
     8
370
     0
100
AcDbLine
 10
229.3364229296
 20
381.3063717893
 30
0.0
 11
195.7324026768
 21
381.3063717893
 31
0.0
  0
LINE
  5
419
330
1F
100
AcDbEntity
  8
0
  6
Continuous
 62
     8
370
     0
100
AcDbLine
 10
229.5344127958
 20
381.3063717893
 30
0.0
 11
230.5344129597
 21
381.3063717893
 31
0.0
  0
LINE
  5
41A
330
1F
100
AcDbEntity
  8
0
  6
Continuous
 62
     8
370
     0
100
AcDbLine
 10
195.5344128107
 20
381.3063717893
 30
0.0
 11
194.5344126468
 21
381.3063717893
 31
0.0
  0
LINE
  5
41B
330
1F
100
AcDbEntity
  8
0
  6
Continuous
 62
     8
370
     0
100
AcDbLine
 10
187.534413362
 20
381.3063717893
 30
0.0
 11
142.7323995774
 21
381.3063717893
 31
0.0
  0
LINE
  5
41C
330
1F
100
AcDbEntity
  8
0
  6
Continuous
 62
     8
370
     0
100
AcDbLine
 10
142.5344152992
 20
381.3063717893
 30
0.0
 11
141.5344132726
 21
381.3063717893
 31
0.0
  0
LINE
  5
41D
330
1F
100
AcDbEntity
  8
0
  6
Continuous
 62
     8
370
     0
100
AcDbLine
 10
187.534413362
 20
381.3063717893
 30
0.0
 11
194.5344126468
 21
381.3063717893
 31
0.0
  0
LINE
  5
41E
330
1F
100
AcDbEntity
  8
0
  6
Continuous
 62
     8
370
     0
100
AcDbLine
 10
195.5344128107
 20
381.3063717893
 30
0.0
 11
195.7324026768
 21
381.3063717893
 31
0.0
  0
LINE
  5
41F
330
1F
100
AcDbEntity
  8
0
  6
Continuous
 62
     8
370
     0
100
AcDbLine
 10
201.0344127809
 20
374.0063711515
 30
0.0
 11
201.0344127809
 21
373.6063713653
 31
0.0
  0
LINE
  5
420
330
1F
100
AcDbEntity
  8
0
  6
Continuous
 62
     8
370
     0
100
AcDbLine
 10
225.0344129895
 20
373.6063713653
 30
0.0
 11
225.0344129895
 21
374.0063711515
 31
0.0
  0
LINE
  5
421
330
1F
100
AcDbEntity
  8
0
  6
Continuous
 62
     8
370
     0
100
AcDbLine
 10
201.0344127809
 20
364.3063713311
 30
0.0
 11
201.0344127809
 21
363.9063715449
 31
0.0
  0
LINE
  5
422
330
1F
100
AcDbEntity
  8
0
  6
Continuous
 62
     8
370
     0
100
AcDbLine
 10
225.0344129895
 20
363.9063715449
 30
0.0
 11
225.0344129895
 21
364.3063713311
 31
0.0
  0
LINE
  5
423
330
1F
100
AcDbEntity
  8
0
  6
Continuous
 62
     8
370
     0
100
AcDbLine
 10
201.0344127809
 20
363.4063714629
 30
0.0
 11
201.0344127809
 21
363.9063715449
 31
0.0
  0
LINE
  5
424
330
1F
100
AcDbEntity
  8
0
  6
Continuous
 62
     8
370
     0
100
AcDbLine
 10
224.0344128256
 20
363.4063714629
 30
0.0
 11
224.0344128256
 21
363.9063715449
 31
0.0
  0
LINE
  5
425
330
1F
100
AcDbEntity
  8
0
  6
Continuous
 62
     8
370
     0
100
AcDbLine
 10
224.0344128256
 20
374.5063712335
 30
0.0
 11
224.0344128256
 21
374.0063711515
 31
0.0
  0
LINE
  5
426
330
1F
100
AcDbEntity
  8
0
  6
Continuous
 62
     8
370
     0
100
AcDbLine
 10
201.0344127809
 20
374.5063712335
 30
0.0
 11
201.0344127809
 21
374.0063711515
 31
0.0
  0
LINE
  5
427
330
1F
100
AcDbEntity
  8
0
  6
Continuous
 62
     8
370
     0
100
AcDbLine
 10
213.5344129671
 20
364.3063713311
 30
0.0
 11
213.5344129671
 21
373.6063713653
 31
0.0
  0
LINE
  5
428
330
1F
100
AcDbEntity
  8
0
  6
Continuous
 62
     8
370
     0
100
AcDbLine
 10
193.5344124828
 20
363.9063715449
 30
0.0
 11
193.5344124828
 21
374.0063711515
 31
0.0
  0
LINE
  5
429
330
1F
100
AcDbEntity
  8
0
  6
Continuous
 62
     8
370
     0
100
AcDbLine
 10
175.5344113951
 20
363.9063715449
 30
0.0
 11
175.5344113951
 21
363.4063714629
 31
0.0
  0
ARC
  5
42A
330
1F
100
AcDbEntity
  8
0
  6
Continuous
 62
     8
370
     0
100
AcDbCircle
 10
175.534584342
 20
355.1823639792
 30
0.0
 40
5.767585522492109
100
AcDbArc
 50
90.00171807230001
 51
90.31569054990001
  0
LINE
  5
42B
330
1F
100
AcDbEntity
  8
0
  6
Continuous
 62
     8
370
     0
100
AcDbLine
 10
158.5344141965
 20
363.4063714629
 30
0.0
 11
158.5344141965
 21
363.9063715449
 31
0.0
  0
ARC
  5
42C
330
1F
100
AcDbEntity
  8
0
  6
Continuous
 62
     8
370
     0
100
AcDbCircle
 10
158.5342412496
 20
355.1823639792
 30
0.0
 40
5.76758552249211
100
AcDbArc
 50
89.68430945010002
 51
89.9982819277
  0
LINE
  5
42D
330
1F
100
AcDbEntity
  8
0
  6
Continuous
 62
     8
370
     0
100
AcDbLine
 10
148.0153827612
 20
363.9063715449
 30
0.0
 11
148.0591325705
 21
363.4063714629
 31
0.0
  0
LINE
  5
42E
330
1F
100
AcDbEntity
  8
0
  6
Continuous
 62
     8
370
     0
100
AcDbLine
 10
173.0344137792
 20
358.4499490893
 30
0.0
 11
161.0344118123
 21
358.4499490893
 31
0.0
  0
ARC
  5
42F
330
1F
100
AcDbEntity
  8
0
  6
Continuous
 62
     8
370
     0
100
AcDbCircle
 10
173.0344128554
 20
360.9499492196
 30
0.0
 40
2.5
100
AcDbArc
 50
270.0
 51
0.0
  0
LINE
  5
430
330
1F
100
AcDbEntity
  8
0
  6
Continuous
 62
     8
370
     0
100
AcDbLine
 10
186.0096967463
 20
363.4063714629
 30
0.0
 11
186.053439105
 21
363.9063715449
 31
0.0
  0
ARC
  5
431
330
1F
100
AcDbEntity
  8
0
  6
Continuous
 62
     8
370
     0
100
AcDbCircle
 10
161.0344128554
 20
360.9499492196
 30
0.0
 40
2.5
100
AcDbArc
 50
180.0
 51
270.0
  0
ELLIPSE
  5
432
330
1F
100
AcDbEntity
  8
0
  6
Continuous
 62
     8
370
     0
100
AcDbEllipse
 10
185.4903816865
 20
357.9063713482
 30
0.0
 11
5.011479535986922
 21
-0.087051031519934
 31
0.0
210
0.0
220
0.0
230
1.0
 40
0.0172806402
 41
5.132808891575754
 42
6.281975456623747
  0
LINE
  5
433
330
1F
100
AcDbEntity
  8
0
  6
Continuous
 62
     8
370
     0
100
AcDbLine
 10
173.0344137792
 20
358.4499490893
 30
0.0
 11
173.0344137792
 21
358.4813486299
 31
0.0
  0
LINE
  5
434
330
1F
100
AcDbEntity
  8
0
  6
Continuous
 62
     8
370
     0
100
AcDbLine
 10
161.0344118123
 20
358.4499490893
 30
0.0
 11
161.0344118123
 21
358.4813486299
 31
0.0
  0
LINE
  5
435
330
1F
100
AcDbEntity
  8
0
  6
Continuous
 62
     8
370
     0
100
AcDbLine
 10
148.0591325705
 20
374.5063712335
 30
0.0
 11
148.0153827612
 21
374.0063711515
 31
0.0
  0
LINE
  5
436
330
1F
100
AcDbEntity
  8
0
  6
Continuous
 62
     8
370
     0
100
AcDbLine
 10
186.053439105
 20
374.0063711515
 30
0.0
 11
186.0096967463
 21
374.5063712335
 31
0.0
  0
ELLIPSE
  5
437
330
1F
100
AcDbEntity
  8
0
  6
Continuous
 62
     8
370
     0
100
AcDbEllipse
 10
185.4903816865
 20
380.0063713482
 30
0.0
 11
5.01147953598695
 21
0.08705103151999083
 31
0.0
210
0.0
220
0.0
230
1.0
 40
0.0172806402
 41
0.0012098505566724
 42
1.150376415604135
  0
LWPOLYLINE
  5
46E
330
1F
100
AcDbEntity
  8
0
  6
HIDDEN
 62
     1
100
AcDbPolyline
 90
       10
 70
     0
 43
0.0
 10
153.5344152396
 20
294.363820171
 10
151.0344152396
 20
294.363820171
 10
151.0344152396
 20
312.363820171
 42
-0.414213562373095
 10
160.0344152396
 20
321.363820171
 10
212.0344128554
 20
321.363820171
 42
-0.414213562373095
 10
221.0344128554
 20
312.363820171
 10
221.0344128554
 20
260.363820171
 42
-0.414213562373095
 10
212.0344128554
 20
251.363820171
 10
194.0344134961
 20
251.363820171
 10
194.0344134961
 20
253.8638219145
  0
ENDSEC
  0
SECTION
  2
OBJECTS
  0
DICTIONARY
  5
C
330
0
100
AcDbDictionary
281
     1
  3
ACAD_DETAILVIEWSTYLE
350
468
  3
ACAD_GROUP
350
D
  3
ACAD_IMAGE_VARS
350
45B
  3
ACAD_LAYOUT
350
1A
  3
ACAD_MATERIAL
350
451
  3
ACAD_MLEADERSTYLE
350
457
  3
ACAD_MLINESTYLE
350
17
  3
ACAD_PLOTSETTINGS
350
19
  3
ACAD_PLOTSTYLENAME
350
E
  3
ACAD_SCALELIST
350
47
  3
ACAD_SECTIONVIEWSTYLE
350
469
  3
ACAD_TABLESTYLE
350
455
  3
ACAD_VISUALSTYLE
350
438
  3
ACDB_RECOMPOSE_DATA
350
476
  3
AcDbVariableDictionary
350
463
  3
APPDATA
350
459
  0
SUN
  5
45A
330
29
100
AcDbSun
 90
        1
290
     0
 63
     7
421
 16777215
 40
1.0
291
     1
 91
  2455826
 92
 54000000
292
     0
 70
     2
 71
   256
280
     1
  0
DICTIONARY
  5
468
102
{ACAD_REACTORS
330
C
102
}
330
C
100
AcDbDictionary
281
     1
  0
DICTIONARY
  5
D
102
{ACAD_REACTORS
330
C
102
}
330
C
100
AcDbDictionary
281
     1
  0
RASTERVARIABLES
  5
45B
102
{ACAD_REACTORS
330
C
102
}
330
C
100
AcDbRasterVariables
 90
        0
 70
     1
 71
     1
 72
     1
  0
DICTIONARY
  5
1A
102
{ACAD_REACTORS
330
C
102
}
330
C
100
AcDbDictionary
281
     1
  3
Layout1
350
1E
  3
Layout2
350
26
  3
Model
350
22
  0
DICTIONARY
  5
451
102
{ACAD_REACTORS
330
C
102
}
330
C
100
AcDbDictionary
281
     1
  3
ByBlock
350
453
  3
ByLayer
350
452
  3
Global
350
454
  0
DICTIONARY
  5
457
102
{ACAD_REACTORS
330
C
102
}
330
C
100
AcDbDictionary
281
     1
  3
Standard
350
458
  0
DICTIONARY
  5
17
102
{ACAD_REACTORS
330
C
102
}
330
C
100
AcDbDictionary
281
     1
  3
Standard
350
18
  0
DICTIONARY
  5
19
102
{ACAD_REACTORS
330
C
102
}
330
C
100
AcDbDictionary
281
     1
  0
ACDBDICTIONARYWDFLT
  5
E
102
{ACAD_REACTORS
330
C
102
}
330
C
100
AcDbDictionary
281
     1
  3
Normal
350
F
100
AcDbDictionaryWithDefault
340
F
  0
DICTIONARY
  5
47
102
{ACAD_REACTORS
330
C
102
}
330
C
100
AcDbDictionary
281
     1
  3
A0
350
48
  3
A1
350
49
  3
A2
350
4A
  3
A3
350
4B
  3
A4
350
4C
  3
A5
350
4D
  3
A6
350
4E
  3
A7
350
4F
  3
A8
350
50
  3
A9
350
51
  3
B0
350
52
  3
B1
350
53
  3
B2
350
54
  3
B3
350
55
  3
B4
350
56
  3
B5
350
57
  3
B6
350
58
  3
B7
350
59
  3
B8
350
5A
  3
B9
350
5B
  3
C0
350
5C
  3
C1
350
5D
  3
C2
350
5E
  3
C3
350
5F
  3
C4
350
60
  3
C5
350
61
  3
C6
350
62
  3
C7
350
63
  3
C8
350
64
  3
C9
350
65
  3
D0
350
66
  3
D1
350
67
  3
D2
350
68
  0
DICTIONARY
  5
469
102
{ACAD_REACTORS
330
C
102
}
330
C
100
AcDbDictionary
281
     1
  0
DICTIONARY
  5
455
102
{ACAD_REACTORS
330
C
102
}
330
C
100
AcDbDictionary
281
     1
  3
Standard
350
456
  0
DICTIONARY
  5
438
102
{ACAD_REACTORS
330
C
102
}
330
C
100
AcDbDictionary
281
     1
  3
2dWireframe
350
43D
  3
Basic
350
440
  3
Brighten
350
444
  3
ColorChange
350
448
  3
Conceptual
350
442
  3
Dim
350
443
  3
EdgeColorOff
350
44B
  3
Facepattern
350
447
  3
Flat
350
439
  3
FlatWithEdges
350
43A
  3
Gouraud
350
43B
  3
GouraudWithEdges
350
43C
  3
Hidden
350
43F
  3
JitterOff
350
449
  3
Linepattern
350
446
  3
OverhangOff
350
44A
  3
Realistic
350
441
  3
Shaded
350
450
  3
Shaded with edges
350
44F
  3
Shades of Gray
350
44C
  3
Sketchy
350
44D
  3
Thicken
350
445
  3
Wireframe
350
43E
  3
X-Ray
350
44E
  0
XRECORD
  5
476
102
{ACAD_REACTORS
330
C
102
}
330
C
100
AcDbXrecord
280
     1
 90
        1
330
456
  0
DICTIONARY
  5
463
102
{ACAD_REACTORS
330
C
102
}
330
C
100
AcDbDictionary
281
     1
  3
CANNOSCALE
350
464
  3
CMLEADERSTYLE
350
466
  3
CTABLESTYLE
350
465
  3
MSLTSCALE
350
467
  0
DICTIONARY
  5
459
102
{ACAD_REACTORS
330
C
102
}
330
C
100
AcDbDictionary
281
     1
  0
LAYOUT
  5
1E
102
{ACAD_REACTORS
330
1A
102
}
330
1A
100
AcDbPlotSettings
  1

  2
none_device
  4

  6

 40
0.0
 41
0.0
 42
0.0
 43
0.0
 44
0.0
 45
0.0
 46
0.0
 47
0.0
 48
0.0
 49
0.0
140
0.0
141
0.0
142
1.0
143
1.0
 70
   688
 72
     1
 73
     0
 74
     5
  7

 75
    16
 76
     0
 77
     2
 78
   300
147
1.0
148
0.0
149
0.0
100
AcDbLayout
  1
Layout1
 70
     1
 71
     1
 10
0.0
 20
0.0
 11
420.0
 21
297.0
 12
0.0
 22
0.0
 32
0.0
 14
1.000000000000000E+20
 24
1.000000000000000E+20
 34
1.000000000000000E+20
 15
-1.000000000000000E+20
 25
-1.000000000000000E+20
 35
-1.000000000000000E+20
146
0.0
 13
0.0
 23
0.0
 33
0.0
 16
1.0
 26
0.0
 36
0.0
 17
0.0
 27
1.0
 37
0.0
 76
     0
330
1B
  0
LAYOUT
  5
26
102
{ACAD_REACTORS
330
1A
102
}
330
1A
100
AcDbPlotSettings
  1

  2
none_device
  4

  6

 40
0.0
 41
0.0
 42
0.0
 43
0.0
 44
0.0
 45
0.0
 46
0.0
 47
0.0
 48
0.0
 49
0.0
140
0.0
141
0.0
142
1.0
143
1.0
 70
   688
 72
     1
 73
     0
 74
     5
  7

 75
    16
 76
     0
 77
     2
 78
   300
147
1.0
148
0.0
149
0.0
100
AcDbLayout
  1
Layout2
 70
     1
 71
     2
 10
0.0
 20
0.0
 11
0.0
 21
0.0
 12
0.0
 22
0.0
 32
0.0
 14
0.0
 24
0.0
 34
0.0
 15
0.0
 25
0.0
 35
0.0
146
0.0
 13
0.0
 23
0.0
 33
0.0
 16
1.0
 26
0.0
 36
0.0
 17
0.0
 27
1.0
 37
0.0
 76
     0
330
23
  0
LAYOUT
  5
22
102
{ACAD_REACTORS
330
1A
102
}
330
1A
100
AcDbPlotSettings
  1

  2
none_device
  4
Letter_(8.50_x_11.00_Inches)
  6

 40
6.35
 41
6.35
 42
6.35000508
 43
6.35000508
 44
215.9
 45
279.4
 46
0.0
 47
0.0
 48
0.0
 49
0.0
140
0.0
141
0.0
142
1.0
143
1.0
 70
  1712
 72
     1
 73
     0
 74
     0
  7

 75
     0
 76
     0
 77
     2
 78
   300
147
1.0
148
0.0
149
0.0
100
AcDbLayout
  1
Model
 70
     1
 71
     0
 10
0.0
 20
0.0
 11
420.0
 21
297.0
 12
0.0
 22
0.0
 32
0.0
 14
-21.07121081623143
 24
54.97301453154566
 34
0.0
 15
594.2729434679743
 25
681.1057392898392
 35
0.0
146
0.0
 13
0.0
 23
0.0
 33
0.0
 16
1.0
 26
0.0
 36
0.0
 17
0.0
 27
1.0
 37
0.0
 76
     0
330
1F
331
29
  0
MATERIAL
  5
453
102
{ACAD_REACTORS
330
451
102
}
330
451
100
AcDbMaterial
  1
ByBlock
 72
     1
 94
      127
  0
MATERIAL
  5
452
102
{ACAD_REACTORS
330
451
102
}
330
451
100
AcDbMaterial
  1
ByLayer
 72
     1
 94
      127
  0
MATERIAL
  5
454
102
{ACAD_REACTORS
330
451
102
}
330
451
100
AcDbMaterial
  1
Global
 72
     1
 94
      127
  0
MLEADERSTYLE
  5
458
102
{ACAD_REACTORS
330
457
102
}
330
457
100
AcDbMLeaderStyle
179
     2
170
     2
171
     1
172
     0
 90
        2
 40
0.0
 41
0.0
173
     1
 91
-1056964608
340
14
 92
       -2
290
     1
 42
2.0
291
     1
 43
8.0
  3
Standard
341
0
 44
4.0
300

342
11
174
     1
178
     6
175
     1
176
     0
 93
-1056964608
 45
4.0
292
     0
297
     0
 46
4.0
343
0
 94
-1056964608
 47
1.0
 49
1.0
140
1.0
293
     1
141
0.0
294
     1
177
     0
142
1.0
295
     0
296
     0
143
3.75
271
     0
272
     9
273
     9
298
     0
  0
MLINESTYLE
  5
18
102
{ACAD_REACTORS
330
17
102
}
330
17
100
AcDbMlineStyle
  2
Standard
 70
     0
  3

 62
   256
 51
90.0
 52
90.0
 71
     2
 49
0.5
 62
   256
  6
BYLAYER
 49
-0.5
 62
   256
  6
BYLAYER
  0
ACDBPLACEHOLDER
  5
F
102
{ACAD_REACTORS
330
E
102
}
330
E
  0
SCALE
  5
48
102
{ACAD_REACTORS
330
47
102
}
330
47
100
AcDbScale
 70
     0
300
1:1
140
1.0
141
1.0
290
     1
  0
SCALE
  5
49
102
{ACAD_REACTORS
330
47
102
}
330
47
100
AcDbScale
 70
     0
300
1:2
140
1.0
141
2.0
290
     0
  0
SCALE
  5
4A
102
{ACAD_REACTORS
330
47
102
}
330
47
100
AcDbScale
 70
     0
300
1:4
140
1.0
141
4.0
290
     0
  0
SCALE
  5
4B
102
{ACAD_REACTORS
330
47
102
}
330
47
100
AcDbScale
 70
     0
300
1:5
140
1.0
141
5.0
290
     0
  0
SCALE
  5
4C
102
{ACAD_REACTORS
330
47
102
}
330
47
100
AcDbScale
 70
     0
300
1:8
140
1.0
141
8.0
290
     0
  0
SCALE
  5
4D
102
{ACAD_REACTORS
330
47
102
}
330
47
100
AcDbScale
 70
     0
300
1:10
140
1.0
141
10.0
290
     0
  0
SCALE
  5
4E
102
{ACAD_REACTORS
330
47
102
}
330
47
100
AcDbScale
 70
     0
300
1:16
140
1.0
141
16.0
290
     0
  0
SCALE
  5
4F
102
{ACAD_REACTORS
330
47
102
}
330
47
100
AcDbScale
 70
     0
300
1:20
140
1.0
141
20.0
290
     0
  0
SCALE
  5
50
102
{ACAD_REACTORS
330
47
102
}
330
47
100
AcDbScale
 70
     0
300
1:30
140
1.0
141
30.0
290
     0
  0
SCALE
  5
51
102
{ACAD_REACTORS
330
47
102
}
330
47
100
AcDbScale
 70
     0
300
1:40
140
1.0
141
40.0
290
     0
  0
SCALE
  5
52
102
{ACAD_REACTORS
330
47
102
}
330
47
100
AcDbScale
 70
     0
300
1:50
140
1.0
141
50.0
290
     0
  0
SCALE
  5
53
102
{ACAD_REACTORS
330
47
102
}
330
47
100
AcDbScale
 70
     0
300
1:100
140
1.0
141
100.0
290
     0
  0
SCALE
  5
54
102
{ACAD_REACTORS
330
47
102
}
330
47
100
AcDbScale
 70
     0
300
2:1
140
2.0
141
1.0
290
     0
  0
SCALE
  5
55
102
{ACAD_REACTORS
330
47
102
}
330
47
100
AcDbScale
 70
     0
300
4:1
140
4.0
141
1.0
290
     0
  0
SCALE
  5
56
102
{ACAD_REACTORS
330
47
102
}
330
47
100
AcDbScale
 70
     0
300
8:1
140
8.0
141
1.0
290
     0
  0
SCALE
  5
57
102
{ACAD_REACTORS
330
47
102
}
330
47
100
AcDbScale
 70
     0
300
10:1
140
10.0
141
1.0
290
     0
  0
SCALE
  5
58
102
{ACAD_REACTORS
330
47
102
}
330
47
100
AcDbScale
 70
     0
300
100:1
140
100.0
141
1.0
290
     0
  0
SCALE
  5
59
102
{ACAD_REACTORS
330
47
102
}
330
47
100
AcDbScale
 70
     0
300
1/128" = 1'-0"
140
0.0078125
141
12.0
290
     0
  0
SCALE
  5
5A
102
{ACAD_REACTORS
330
47
102
}
330
47
100
AcDbScale
 70
     0
300
1/64" = 1'-0"
140
0.015625
141
12.0
290
     0
  0
SCALE
  5
5B
102
{ACAD_REACTORS
330
47
102
}
330
47
100
AcDbScale
 70
     0
300
1/32" = 1'-0"
140
0.03125
141
12.0
290
     0
  0
SCALE
  5
5C
102
{ACAD_REACTORS
330
47
102
}
330
47
100
AcDbScale
 70
     0
300
1/16" = 1'-0"
140
0.0625
141
12.0
290
     0
  0
SCALE
  5
5D
102
{ACAD_REACTORS
330
47
102
}
330
47
100
AcDbScale
 70
     0
300
3/32" = 1'-0"
140
0.09375
141
12.0
290
     0
  0
SCALE
  5
5E
102
{ACAD_REACTORS
330
47
102
}
330
47
100
AcDbScale
 70
     0
300
1/8" = 1'-0"
140
0.125
141
12.0
290
     0
  0
SCALE
  5
5F
102
{ACAD_REACTORS
330
47
102
}
330
47
100
AcDbScale
 70
     0
300
3/16" = 1'-0"
140
0.1875
141
12.0
290
     0
  0
SCALE
  5
60
102
{ACAD_REACTORS
330
47
102
}
330
47
100
AcDbScale
 70
     0
300
1/4" = 1'-0"
140
0.25
141
12.0
290
     0
  0
SCALE
  5
61
102
{ACAD_REACTORS
330
47
102
}
330
47
100
AcDbScale
 70
     0
300
3/8" = 1'-0"
140
0.375
141
12.0
290
     0
  0
SCALE
  5
62
102
{ACAD_REACTORS
330
47
102
}
330
47
100
AcDbScale
 70
     0
300
1/2" = 1'-0"
140
0.5
141
12.0
290
     0
  0
SCALE
  5
63
102
{ACAD_REACTORS
330
47
102
}
330
47
100
AcDbScale
 70
     0
300
3/4" = 1'-0"
140
0.75
141
12.0
290
     0
  0
SCALE
  5
64
102
{ACAD_REACTORS
330
47
102
}
330
47
100
AcDbScale
 70
     0
300
1" = 1'-0"
140
1.0
141
12.0
290
     0
  0
SCALE
  5
65
102
{ACAD_REACTORS
330
47
102
}
330
47
100
AcDbScale
 70
     0
300
1-1/2" = 1'-0"
140
1.5
141
12.0
290
     0
  0
SCALE
  5
66
102
{ACAD_REACTORS
330
47
102
}
330
47
100
AcDbScale
 70
     0
300
3" = 1'-0"
140
3.0
141
12.0
290
     0
  0
SCALE
  5
67
102
{ACAD_REACTORS
330
47
102
}
330
47
100
AcDbScale
 70
     0
300
6" = 1'-0"
140
6.0
141
12.0
290
     0
  0
SCALE
  5
68
102
{ACAD_REACTORS
330
47
102
}
330
47
100
AcDbScale
 70
     0
300
1'-0" = 1'-0"
140
12.0
141
12.0
290
     0
  0
TABLESTYLE
  5
456
102
{ACAD_REACTORS
330
455
102
}
102
{ACAD_XDICTIONARY
360
474
102
}
330
455
100
AcDbTableStyle
  3
Standard
 70
     0
 71
     0
 40
1.5
 41
1.5
280
     0
281
     0
  7
Standard
140
4.5
170
     2
 62
     0
 63
   257
283
     0
 90
        4
 91
        0
  1

274
    -2
284
     1
 64
     0
275
    -2
285
     1
 65
     0
276
    -2
286
     1
 66
     0
277
    -2
287
     1
 67
     0
278
    -2
288
     1
 68
     0
279
    -2
289
     1
 69
     0
  7
Standard
140
6.0
170
     5
 62
     0
 63
   257
283
     0
 90
        4
 91
        0
  1

274
    -2
284
     1
 64
     0
275
    -2
285
     1
 65
     0
276
    -2
286
     1
 66
     0
277
    -2
287
     1
 67
     0
278
    -2
288
     1
 68
     0
279
    -2
289
     1
 69
     0
  7
Standard
140
4.5
170
     5
 62
     0
 63
   257
283
     0
 90
        4
 91
        0
  1

274
    -2
284
     1
 64
     0
275
    -2
285
     1
 65
     0
276
    -2
286
     1
 66
     0
277
    -2
287
     1
 67
     0
278
    -2
288
     1
 68
     0
279
    -2
289
     1
 69
     0
  0
VISUALSTYLE
  5
43D
102
{ACAD_REACTORS
330
438
102
}
330
438
100
AcDbVisualStyle
  2
2dWireframe
 70
     4
177
     3
291
     0
 70
    58
 90
        0
176
     1
 90
        2
176
     1
 90
        0
176
     1
 90
        0
176
     1
 40
0.6
176
     1
 40
30.0
176
     1
 62
     7
420
 16777215
176
     1
 90
        1
176
     1
 90
        4
176
     1
 62
     7
176
     1
 62
   257
176
     1
 90
        1
176
     1
 90
        1
176
     1
 40
1.0
176
     1
 90
        0
176
     1
 62
   257
176
     1
 40
1.0
176
     1
 90
        1
176
     1
 90
        6
176
     1
 90
        2
176
     1
 62
     7
176
     1
 90
        5
176
     1
 90
        0
176
     1
 90
        0
176
     1
290
     0
176
     1
 90
        1
176
     1
 40
0.0
176
     1
 90
        0
176
     1
290
     1
176
     1
290
     1
176
     1
290
     0
176
     1
290
     0
176
     1
290
     0
176
     1
290
     0
176
     1
290
     0
176
     1
290
     0
176
     1
290
     0
176
     1
 90
       50
176
     1
 40
0.0
176
     1
 40
1.0
176
     1
 90
        0
176
     1
 62
    18
420
        0
176
     1
 90
       50
176
     1
 90
        3
176
     1
 62
     5
420
      255
176
     1
290
     0
176
     1
 90
       50
176
     1
 90
       50
176
     1
 90
       50
176
     1
290
     0
176
     1
 90
       50
176
     1
 62
   256
176
     0
 40
1.0
176
     0
 90
        2
176
     1
  1
strokes_ogs.tif
176
     1
290
     0
176
     1
 40
1.0
176
     1
 40
1.0
176
     1
  0
VISUALSTYLE
  5
440
102
{ACAD_REACTORS
330
438
102
}
330
438
100
AcDbVisualStyle
  2
Basic
 70
     7
177
     3
291
     1
 70
    58
 90
        1
176
     1
 90
        0
176
     1
 90
        1
176
     1
 90
        0
176
     1
 40
0.6
176
     1
 40
30.0
176
     1
 62
     7
420
 16777215
176
     1
 90
        0
176
     1
 90
        4
176
     1
 62
     7
176
     1
 62
   257
176
     1
 90
        1
176
     1
 90
        1
176
     1
 40
1.0
176
     1
 90
        8
176
     1
 62
     7
176
     1
 40
1.0
176
     1
 90
        1
176
     1
 90
        6
176
     1
 90
        2
176
     1
 62
     7
176
     1
 90
        5
176
     1
 90
        0
176
     1
 90
        0
176
     1
290
     0
176
     1
 90
        1
176
     1
 40
0.0
176
     1
 90
        0
176
     1
290
     0
176
     1
290
     1
176
     1
290
     1
176
     1
290
     0
176
     1
290
     0
176
     1
290
     0
176
     1
290
     0
176
     1
290
     0
176
     1
290
     0
176
     1
 90
       50
176
     1
 40
0.0
176
     1
 40
1.0
176
     1
 90
        0
176
     1
 62
    18
420
        0
176
     1
 90
       50
176
     1
 90
        3
176
     1
 62
     5
420
      255
176
     1
290
     0
176
     1
 90
       50
176
     1
 90
       50
176
     1
 90
       50
176
     1
290
     0
176
     1
 90
       50
176
     1
 62
   256
176
     0
 40
1.0
176
     0
 90
        2
176
     1
  1
strokes_ogs.tif
176
     1
290
     0
176
     1
 40
1.0
176
     1
 40
1.0
176
     1
  0
VISUALSTYLE
  5
444
102
{ACAD_REACTORS
330
438
102
}
330
438
100
AcDbVisualStyle
  2
Brighten
 70
    12
177
     3
291
     1
 70
    58
 90
        2
176
     1
 90
        2
176
     1
 90
        0
176
     1
 90
        0
176
     1
 40
0.6
176
     1
 40
30.0
176
     1
 62
     7
420
 16777215
176
     1
 90
        1
176
     1
 90
        4
176
     1
 62
     7
176
     1
 62
   257
176
     1
 90
        1
176
     1
 90
        1
176
     1
 40
1.0
176
     1
 90
        8
176
     1
 62
     7
176
     1
 40
1.0
176
     1
 90
        1
176
     1
 90
        6
176
     1
 90
        2
176
     1
 62
     7
176
     1
 90
        5
176
     1
 90
        0
176
     1
 90
        0
176
     1
290
     0
176
     1
 90
        1
176
     1
 40
50.0
176
     1
 90
        0
176
     1
290
     0
176
     1
290
     1
176
     1
290
     1
176
     1
290
     0
176
     1
290
     0
176
     1
290
     0
176
     1
290
     0
176
     1
290
     0
176
     1
290
     0
176
     1
 90
       50
176
     1
 40
0.0
176
     1
 40
1.0
176
     1
 90
        0
176
     1
 62
    18
420
        0
176
     1
 90
       50
176
     1
 90
        3
176
     1
 62
     5
420
      255
176
     1
290
     0
176
     1
 90
       50
176
     1
 90
       50
176
     1
 90
       50
176
     1
290
     0
176
     1
 90
       50
176
     1
 62
   256
176
     0
 40
1.0
176
     0
 90
        2
176
     1
  1
strokes_ogs.tif
176
     1
290
     0
176
     1
 40
1.0
176
     1
 40
1.0
176
     1
  0
VISUALSTYLE
  5
448
102
{ACAD_REACTORS
330
438
102
}
330
438
100
AcDbVisualStyle
  2
ColorChange
 70
    16
177
     3
291
     1
 70
    58
 90
        2
176
     1
 90
        2
176
     1
 90
        3
176
     1
 90
        0
176
     1
 40
0.6
176
     1
 40
30.0
176
     1
 62
     8
420
  8421504
176
     1
 90
        1
176
     1
 90
        4
176
     1
 62
     7
176
     1
 62
   257
176
     1
 90
        1
176
     1
 90
        1
176
     1
 40
1.0
176
     1
 90
        8
176
     1
 62
     8
420
  8421504
176
     1
 40
1.0
176
     1
 90
        1
176
     1
 90
        6
176
     1
 90
        2
176
     1
 62
     7
176
     1
 90
        5
176
     1
 90
        0
176
     1
 90
        0
176
     1
290
     0
176
     1
 90
        1
176
     1
 40
0.0
176
     1
 90
        0
176
     1
290
     0
176
     1
290
     1
176
     1
290
     1
176
     1
290
     0
176
     1
290
     0
176
     1
290
     0
176
     1
290
     0
176
     1
290
     0
176
     1
290
     0
176
     1
 90
       50
176
     1
 40
0.0
176
     1
 40
1.0
176
     1
 90
        0
176
     1
 62
    18
420
        0
176
     1
 90
       50
176
     1
 90
        3
176
     1
 62
     5
420
      255
176
     1
290
     0
176
     1
 90
       50
176
     1
 90
       50
176
     1
 90
       50
176
     1
290
     0
176
     1
 90
       50
176
     1
 62
   256
176
     0
 40
1.0
176
     0
 90
        2
176
     1
  1
strokes_ogs.tif
176
     1
290
     0
176
     1
 40
1.0
176
     1
 40
1.0
176
     1
  0
VISUALSTYLE
  5
442
102
{ACAD_REACTORS
330
438
102
}
330
438
100
AcDbVisualStyle
  2
Conceptual
 70
     9
177
     3
291
     0
 70
    58
 90
        3
176
     1
 90
        2
176
     1
 90
        0
176
     1
 90
        0
176
     1
 40
0.6
176
     1
 40
30.0
176
     1
 62
     7
420
 16777215
176
     1
 90
        2
176
     1
 90
        2
176
     1
 62
     7
176
     1
 62
   257
176
     1
 90
        1
176
     1
 90
        1
176
     1
 40
179.0
176
     1
 90
        8
176
     1
 62
     7
176
     1
 40
1.0
176
     1
 90
        1
176
     1
 90
        6
176
     1
 90
        2
176
     1
 62
     7
176
     1
 90
        3
176
     1
 90
        0
176
     1
 90
        0
176
     1
290
     0
176
     1
 90
        1
176
     1
 40
0.0
176
     1
 90
        0
176
     1
290
     0
176
     1
290
     1
176
     1
290
     1
176
     1
290
     0
176
     1
290
     0
176
     1
290
     0
176
     1
290
     0
176
     1
290
     0
176
     1
290
     0
176
     1
 90
       50
176
     1
 40
0.0
176
     1
 40
1.0
176
     1
 90
        0
176
     1
 62
    18
420
        0
176
     1
 90
       50
176
     1
 90
        3
176
     1
 62
     5
420
      255
176
     1
290
     0
176
     1
 90
       50
176
     1
 90
       50
176
     1
 90
       50
176
     1
290
     0
176
     1
 90
       50
176
     1
 62
   256
176
     0
 40
1.0
176
     0
 90
        2
176
     1
  1
strokes_ogs.tif
176
     1
290
     0
176
     1
 40
1.0
176
     1
 40
1.0
176
     1
  0
VISUALSTYLE
  5
443
102
{ACAD_REACTORS
330
438
102
}
330
438
100
AcDbVisualStyle
  2
Dim
 70
    11
177
     3
291
     1
 70
    58
 90
        2
176
     1
 90
        2
176
     1
 90
        0
176
     1
 90
        0
176
     1
 40
0.6
176
     1
 40
30.0
176
     1
 62
     7
420
 16777215
176
     1
 90
        1
176
     1
 90
        4
176
     1
 62
     7
176
     1
 62
   257
176
     1
 90
        1
176
     1
 90
        1
176
     1
 40
1.0
176
     1
 90
        8
176
     1
 62
     7
176
     1
 40
1.0
176
     1
 90
        1
176
     1
 90
        6
176
     1
 90
        2
176
     1
 62
     7
176
     1
 90
        5
176
     1
 90
        0
176
     1
 90
        0
176
     1
290
     0
176
     1
 90
        1
176
     1
 40
-50.0
176
     1
 90
        0
176
     1
290
     0
176
     1
290
     1
176
     1
290
     1
176
     1
290
     0
176
     1
290
     0
176
     1
290
     0
176
     1
290
     0
176
     1
290
     0
176
     1
290
     0
176
     1
 90
       50
176
     1
 40
0.0
176
     1
 40
1.0
176
     1
 90
        0
176
     1
 62
    18
420
        0
176
     1
 90
       50
176
     1
 90
        3
176
     1
 62
     5
420
      255
176
     1
290
     0
176
     1
 90
       50
176
     1
 90
       50
176
     1
 90
       50
176
     1
290
     0
176
     1
 90
       50
176
     1
 62
   256
176
     0
 40
1.0
176
     0
 90
        2
176
     1
  1
strokes_ogs.tif
176
     1
290
     0
176
     1
 40
1.0
176
     1
 40
1.0
176
     1
  0
VISUALSTYLE
  5
44B
102
{ACAD_REACTORS
330
438
102
}
330
438
100
AcDbVisualStyle
  2
EdgeColorOff
 70
    22
177
     3
291
     1
 70
    58
 90
        2
176
     0
 90
        2
176
     0
 90
        0
176
     0
 90
        0
176
     0
 40
0.6
176
     0
 40
30.0
176
     0
 62
     7
420
 16777215
176
     0
 90
        1
176
     0
 90
        4
176
     0
 62
     7
176
     0
 62
   257
176
     0
 90
        1
176
     0
 90
        1
176
     0
 40
1.0
176
     0
 90
        8
176
     2
 62
     7
176
     0
 40
1.0
176
     0
 90
        1
176
     0
 90
        6
176
     0
 90
        2
176
     0
 62
     7
176
     0
 90
        5
176
     0
 90
        0
176
     0
 90
        0
176
     0
290
     0
176
     0
 90
        1
176
     0
 40
0.0
176
     0
 90
        0
176
     0
290
     0
176
     0
290
     1
176
     0
290
     1
176
     0
290
     0
176
     0
290
     0
176
     0
290
     0
176
     0
290
     0
176
     0
290
     0
176
     0
290
     0
176
     0
 90
       50
176
     0
 40
0.0
176
     0
 40
1.0
176
     0
 90
        0
176
     0
 62
    18
420
        0
176
     0
 90
       50
176
     0
 90
        3
176
     0
 62
     5
420
      255
176
     0
290
     0
176
     0
 90
       50
176
     0
 90
       50
176
     0
 90
       50
176
     0
290
     0
176
     0
 90
       50
176
     0
 62
   256
176
     0
 40
1.0
176
     0
 90
        2
176
     0
  1
strokes_ogs.tif
176
     0
290
     0
176
     0
 40
1.0
176
     0
 40
1.0
176
     0
  0
VISUALSTYLE
  5
447
102
{ACAD_REACTORS
330
438
102
}
330
438
100
AcDbVisualStyle
  2
Facepattern
 70
    15
177
     3
291
     1
 70
    58
 90
        2
176
     1
 90
        2
176
     1
 90
        0
176
     1
 90
        0
176
     1
 40
0.6
176
     1
 40
30.0
176
     1
 62
     7
420
 16777215
176
     1
 90
        1
176
     1
 90
        4
176
     1
 62
     7
176
     1
 62
   257
176
     1
 90
        1
176
     1
 90
        1
176
     1
 40
1.0
176
     1
 90
        8
176
     1
 62
     7
176
     1
 40
1.0
176
     1
 90
        1
176
     1
 90
        6
176
     1
 90
        2
176
     1
 62
     7
176
     1
 90
        5
176
     1
 90
        0
176
     1
 90
        0
176
     1
290
     0
176
     1
 90
        1
176
     1
 40
0.0
176
     1
 90
        0
176
     1
290
     0
176
     1
290
     1
176
     1
290
     1
176
     1
290
     0
176
     1
290
     0
176
     1
290
     0
176
     1
290
     0
176
     1
290
     0
176
     1
290
     0
176
     1
 90
       50
176
     1
 40
0.0
176
     1
 40
1.0
176
     1
 90
        0
176
     1
 62
    18
420
        0
176
     1
 90
       50
176
     1
 90
        3
176
     1
 62
     5
420
      255
176
     1
290
     0
176
     1
 90
       50
176
     1
 90
       50
176
     1
 90
       50
176
     1
290
     0
176
     1
 90
       50
176
     1
 62
   256
176
     0
 40
1.0
176
     0
 90
        2
176
     1
  1
strokes_ogs.tif
176
     1
290
     0
176
     1
 40
1.0
176
     1
 40
1.0
176
     1
  0
VISUALSTYLE
  5
439
102
{ACAD_REACTORS
330
438
102
}
330
438
100
AcDbVisualStyle
  2
Flat
 70
     0
177
     3
291
     1
 70
    58
 90
        2
176
     1
 90
        1
176
     1
 90
        1
176
     1
 90
        2
176
     1
 40
0.6
176
     1
 40
30.0
176
     1
 62
     7
420
 16777215
176
     1
 90
        0
176
     1
 90
        0
176
     1
 62
     7
176
     1
 62
   257
176
     1
 90
        1
176
     1
 90
        1
176
     1
 40
1.0
176
     1
 90
        8
176
     1
 62
     7
176
     1
 40
1.0
176
     1
 90
        1
176
     1
 90
        6
176
     1
 90
        2
176
     1
 62
     7
176
     1
 90
        5
176
     1
 90
        0
176
     1
 90
        0
176
     1
290
     0
176
     1
 90
       13
176
     1
 40
0.0
176
     1
 90
        0
176
     1
290
     0
176
     1
290
     1
176
     1
290
     1
176
     1
290
     0
176
     1
290
     0
176
     1
290
     0
176
     1
290
     0
176
     1
290
     0
176
     1
290
     0
176
     1
 90
       50
176
     1
 40
0.0
176
     1
 40
1.0
176
     1
 90
        0
176
     1
 62
    18
420
        0
176
     1
 90
       50
176
     1
 90
        3
176
     1
 62
     5
420
      255
176
     1
290
     0
176
     1
 90
       50
176
     1
 90
       50
176
     1
 90
       50
176
     1
290
     0
176
     1
 90
       50
176
     1
 62
   256
176
     0
 40
1.0
176
     0
 90
        2
176
     1
  1
strokes_ogs.tif
176
     1
290
     0
176
     1
 40
1.0
176
     1
 40
1.0
176
     1
  0
VISUALSTYLE
  5
43A
102
{ACAD_REACTORS
330
438
102
}
330
438
100
AcDbVisualStyle
  2
FlatWithEdges
 70
     1
177
     3
291
     1
 70
    58
 90
        2
176
     1
 90
        1
176
     1
 90
        1
176
     1
 90
        2
176
     1
 40
0.6
176
     1
 40
30.0
176
     1
 62
     7
420
 16777215
176
     1
 90
        1
176
     1
 90
        0
176
     1
 62
     7
176
     1
 62
   257
176
     1
 90
        1
176
     1
 90
        1
176
     1
 40
1.0
176
     1
 90
        0
176
     1
 62
   257
176
     1
 40
1.0
176
     1
 90
        1
176
     1
 90
        6
176
     1
 90
        2
176
     1
 62
     7
176
     1
 90
        5
176
     1
 90
        0
176
     1
 90
        0
176
     1
290
     0
176
     1
 90
       13
176
     1
 40
0.0
176
     1
 90
        0
176
     1
290
     0
176
     1
290
     1
176
     1
290
     1
176
     1
290
     0
176
     1
290
     0
176
     1
290
     0
176
     1
290
     0
176
     1
290
     0
176
     1
290
     0
176
     1
 90
       50
176
     1
 40
0.0
176
     1
 40
1.0
176
     1
 90
        0
176
     1
 62
    18
420
        0
176
     1
 90
       50
176
     1
 90
        3
176
     1
 62
     5
420
      255
176
     1
290
     0
176
     1
 90
       50
176
     1
 90
       50
176
     1
 90
       50
176
     1
290
     0
176
     1
 90
       50
176
     1
 62
   256
176
     0
 40
1.0
176
     0
 90
        2
176
     1
  1
strokes_ogs.tif
176
     1
290
     0
176
     1
 40
1.0
176
     1
 40
1.0
176
     1
  0
VISUALSTYLE
  5
43B
102
{ACAD_REACTORS
330
438
102
}
330
438
100
AcDbVisualStyle
  2
Gouraud
 70
     2
177
     3
291
     1
 70
    58
 90
        2
176
     1
 90
        2
176
     1
 90
        1
176
     1
 90
        2
176
     1
 40
0.6
176
     1
 40
30.0
176
     1
 62
     7
420
 16777215
176
     1
 90
        0
176
     1
 90
        0
176
     1
 62
     7
176
     1
 62
   257
176
     1
 90
        1
176
     1
 90
        1
176
     1
 40
1.0
176
     1
 90
        0
176
     1
 62
     7
176
     1
 40
1.0
176
     1
 90
        1
176
     1
 90
        6
176
     1
 90
        2
176
     1
 62
     7
176
     1
 90
        5
176
     1
 90
        0
176
     1
 90
        0
176
     1
290
     0
176
     1
 90
       13
176
     1
 40
0.0
176
     1
 90
        0
176
     1
290
     0
176
     1
290
     1
176
     1
290
     1
176
     1
290
     0
176
     1
290
     0
176
     1
290
     0
176
     1
290
     0
176
     1
290
     0
176
     1
290
     0
176
     1
 90
       50
176
     1
 40
0.0
176
     1
 40
1.0
176
     1
 90
        0
176
     1
 62
    18
420
        0
176
     1
 90
       50
176
     1
 90
        3
176
     1
 62
     5
420
      255
176
     1
290
     0
176
     1
 90
       50
176
     1
 90
       50
176
     1
 90
       50
176
     1
290
     0
176
     1
 90
       50
176
     1
 62
   256
176
     0
 40
1.0
176
     0
 90
        2
176
     1
  1
strokes_ogs.tif
176
     1
290
     0
176
     1
 40
1.0
176
     1
 40
1.0
176
     1
  0
VISUALSTYLE
  5
43C
102
{ACAD_REACTORS
330
438
102
}
330
438
100
AcDbVisualStyle
  2
GouraudWithEdges
 70
     3
177
     3
291
     1
 70
    58
 90
        2
176
     1
 90
        2
176
     1
 90
        1
176
     1
 90
        2
176
     1
 40
0.6
176
     1
 40
30.0
176
     1
 62
     7
420
 16777215
176
     1
 90
        1
176
     1
 90
        0
176
     1
 62
     7
176
     1
 62
   257
176
     1
 90
        1
176
     1
 90
        1
176
     1
 40
1.0
176
     1
 90
        0
176
     1
 62
   257
176
     1
 40
1.0
176
     1
 90
        1
176
     1
 90
        6
176
     1
 90
        2
176
     1
 62
     7
176
     1
 90
        5
176
     1
 90
        0
176
     1
 90
        0
176
     1
290
     0
176
     1
 90
       13
176
     1
 40
0.0
176
     1
 90
        0
176
     1
290
     0
176
     1
290
     1
176
     1
290
     1
176
     1
290
     0
176
     1
290
     0
176
     1
290
     0
176
     1
290
     0
176
     1
290
     0
176
     1
290
     0
176
     1
 90
       50
176
     1
 40
0.0
176
     1
 40
1.0
176
     1
 90
        0
176
     1
 62
    18
420
        0
176
     1
 90
       50
176
     1
 90
        3
176
     1
 62
     5
420
      255
176
     1
290
     0
176
     1
 90
       50
176
     1
 90
       50
176
     1
 90
       50
176
     1
290
     0
176
     1
 90
       50
176
     1
 62
   256
176
     0
 40
1.0
176
     0
 90
        2
176
     1
  1
strokes_ogs.tif
176
     1
290
     0
176
     1
 40
1.0
176
     1
 40
1.0
176
     1
  0
VISUALSTYLE
  5
43F
102
{ACAD_REACTORS
330
438
102
}
330
438
100
AcDbVisualStyle
  2
Hidden
 70
     6
177
     3
291
     0
 70
    58
 90
        1
176
     1
 90
        2
176
     1
 90
        2
176
     1
 90
        0
176
     1
 40
0.6
176
     1
 40
30.0
176
     1
 62
     7
420
 16777215
176
     1
 90
        2
176
     1
 90
        2
176
     1
 62
     7
176
     1
 62
   257
176
     1
 90
        2
176
     1
 90
        1
176
     1
 40
40.0
176
     1
 90
        0
176
     1
 62
   257
176
     1
 40
1.0
176
     1
 90
        1
176
     1
 90
        6
176
     1
 90
        2
176
     1
 62
     7
176
     1
 90
        3
176
     1
 90
        0
176
     1
 90
        0
176
     1
290
     0
176
     1
 90
        1
176
     1
 40
0.0
176
     1
 90
        0
176
     1
290
     0
176
     1
290
     1
176
     1
290
     1
176
     1
290
     0
176
     1
290
     0
176
     1
290
     0
176
     1
290
     0
176
     1
290
     0
176
     1
290
     0
176
     1
 90
       50
176
     1
 40
0.0
176
     1
 40
1.0
176
     1
 90
        0
176
     1
 62
    18
420
        0
176
     1
 90
       50
176
     1
 90
        3
176
     1
 62
     5
420
      255
176
     1
290
     0
176
     1
 90
       50
176
     1
 90
       50
176
     1
 90
       50
176
     1
290
     0
176
     1
 90
       50
176
     1
 62
   256
176
     0
 40
1.0
176
     0
 90
        2
176
     1
  1
strokes_ogs.tif
176
     1
290
     0
176
     1
 40
1.0
176
     1
 40
1.0
176
     1
  0
VISUALSTYLE
  5
449
102
{ACAD_REACTORS
330
438
102
}
330
438
100
AcDbVisualStyle
  2
JitterOff
 70
    20
177
     3
291
     1
 70
    58
 90
        2
176
     0
 90
        2
176
     0
 90
        0
176
     0
 90
        0
176
     0
 40
0.6
176
     0
 40
30.0
176
     0
 62
     7
420
 16777215
176
     0
 90
        1
176
     0
 90
        4
176
     0
 62
     7
176
     0
 62
   257
176
     0
 90
        1
176
     0
 90
        1
176
     0
 40
1.0
176
     0
 90
       10
176
     2
 62
     7
176
     0
 40
1.0
176
     0
 90
        1
176
     0
 90
        6
176
     0
 90
        2
176
     0
 62
     7
176
     0
 90
        5
176
     0
 90
        0
176
     0
 90
        0
176
     0
290
     0
176
     0
 90
        1
176
     0
 40
0.0
176
     0
 90
        0
176
     0
290
     0
176
     0
290
     1
176
     0
290
     1
176
     0
290
     0
176
     0
290
     0
176
     0
290
     0
176
     0
290
     0
176
     0
290
     0
176
     0
290
     0
176
     0
 90
       50
176
     0
 40
0.0
176
     0
 40
1.0
176
     0
 90
        0
176
     0
 62
    18
420
        0
176
     0
 90
       50
176
     0
 90
        3
176
     0
 62
     5
420
      255
176
     0
290
     0
176
     0
 90
       50
176
     0
 90
       50
176
     0
 90
       50
176
     0
290
     0
176
     0
 90
       50
176
     0
 62
   256
176
     0
 40
1.0
176
     0
 90
        2
176
     0
  1
strokes_ogs.tif
176
     0
290
     0
176
     0
 40
1.0
176
     0
 40
1.0
176
     0
  0
VISUALSTYLE
  5
446
102
{ACAD_REACTORS
330
438
102
}
330
438
100
AcDbVisualStyle
  2
Linepattern
 70
    14
177
     3
291
     1
 70
    58
 90
        2
176
     1
 90
        2
176
     1
 90
        0
176
     1
 90
        0
176
     1
 40
0.6
176
     1
 40
30.0
176
     1
 62
     7
420
 16777215
176
     1
 90
        1
176
     1
 90
        4
176
     1
 62
     7
176
     1
 62
   257
176
     1
 90
        7
176
     1
 90
        7
176
     1
 40
1.0
176
     1
 90
        8
176
     1
 62
     7
176
     1
 40
1.0
176
     1
 90
        1
176
     1
 90
        6
176
     1
 90
        2
176
     1
 62
     7
176
     1
 90
        5
176
     1
 90
        0
176
     1
 90
        0
176
     1
290
     0
176
     1
 90
        1
176
     1
 40
0.0
176
     1
 90
        0
176
     1
290
     0
176
     1
290
     1
176
     1
290
     1
176
     1
290
     0
176
     1
290
     0
176
     1
290
     0
176
     1
290
     0
176
     1
290
     0
176
     1
290
     0
176
     1
 90
       50
176
     1
 40
0.0
176
     1
 40
1.0
176
     1
 90
        0
176
     1
 62
    18
420
        0
176
     1
 90
       50
176
     1
 90
        3
176
     1
 62
     5
420
      255
176
     1
290
     0
176
     1
 90
       50
176
     1
 90
       50
176
     1
 90
       50
176
     1
290
     0
176
     1
 90
       50
176
     1
 62
   256
176
     0
 40
1.0
176
     0
 90
        2
176
     1
  1
strokes_ogs.tif
176
     1
290
     0
176
     1
 40
1.0
176
     1
 40
1.0
176
     1
  0
VISUALSTYLE
  5
44A
102
{ACAD_REACTORS
330
438
102
}
330
438
100
AcDbVisualStyle
  2
OverhangOff
 70
    21
177
     3
291
     1
 70
    58
 90
        2
176
     0
 90
        2
176
     0
 90
        0
176
     0
 90
        0
176
     0
 40
0.6
176
     0
 40
30.0
176
     0
 62
     7
420
 16777215
176
     0
 90
        1
176
     0
 90
        4
176
     0
 62
     7
176
     0
 62
   257
176
     0
 90
        1
176
     0
 90
        1
176
     0
 40
1.0
176
     0
 90
        9
176
     2
 62
     7
176
     0
 40
1.0
176
     0
 90
        1
176
     0
 90
        6
176
     0
 90
        2
176
     0
 62
     7
176
     0
 90
        5
176
     0
 90
        0
176
     0
 90
        0
176
     0
290
     0
176
     0
 90
        1
176
     0
 40
0.0
176
     0
 90
        0
176
     0
290
     0
176
     0
290
     1
176
     0
290
     1
176
     0
290
     0
176
     0
290
     0
176
     0
290
     0
176
     0
290
     0
176
     0
290
     0
176
     0
290
     0
176
     0
 90
       50
176
     0
 40
0.0
176
     0
 40
1.0
176
     0
 90
        0
176
     0
 62
    18
420
        0
176
     0
 90
       50
176
     0
 90
        3
176
     0
 62
     5
420
      255
176
     0
290
     0
176
     0
 90
       50
176
     0
 90
       50
176
     0
 90
       50
176
     0
290
     0
176
     0
 90
       50
176
     0
 62
   256
176
     0
 40
1.0
176
     0
 90
        2
176
     0
  1
strokes_ogs.tif
176
     0
290
     0
176
     0
 40
1.0
176
     0
 40
1.0
176
     0
  0
VISUALSTYLE
  5
441
102
{ACAD_REACTORS
330
438
102
}
330
438
100
AcDbVisualStyle
  2
Realistic
 70
     8
177
     3
291
     0
 70
    58
 90
        2
176
     1
 90
        3
176
     1
 90
        0
176
     1
 90
        2
176
     1
 40
0.6
176
     1
 40
30.0
176
     1
 62
     7
420
 16777215
176
     1
 90
        0
176
     1
 90
        0
176
     1
 62
     7
176
     1
 62
   257
176
     1
 90
        1
176
     1
 90
        1
176
     1
 40
1.0
176
     1
 90
        8
176
     1
 62
   257
176
     1
 40
1.0
176
     1
 90
        1
176
     1
 90
        6
176
     1
 90
        2
176
     1
 62
     7
176
     1
 90
        3
176
     1
 90
        0
176
     1
 90
        0
176
     1
290
     0
176
     1
 90
       13
176
     1
 40
0.0
176
     1
 90
        0
176
     1
290
     0
176
     1
290
     1
176
     1
290
     1
176
     1
290
     0
176
     1
290
     0
176
     1
290
     0
176
     1
290
     0
176
     1
290
     0
176
     1
290
     0
176
     1
 90
       50
176
     1
 40
0.0
176
     1
 40
1.0
176
     1
 90
        0
176
     1
 62
    18
420
        0
176
     1
 90
       50
176
     1
 90
        3
176
     1
 62
     5
420
      255
176
     1
290
     0
176
     1
 90
       50
176
     1
 90
       50
176
     1
 90
       50
176
     1
290
     0
176
     1
 90
       50
176
     1
 62
   256
176
     0
 40
1.0
176
     0
 90
        2
176
     1
  1
strokes_ogs.tif
176
     1
290
     0
176
     1
 40
1.0
176
     1
 40
1.0
176
     1
  0
VISUALSTYLE
  5
450
102
{ACAD_REACTORS
330
438
102
}
330
438
100
AcDbVisualStyle
  2
Shaded
 70
    27
177
     3
291
     0
 70
    58
 90
        2
176
     1
 90
        2
176
     1
 90
        1
176
     1
 90
        2
176
     1
 40
0.6
176
     1
 40
30.0
176
     1
 62
     7
420
 16777215
176
     1
 90
        0
176
     1
 90
        4
176
     1
 62
     7
176
     1
 62
   257
176
     1
 90
        1
176
     1
 90
        1
176
     1
 40
1.0
176
     1
 90
        8
176
     1
 62
   257
176
     1
 40
1.0
176
     1
 90
        1
176
     1
 90
        6
176
     1
 90
        2
176
     1
 62
     8
420
  7895160
176
     1
 90
        3
176
     1
 90
        0
176
     1
 90
        0
176
     1
290
     0
176
     1
 90
        5
176
     1
 40
0.0
176
     1
 90
        0
176
     1
290
     0
176
     1
290
     1
176
     1
290
     1
176
     1
290
     0
176
     1
290
     0
176
     1
290
     0
176
     1
290
     0
176
     1
290
     0
176
     1
290
     0
176
     1
 90
       50
176
     1
 40
0.0
176
     1
 40
1.0
176
     1
 90
        0
176
     1
 62
    18
420
        0
176
     1
 90
       50
176
     1
 90
        3
176
     1
 62
     5
420
      255
176
     1
290
     0
176
     1
 90
       50
176
     1
 90
       50
176
     1
 90
       50
176
     1
290
     0
176
     1
 90
       50
176
     1
 62
   256
176
     0
 40
1.0
176
     0
 90
        2
176
     1
  1
strokes_ogs.tif
176
     1
290
     0
176
     1
 40
1.0
176
     1
 40
1.0
176
     1
  0
VISUALSTYLE
  5
44F
102
{ACAD_REACTORS
330
438
102
}
330
438
100
AcDbVisualStyle
  2
Shaded with edges
 70
    26
177
     3
291
     0
 70
    58
 90
        2
176
     1
 90
        2
176
     1
 90
        1
176
     1
 90
        2
176
     1
 40
0.6
176
     1
 40
30.0
176
     1
 62
     7
420
 16777215
176
     1
 90
        1
176
     1
 90
       10
176
     1
 62
     7
176
     1
 62
   257
176
     1
 90
        2
176
     1
 90
        1
176
     1
 40
1.0
176
     1
 90
        8
176
     1
 62
   257
176
     1
 40
1.0
176
     1
 90
        1
176
     1
 90
        6
176
     1
 90
        2
176
     1
 62
     7
176
     1
 90
        3
176
     1
 90
        0
176
     1
 90
        0
176
     1
290
     0
176
     1
 90
        5
176
     1
 40
0.0
176
     1
 90
        0
176
     1
290
     0
176
     1
290
     1
176
     1
290
     1
176
     1
290
     0
176
     1
290
     0
176
     1
290
     0
176
     1
290
     0
176
     1
290
     0
176
     1
290
     0
176
     1
 90
       50
176
     1
 40
0.0
176
     1
 40
1.0
176
     1
 90
        0
176
     1
 62
    18
420
        0
176
     1
 90
       50
176
     1
 90
        3
176
     1
 62
     5
420
      255
176
     1
290
     0
176
     1
 90
       50
176
     1
 90
       50
176
     1
 90
       50
176
     1
290
     0
176
     1
 90
       50
176
     1
 62
   256
176
     0
 40
1.0
176
     0
 90
        2
176
     1
  1
strokes_ogs.tif
176
     1
290
     0
176
     1
 40
1.0
176
     1
 40
1.0
176
     1
  0
VISUALSTYLE
  5
44C
102
{ACAD_REACTORS
330
438
102
}
330
438
100
AcDbVisualStyle
  2
Shades of Gray
 70
    23
177
     3
291
     0
 70
    58
 90
        2
176
     1
 90
        2
176
     1
 90
        3
176
     1
 90
        0
176
     1
 40
0.6
176
     1
 40
30.0
176
     1
 62
     7
420
 16777215
176
     1
 90
        2
176
     1
 90
        2
176
     1
 62
     7
176
     1
 62
     7
176
     1
 90
        1
176
     1
 90
        1
176
     1
 40
40.0
176
     1
 90
        8
176
     1
 62
     7
176
     1
 40
1.0
176
     1
 90
        1
176
     1
 90
        6
176
     1
 90
        2
176
     1
 62
     7
176
     1
 90
        3
176
     1
 90
        0
176
     1
 90
        0
176
     1
290
     0
176
     1
 90
        1
176
     1
 40
0.0
176
     1
 90
        0
176
     1
290
     0
176
     1
290
     1
176
     1
290
     1
176
     1
290
     0
176
     1
290
     0
176
     1
290
     0
176
     1
290
     0
176
     1
290
     0
176
     1
290
     0
176
     1
 90
       50
176
     1
 40
0.0
176
     1
 40
1.0
176
     1
 90
        0
176
     1
 62
    18
420
        0
176
     1
 90
       50
176
     1
 90
        3
176
     1
 62
     5
420
      255
176
     1
290
     0
176
     1
 90
       50
176
     1
 90
       50
176
     1
 90
       50
176
     1
290
     0
176
     1
 90
       50
176
     1
 62
   256
176
     0
 40
1.0
176
     0
 90
        2
176
     1
  1
strokes_ogs.tif
176
     1
290
     0
176
     1
 40
1.0
176
     1
 40
1.0
176
     1
  0
VISUALSTYLE
  5
44D
102
{ACAD_REACTORS
330
438
102
}
330
438
100
AcDbVisualStyle
  2
Sketchy
 70
    24
177
     3
291
     0
 70
    58
 90
        1
176
     1
 90
        2
176
     1
 90
        2
176
     1
 90
        0
176
     1
 40
0.6
176
     1
 40
30.0
176
     1
 62
     7
420
 16777215
176
     1
 90
        2
176
     1
 90
        2
176
     1
 62
     7
176
     1
 62
     7
176
     1
 90
        1
176
     1
 90
        1
176
     1
 40
40.0
176
     1
 90
       11
176
     1
 62
     7
176
     1
 40
1.0
176
     1
 90
        1
176
     1
 90
        6
176
     1
 90
        2
176
     1
 62
     7
176
     1
 90
        6
176
     1
 90
        0
176
     1
 90
        0
176
     1
290
     0
176
     1
 90
        1
176
     1
 40
0.0
176
     1
 90
        0
176
     1
290
     0
176
     1
290
     1
176
     1
290
     1
176
     1
290
     0
176
     1
290
     0
176
     1
290
     0
176
     1
290
     0
176
     1
290
     0
176
     1
290
     0
176
     1
 90
       50
176
     1
 40
0.0
176
     1
 40
1.0
176
     1
 90
        0
176
     1
 62
    18
420
        0
176
     1
 90
       50
176
     1
 90
        3
176
     1
 62
     5
420
      255
176
     1
290
     0
176
     1
 90
       50
176
     1
 90
       50
176
     1
 90
       50
176
     1
290
     0
176
     1
 90
       50
176
     1
 62
   256
176
     0
 40
1.0
176
     0
 90
        2
176
     1
  1
strokes_ogs.tif
176
     1
290
     0
176
     1
 40
1.0
176
     1
 40
1.0
176
     1
  0
VISUALSTYLE
  5
445
102
{ACAD_REACTORS
330
438
102
}
330
438
100
AcDbVisualStyle
  2
Thicken
 70
    13
177
     3
291
     1
 70
    58
 90
        2
176
     1
 90
        2
176
     1
 90
        0
176
     1
 90
        0
176
     1
 40
0.6
176
     1
 40
30.0
176
     1
 62
     7
420
 16777215
176
     1
 90
        1
176
     1
 90
        4
176
     1
 62
     7
176
     1
 62
   257
176
     1
 90
        1
176
     1
 90
        1
176
     1
 40
1.0
176
     1
 90
       12
176
     1
 62
     7
176
     1
 40
1.0
176
     1
 90
        1
176
     1
 90
        6
176
     1
 90
        2
176
     1
 62
     7
176
     1
 90
        5
176
     1
 90
        0
176
     1
 90
        0
176
     1
290
     0
176
     1
 90
        1
176
     1
 40
0.0
176
     1
 90
        0
176
     1
290
     0
176
     1
290
     1
176
     1
290
     1
176
     1
290
     0
176
     1
290
     0
176
     1
290
     0
176
     1
290
     0
176
     1
290
     0
176
     1
290
     0
176
     1
 90
       50
176
     1
 40
0.0
176
     1
 40
1.0
176
     1
 90
        0
176
     1
 62
    18
420
        0
176
     1
 90
       50
176
     1
 90
        3
176
     1
 62
     5
420
      255
176
     1
290
     0
176
     1
 90
       50
176
     1
 90
       50
176
     1
 90
       50
176
     1
290
     0
176
     1
 90
       50
176
     1
 62
   256
176
     0
 40
1.0
176
     0
 90
        2
176
     1
  1
strokes_ogs.tif
176
     1
290
     0
176
     1
 40
1.0
176
     1
 40
1.0
176
     1
  0
VISUALSTYLE
  5
43E
102
{ACAD_REACTORS
330
438
102
}
330
438
100
AcDbVisualStyle
  2
Wireframe
 70
     5
177
     3
291
     0
 70
    58
 90
        0
176
     1
 90
        2
176
     1
 90
        0
176
     1
 90
        0
176
     1
 40
0.6
176
     1
 40
30.0
176
     1
 62
     7
420
 16777215
176
     1
 90
        1
176
     1
 90
        4
176
     1
 62
     7
176
     1
 62
   257
176
     1
 90
        1
176
     1
 90
        1
176
     1
 40
1.0
176
     1
 90
        0
176
     1
 62
   257
176
     1
 40
1.0
176
     1
 90
        1
176
     1
 90
        6
176
     1
 90
        2
176
     1
 62
     7
176
     1
 90
        3
176
     1
 90
        0
176
     1
 90
        0
176
     1
290
     0
176
     1
 90
        1
176
     1
 40
0.0
176
     1
 90
        0
176
     1
290
     0
176
     1
290
     1
176
     1
290
     1
176
     1
290
     0
176
     1
290
     0
176
     1
290
     0
176
     1
290
     0
176
     1
290
     0
176
     1
290
     0
176
     1
 90
       50
176
     1
 40
0.0
176
     1
 40
1.0
176
     1
 90
        0
176
     1
 62
    18
420
        0
176
     1
 90
       50
176
     1
 90
        3
176
     1
 62
     5
420
      255
176
     1
290
     0
176
     1
 90
       50
176
     1
 90
       50
176
     1
 90
       50
176
     1
290
     0
176
     1
 90
       50
176
     1
 62
   256
176
     0
 40
1.0
176
     0
 90
        2
176
     1
  1
strokes_ogs.tif
176
     1
290
     0
176
     1
 40
1.0
176
     1
 40
1.0
176
     1
  0
VISUALSTYLE
  5
44E
102
{ACAD_REACTORS
330
438
102
}
330
438
100
AcDbVisualStyle
  2
X-Ray
 70
    25
177
     3
291
     0
 70
    58
 90
        2
176
     1
 90
        2
176
     1
 90
        1
176
     1
 90
        1
176
     1
 40
0.5
176
     1
 40
30.0
176
     1
 62
     7
420
 16777215
176
     1
 90
        1
176
     1
 90
        0
176
     1
 62
     7
176
     1
 62
   257
176
     1
 90
        1
176
     1
 90
        1
176
     1
 40
1.0
176
     1
 90
        8
176
     1
 62
     7
176
     1
 40
1.0
176
     1
 90
        1
176
     1
 90
        6
176
     1
 90
        2
176
     1
 62
     7
176
     1
 90
        3
176
     1
 90
        0
176
     1
 90
        0
176
     1
290
     0
176
     1
 90
       13
176
     1
 40
0.0
176
     1
 90
        0
176
     1
290
     0
176
     1
290
     1
176
     1
290
     1
176
     1
290
     0
176
     1
290
     0
176
     1
290
     0
176
     1
290
     0
176
     1
290
     0
176
     1
290
     0
176
     1
 90
       50
176
     1
 40
0.0
176
     1
 40
1.0
176
     1
 90
        0
176
     1
 62
    18
420
        0
176
     1
 90
       50
176
     1
 90
        3
176
     1
 62
     5
420
      255
176
     1
290
     0
176
     1
 90
       50
176
     1
 90
       50
176
     1
 90
       50
176
     1
290
     0
176
     1
 90
       50
176
     1
 62
   256
176
     0
 40
1.0
176
     0
 90
        2
176
     1
  1
strokes_ogs.tif
176
     1
290
     0
176
     1
 40
1.0
176
     1
 40
1.0
176
     1
  0
DICTIONARYVAR
  5
464
102
{ACAD_REACTORS
330
463
102
}
330
463
100
DictionaryVariables
280
     0
  1
1:1
  0
DICTIONARYVAR
  5
466
102
{ACAD_REACTORS
330
463
102
}
330
463
100
DictionaryVariables
280
     0
  1
Standard
  0
DICTIONARYVAR
  5
465
102
{ACAD_REACTORS
330
463
102
}
330
463
100
DictionaryVariables
280
     0
  1
Standard
  0
DICTIONARYVAR
  5
467
102
{ACAD_REACTORS
330
463
102
}
330
463
100
DictionaryVariables
280
     0
  1
0
  0
DICTIONARY
  5
474
330
456
100
AcDbDictionary
280
     1
281
     1
  3
ACAD_ROUNDTRIP_2008_TABLESTYLE_CELLSTYLEMAP
360
475
  0
CELLSTYLEMAP
  5
475
102
{ACAD_REACTORS
330
474
102
}
330
474
100
AcDbCellStyleMap
 90
        3
300
CELLSTYLE
  1
TABLEFORMAT_BEGIN
 90
        5
170
     1
 91
        0
 92
    32768
 62
   257
 93
        1
300
CONTENTFORMAT
  1
CONTENTFORMAT_BEGIN
 90
        0
 91
        0
 92
        4
 93
        0
300

 40
0.0
140
1.0
 94
        5
 62
     0
340
11
144
6.0
309
CONTENTFORMAT_END
171
     1
301
MARGIN
  1
CELLMARGIN_BEGIN
 40
1.5
 40
1.5
 40
1.5
 40
1.5
 40
1.5
 40
1.5
309
CELLMARGIN_END
 94
        6
 95
        1
302
GRIDFORMAT
  1
GRIDFORMAT_BEGIN
 90
        0
 91
        1
 62
     0
 92
       -2
340
14
 93
        0
 40
0.045
309
GRIDFORMAT_END
 95
        2
302
GRIDFORMAT
  1
GRIDFORMAT_BEGIN
 90
        0
 91
        1
 62
     0
 92
       -2
340
14
 93
        0
 40
0.045
309
GRIDFORMAT_END
 95
        4
302
GRIDFORMAT
  1
GRIDFORMAT_BEGIN
 90
        0
 91
        1
 62
     0
 92
       -2
340
14
 93
        0
 40
0.045
309
GRIDFORMAT_END
 95
        8
302
GRIDFORMAT
  1
GRIDFORMAT_BEGIN
 90
        0
 91
        1
 62
     0
 92
       -2
340
14
 93
        0
 40
0.045
309
GRIDFORMAT_END
 95
       16
302
GRIDFORMAT
  1
GRIDFORMAT_BEGIN
 90
        0
 91
        1
 62
     0
 92
       -2
340
14
 93
        0
 40
0.045
309
GRIDFORMAT_END
 95
       32
302
GRIDFORMAT
  1
GRIDFORMAT_BEGIN
 90
        0
 91
        1
 62
     0
 92
       -2
340
14
 93
        0
 40
0.045
309
GRIDFORMAT_END
309
TABLEFORMAT_END
  1
CELLSTYLE_BEGIN
 90
        1
 91
        1
300
_TITLE
309
CELLSTYLE_END
300
CELLSTYLE
  1
TABLEFORMAT_BEGIN
 90
        5
170
     1
 91
        0
 92
        0
 62
   257
 93
        1
300
CONTENTFORMAT
  1
CONTENTFORMAT_BEGIN
 90
        0
 91
        0
 92
        4
 93
        0
300

 40
0.0
140
1.0
 94
        5
 62
     0
340
11
144
4.5
309
CONTENTFORMAT_END
171
     1
301
MARGIN
  1
CELLMARGIN_BEGIN
 40
1.5
 40
1.5
 40
1.5
 40
1.5
 40
1.5
 40
1.5
309
CELLMARGIN_END
 94
        6
 95
        1
302
GRIDFORMAT
  1
GRIDFORMAT_BEGIN
 90
        0
 91
        1
 62
     0
 92
       -2
340
14
 93
        0
 40
0.045
309
GRIDFORMAT_END
 95
        2
302
GRIDFORMAT
  1
GRIDFORMAT_BEGIN
 90
        0
 91
        1
 62
     0
 92
       -2
340
14
 93
        0
 40
0.045
309
GRIDFORMAT_END
 95
        4
302
GRIDFORMAT
  1
GRIDFORMAT_BEGIN
 90
        0
 91
        1
 62
     0
 92
       -2
340
14
 93
        0
 40
0.045
309
GRIDFORMAT_END
 95
        8
302
GRIDFORMAT
  1
GRIDFORMAT_BEGIN
 90
        0
 91
        1
 62
     0
 92
       -2
340
14
 93
        0
 40
0.045
309
GRIDFORMAT_END
 95
       16
302
GRIDFORMAT
  1
GRIDFORMAT_BEGIN
 90
        0
 91
        1
 62
     0
 92
       -2
340
14
 93
        0
 40
0.045
309
GRIDFORMAT_END
 95
       32
302
GRIDFORMAT
  1
GRIDFORMAT_BEGIN
 90
        0
 91
        1
 62
     0
 92
       -2
340
14
 93
        0
 40
0.045
309
GRIDFORMAT_END
309
TABLEFORMAT_END
  1
CELLSTYLE_BEGIN
 90
        2
 91
        1
300
_HEADER
309
CELLSTYLE_END
300
CELLSTYLE
  1
TABLEFORMAT_BEGIN
 90
        5
170
     1
 91
        0
 92
        0
 62
   257
 93
        1
300
CONTENTFORMAT
  1
CONTENTFORMAT_BEGIN
 90
        0
 91
        0
 92
        4
 93
        0
300

 40
0.0
140
1.0
 94
        2
 62
     0
340
11
144
4.5
309
CONTENTFORMAT_END
171
     1
301
MARGIN
  1
CELLMARGIN_BEGIN
 40
1.5
 40
1.5
 40
1.5
 40
1.5
 40
1.5
 40
1.5
309
CELLMARGIN_END
 94
        6
 95
        1
302
GRIDFORMAT
  1
GRIDFORMAT_BEGIN
 90
        0
 91
        1
 62
     0
 92
       -2
340
14
 93
        0
 40
0.045
309
GRIDFORMAT_END
 95
        2
302
GRIDFORMAT
  1
GRIDFORMAT_BEGIN
 90
        0
 91
        1
 62
     0
 92
       -2
340
14
 93
        0
 40
0.045
309
GRIDFORMAT_END
 95
        4
302
GRIDFORMAT
  1
GRIDFORMAT_BEGIN
 90
        0
 91
        1
 62
     0
 92
       -2
340
14
 93
        0
 40
0.045
309
GRIDFORMAT_END
 95
        8
302
GRIDFORMAT
  1
GRIDFORMAT_BEGIN
 90
        0
 91
        1
 62
     0
 92
       -2
340
14
 93
        0
 40
0.045
309
GRIDFORMAT_END
 95
       16
302
GRIDFORMAT
  1
GRIDFORMAT_BEGIN
 90
        0
 91
        1
 62
     0
 92
       -2
340
14
 93
        0
 40
0.045
309
GRIDFORMAT_END
 95
       32
302
GRIDFORMAT
  1
GRIDFORMAT_BEGIN
 90
        0
 91
        1
 62
     0
 92
       -2
340
14
 93
        0
 40
0.045
309
GRIDFORMAT_END
309
TABLEFORMAT_END
  1
CELLSTYLE_BEGIN
 90
        3
 91
        2
300
_DATA
309
CELLSTYLE_END
  0
ENDSEC
  0
EOF
