  0
SECTION
  2
HEADER
  9
$ACADVER
  1
AC1027
  9
$ACADMAINTVER
 70
     8
  9
$DWGCODEPAGE
  3
ANSI_1252
  9
$REQUIREDVERSIONS
160
                 0
  9
$LASTSAVEDBY
  1
cesare
  9
$INSBASE
 10
0.0
 20
0.0
 30
0.0
  9
$EXTMIN
 10
77.02610504242887
 20
36.04576852556892
 30
0.0
  9
$EXTMAX
 10
511.7628877022614
 20
424.2224044566738
 30
0.0
  9
$LIMMIN
 10
0.0
 20
0.0
  9
$LIMMAX
 10
420.0
 20
297.0
  9
$ORTHOMODE
 70
     1
  9
$REGENMODE
 70
     1
  9
$FILLMODE
 70
     1
  9
$QTEXTMODE
 70
     0
  9
$MIRRTEXT
 70
     1
  9
$LTSCALE
 40
1.0
  9
$ATTMODE
 70
     1
  9
$TEXTSIZE
 40
2.8
  9
$TRACEWID
 40
1.0
  9
$TEXTSTYLE
  7
Standard
  9
$CLAYER
  8
0
  9
$CELTYPE
  6
ByLayer
  9
$CECOLOR
 62
   256
  9
$CELTSCALE
 40
1.0
  9
$DISPSILH
 70
     0
  9
$DIMSCALE
 40
1.0
  9
$DIMASZ
 40
3.2
  9
$DIMEXO
 40
0.1
  9
$DIMDLI
 40
3.75
  9
$DIMRND
 40
0.0
  9
$DIMDLE
 40
0.0
  9
$DIMEXE
 40
1.0
  9
$DIMTP
 40
0.0
  9
$DIMTM
 40
0.0
  9
$DIMTXT
 40
3.2
  9
$DIMCEN
 40
2.5
  9
$DIMTSZ
 40
0.0
  9
$DIMTOL
 70
     0
  9
$DIMLIM
 70
     0
  9
$DIMTIH
 70
     1
  9
$DIMTOH
 70
     1
  9
$DIMSE1
 70
     0
  9
$DIMSE2
 70
     0
  9
$DIMTAD
 70
     1
  9
$DIMZIN
 70
     0
  9
$DIMBLK
  1

  9
$DIMASO
 70
     1
  9
$DIMSHO
 70
     1
  9
$DIMPOST
  1

  9
$DIMAPOST
  1

  9
$DIMALT
 70
     0
  9
$DIMALTD
 70
     3
  9
$DIMALTF
 40
0.0393700787401575
  9
$DIMLFAC
 40
1.0
  9
$DIMTOFL
 70
     1
  9
$DIMTVP
 40
0.0
  9
$DIMTIX
 70
     0
  9
$DIMSOXD
 70
     0
  9
$DIMSAH
 70
     0
  9
$DIMBLK1
  1

  9
$DIMBLK2
  1

  9
$DIMSTYLE
  2
ISO-25
  9
$DIMCLRD
 70
     0
  9
$DIMCLRE
 70
     0
  9
$DIMCLRT
 70
     0
  9
$DIMTFAC
 40
1.0
  9
$DIMGAP
 40
2.0
  9
$DIMJUST
 70
     0
  9
$DIMSD1
 70
     0
  9
$DIMSD2
 70
     0
  9
$DIMTOLJ
 70
     0
  9
$DIMTZIN
 70
     0
  9
$DIMALTZ
 70
     0
  9
$DIMALTTZ
 70
     0
  9
$DIMUPT
 70
     0
  9
$DIMDEC
 70
     2
  9
$DIMTDEC
 70
     2
  9
$DIMALTU
 70
     2
  9
$DIMALTTD
 70
     3
  9
$DIMTXSTY
  7
Standard
  9
$DIMAUNIT
 70
     0
  9
$DIMADEC
 70
     2
  9
$DIMALTRND
 40
0.0
  9
$DIMAZIN
 70
     0
  9
$DIMDSEP
 70
    44
  9
$DIMATFIT
 70
     3
  9
$DIMFRAC
 70
     0
  9
$DIMLDRBLK
  1

  9
$DIMLUNIT
 70
     2
  9
$DIMLWD
 70
    -2
  9
$DIMLWE
 70
    -2
  9
$DIMTMOVE
 70
     0
  9
$DIMFXL
 40
1.0
  9
$DIMFXLON
 70
     0
  9
$DIMJOGANG
 40
0.7853981633974483
  9
$DIMTFILL
 70
     0
  9
$DIMTFILLCLR
 70
     0
  9
$DIMARCSYM
 70
     0
  9
$DIMLTYPE
  6

  9
$DIMLTEX1
  6

  9
$DIMLTEX2
  6

  9
$DIMTXTDIRECTION
 70
     0
  9
$LUNITS
 70
     2
  9
$LUPREC
 70
     2
  9
$SKETCHINC
 40
1.0
  9
$FILLETRAD
 40
9.0
  9
$AUNITS
 70
     0
  9
$AUPREC
 70
     2
  9
$MENU
  1
.
  9
$ELEVATION
 40
0.0
  9
$PELEVATION
 40
0.0
  9
$THICKNESS
 40
0.0
  9
$LIMCHECK
 70
     0
  9
$CHAMFERA
 40
0.0
  9
$CHAMFERB
 40
0.0
  9
$CHAMFERC
 40
0.0
  9
$CHAMFERD
 40
0.0
  9
$SKPOLY
 70
     0
  9
$TDCREATE
 40
2457807.384381597
  9
$TDUCREATE
 40
2457807.34271493
  9
$TDUPDATE
 40
2457807.39402868
  9
$TDUUPDATE
 40
2457807.352362014
  9
$TDINDWG
 40
0.0035318634
  9
$TDUSRTIMER
 40
2457807.348827917
  9
$USRTIMER
 70
     1
  9
$ANGBASE
 50
0.0
  9
$ANGDIR
 70
     0
  9
$PDMODE
 70
     0
  9
$PDSIZE
 40
-1.0
  9
$PLINEWID
 40
0.0
  9
$SPLFRAME
 70
     0
  9
$SPLINETYPE
 70
     6
  9
$SPLINESEGS
 70
     8
  9
$HANDSEED
  5
31E
  9
$SURFTAB1
 70
     6
  9
$SURFTAB2
 70
     6
  9
$SURFTYPE
 70
     6
  9
$SURFU
 70
     6
  9
$SURFV
 70
     6
  9
$UCSBASE
  2

  9
$UCSNAME
  2

  9
$UCSORG
 10
0.0
 20
0.0
 30
0.0
  9
$UCSXDIR
 10
1.0
 20
0.0
 30
0.0
  9
$UCSYDIR
 10
0.0
 20
1.0
 30
0.0
  9
$UCSORTHOREF
  2

  9
$UCSORTHOVIEW
 70
     0
  9
$UCSORGTOP
 10
0.0
 20
0.0
 30
0.0
  9
$UCSORGBOTTOM
 10
0.0
 20
0.0
 30
0.0
  9
$UCSORGLEFT
 10
0.0
 20
0.0
 30
0.0
  9
$UCSORGRIGHT
 10
0.0
 20
0.0
 30
0.0
  9
$UCSORGFRONT
 10
0.0
 20
0.0
 30
0.0
  9
$UCSORGBACK
 10
0.0
 20
0.0
 30
0.0
  9
$PUCSBASE
  2

  9
$PUCSNAME
  2

  9
$PUCSORG
 10
0.0
 20
0.0
 30
0.0
  9
$PUCSXDIR
 10
1.0
 20
0.0
 30
0.0
  9
$PUCSYDIR
 10
0.0
 20
1.0
 30
0.0
  9
$PUCSORTHOREF
  2

  9
$PUCSORTHOVIEW
 70
     0
  9
$PUCSORGTOP
 10
0.0
 20
0.0
 30
0.0
  9
$PUCSORGBOTTOM
 10
0.0
 20
0.0
 30
0.0
  9
$PUCSORGLEFT
 10
0.0
 20
0.0
 30
0.0
  9
$PUCSORGRIGHT
 10
0.0
 20
0.0
 30
0.0
  9
$PUCSORGFRONT
 10
0.0
 20
0.0
 30
0.0
  9
$PUCSORGBACK
 10
0.0
 20
0.0
 30
0.0
  9
$USERI1
 70
     0
  9
$USERI2
 70
     0
  9
$USERI3
 70
     0
  9
$USERI4
 70
     0
  9
$USERI5
 70
     0
  9
$USERR1
 40
0.0
  9
$USERR2
 40
0.0
  9
$USERR3
 40
0.0
  9
$USERR4
 40
0.0
  9
$USERR5
 40
0.0
  9
$WORLDVIEW
 70
     1
  9
$SHADEDGE
 70
     3
  9
$SHADEDIF
 70
    70
  9
$TILEMODE
 70
     1
  9
$MAXACTVP
 70
    64
  9
$PINSBASE
 10
0.0
 20
0.0
 30
0.0
  9
$PLIMCHECK
 70
     0
  9
$PEXTMIN
 10
1.000000000000000E+20
 20
1.000000000000000E+20
 30
1.000000000000000E+20
  9
$PEXTMAX
 10
-1.000000000000000E+20
 20
-1.000000000000000E+20
 30
-1.000000000000000E+20
  9
$PLIMMIN
 10
0.0
 20
0.0
  9
$PLIMMAX
 10
0.0
 20
0.0
  9
$UNITMODE
 70
     0
  9
$VISRETAIN
 70
     1
  9
$PLINEGEN
 70
     0
  9
$PSLTSCALE
 70
     1
  9
$TREEDEPTH
 70
  3020
  9
$CMLSTYLE
  2
Standard
  9
$CMLJUST
 70
     0
  9
$CMLSCALE
 40
20.0
  9
$PROXYGRAPHICS
 70
     1
  9
$MEASUREMENT
 70
     1
  9
$CELWEIGHT
370
    -1
  9
$ENDCAPS
280
     0
  9
$JOINSTYLE
280
     0
  9
$LWDISPLAY
290
     1
  9
$INSUNITS
 70
     4
  9
$HYPERLINKBASE
  1

  9
$STYLESHEET
  1

  9
$XEDIT
290
     1
  9
$CEPSNTYPE
380
     0
  9
$PSTYLEMODE
290
     1
  9
$FINGERPRINTGUID
  2
{313AFA92-196A-45A2-9F5A-7A06E84ABAC1}
  9
$VERSIONGUID
  2
{FAEB1C32-E019-11D5-929B-00C0DF256EC4}
  9
$EXTNAMES
290
     1
  9
$PSVPSCALE
 40
0.0
  9
$OLESTARTUP
290
     0
  9
$SORTENTS
280
   127
  9
$INDEXCTL
280
     0
  9
$HIDETEXT
280
     1
  9
$XCLIPFRAME
280
     2
  9
$HALOGAP
280
     0
  9
$OBSCOLOR
 70
   257
  9
$OBSLTYPE
280
     0
  9
$INTERSECTIONDISPLAY
280
     0
  9
$INTERSECTIONCOLOR
 70
   257
  9
$DIMASSOC
280
     2
  9
$PROJECTNAME
  1

  9
$CAMERADISPLAY
290
     0
  9
$LENSLENGTH
 40
50.0
  9
$CAMERAHEIGHT
 40
0.0
  9
$STEPSPERSEC
 40
2.0
  9
$STEPSIZE
 40
6.0
  9
$3DDWFPREC
 40
2.0
  9
$PSOLWIDTH
 40
0.25
  9
$PSOLHEIGHT
 40
4.0
  9
$LOFTANG1
 40
1.570796326794897
  9
$LOFTANG2
 40
1.570796326794897
  9
$LOFTMAG1
 40
0.0
  9
$LOFTMAG2
 40
0.0
  9
$LOFTPARAM
 70
     7
  9
$LOFTNORMALS
280
     1
  9
$LATITUDE
 40
37.795
  9
$LONGITUDE
 40
-122.394
  9
$NORTHDIRECTION
 40
0.0
  9
$TIMEZONE
 70
 -8000
  9
$LIGHTGLYPHDISPLAY
280
     1
  9
$TILEMODELIGHTSYNCH
280
     1
  9
$SOLIDHIST
280
     0
  9
$SHOWHIST
280
     1
  9
$DWFFRAME
280
     2
  9
$DGNFRAME
280
     2
  9
$REALWORLDSCALE
290
     1
  9
$INTERFERECOLOR
 62
   256
  9
$CSHADOW
280
     0
  9
$SHADOWPLANELOCATION
 40
0.0
  0
ENDSEC
  0
SECTION
  2
CLASSES
  0
CLASS
  1
ACDBDICTIONARYWDFLT
  2
AcDbDictionaryWithDefault
  3
ObjectDBX Classes
 90
        0
 91
        7
280
     0
281
     0
  0
CLASS
  1
VISUALSTYLE
  2
AcDbVisualStyle
  3
ObjectDBX Classes
 90
     4095
 91
        7
280
     0
281
     0
  0
CLASS
  1
MATERIAL
  2
AcDbMaterial
  3
ObjectDBX Classes
 90
     1153
 91
        7
280
     0
281
     0
  0
CLASS
  1
SCALE
  2
AcDbScale
  3
ObjectDBX Classes
 90
     1153
 91
        7
280
     0
281
     0
  0
CLASS
  1
TABLESTYLE
  2
AcDbTableStyle
  3
ObjectDBX Classes
 90
     4095
 91
        7
280
     0
281
     0
  0
CLASS
  1
MLEADERSTYLE
  2
AcDbMLeaderStyle
  3
ACDB_MLEADERSTYLE_CLASS
 90
     4095
 91
        7
280
     0
281
     0
  0
CLASS
  1
SUN
  2
AcDbSun
  3
SCENEOE
 90
     1153
 91
        7
280
     0
281
     0
  0
CLASS
  1
ACDBPLACEHOLDER
  2
AcDbPlaceHolder
  3
ObjectDBX Classes
 90
        0
 91
        1
280
     0
281
     0
  0
CLASS
  1
LAYOUT
  2
AcDbLayout
  3
ObjectDBX Classes
 90
        0
 91
        1
280
     0
281
     0
  0
CLASS
  1
RASTERVARIABLES
  2
AcDbRasterVariables
  3
ISM
 90
        0
 91
        7
280
     0
281
     0
  0
CLASS
  1
DICTIONARYVAR
  2
AcDbDictionaryVar
  3
ObjectDBX Classes
 90
        0
 91
        7
280
     0
281
     0
  0
CLASS
  1
CELLSTYLEMAP
  2
AcDbCellStyleMap
  3
ObjectDBX Classes
 90
     1152
 91
        5
280
     0
281
     0
  0
ENDSEC
  0
SECTION
  2
TABLES
  0
TABLE
  2
VPORT
  5
8
330
0
100
AcDbSymbolTable
 70
     1
  0
VPORT
  5
29
330
8
100
AcDbSymbolTableRecord
100
AcDbViewportTableRecord
  2
*Active
 70
     0
 10
0.0
 20
0.0
 11
1.0
 21
1.0
 12
197.8299752781211
 22
156.4194423719779
 13
0.0
 23
0.0
 14
10.0
 24
10.0
 15
10.0
 25
10.0
 16
0.0
 26
0.0
 36
1.0
 17
0.0
 27
0.0
 37
0.0
 40
245.5622946466743
 41
2.122853368560106
 42
50.0
 43
0.0
 44
0.0
 50
0.0
 51
0.0
 71
    16
 72
  2000
 73
     1
 74
     3
 75
     0
 76
     0
 77
     0
 78
     0
281
     0
 65
     1
110
0.0
120
0.0
130
0.0
111
1.0
121
0.0
131
0.0
112
0.0
122
1.0
132
0.0
 79
     0
146
0.0
348
2C4
 60
     3
 61
     5
292
     1
282
     1
141
0.0
142
0.0
 63
   256
361
2E1
  0
ENDTAB
  0
TABLE
  2
LTYPE
  5
5
330
0
100
AcDbSymbolTable
 70
     6
  0
LTYPE
  5
14
330
5
100
AcDbSymbolTableRecord
100
AcDbLinetypeTableRecord
  2
ByBlock
 70
     0
  3

 72
    65
 73
     0
 40
0.0
  0
LTYPE
  5
15
330
5
100
AcDbSymbolTableRecord
100
AcDbLinetypeTableRecord
  2
ByLayer
 70
     0
  3

 72
    65
 73
     0
 40
0.0
  0
LTYPE
  5
16
330
5
100
AcDbSymbolTableRecord
100
AcDbLinetypeTableRecord
  2
Continuous
 70
     0
  3
Solid line
 72
    65
 73
     0
 40
0.0
  0
LTYPE
  5
6E
330
5
100
AcDbSymbolTableRecord
100
AcDbLinetypeTableRecord
  2
HIDDEN
 70
     0
  3
Hidden __ __ __ __ __ __ __ __ __ __ __ __ __ __
 72
    65
 73
     2
 40
1.905
 49
1.27
 74
     0
 49
-0.635
 74
     0
  0
LTYPE
  5
6F
330
5
100
AcDbSymbolTableRecord
100
AcDbLinetypeTableRecord
  2
PHANTOM
 70
     0
  3
Phantom ______  __  __  ______  __  __  ______
 72
    65
 73
     6
 40
12.7
 49
6.35
 74
     0
 49
-1.27
 74
     0
 49
1.27
 74
     0
 49
-1.27
 74
     0
 49
1.27
 74
     0
 49
-1.27
 74
     0
  0
LTYPE
  5
70
330
5
100
AcDbSymbolTableRecord
100
AcDbLinetypeTableRecord
  2
CENTER
 70
     0
  3
Center ____ _ ____ _ ____ _ ____ _ ____ _ ____
 72
    65
 73
     4
 40
10.16
 49
6.35
 74
     0
 49
-1.27
 74
     0
 49
1.27
 74
     0
 49
-1.27
 74
     0
  0
LTYPE
  5
71
330
5
100
AcDbSymbolTableRecord
100
AcDbLinetypeTableRecord
  2
CENTERX2
 70
     0
  3
Center (2x) ________  __  ________  __  _____
 72
    65
 73
     4
 40
20.32
 49
12.7
 74
     0
 49
-2.54
 74
     0
 49
2.54
 74
     0
 49
-2.54
 74
     0
  0
LTYPE
  5
72
330
5
100
AcDbSymbolTableRecord
100
AcDbLinetypeTableRecord
  2
DOT2
 70
     0
  3
Dot (.5x) ........................................
 72
    65
 73
     2
 40
0.635
 49
0.0
 74
     0
 49
-0.635
 74
     0
  0
ENDTAB
  0
TABLE
  2
LAYER
  5
2
330
0
100
AcDbSymbolTable
 70
     2
  0
LAYER
  5
10
330
2
100
AcDbSymbolTableRecord
100
AcDbLayerTableRecord
  2
0
 70
     0
 62
     7
  6
Continuous
370
    -3
390
F
347
2DB
348
0
  0
LAYER
  5
73
330
2
100
AcDbSymbolTableRecord
100
AcDbLayerTableRecord
  2
FORMAT
 70
     0
 62
     7
  6
Continuous
370
    -3
390
F
347
2DB
348
0
  0
ENDTAB
  0
TABLE
  2
STYLE
  5
3
330
0
100
AcDbSymbolTable
 70
     2
  0
STYLE
  5
11
330
3
100
AcDbSymbolTableRecord
100
AcDbTextStyleTableRecord
  2
Standard
 70
     0
 40
0.0
 41
1.0
 50
0.0
 71
     0
 42
2.8
  3
txt
  4

  0
STYLE
  5
2F3
330
3
100
AcDbSymbolTableRecord
100
AcDbTextStyleTableRecord
  2
SLDTEXTSTYLE0
 70
     0
 40
0.0
 41
0.75
 50
0.0
 71
     0
 42
2.8
  3
TXT
  4

  0
ENDTAB
  0
TABLE
  2
VIEW
  5
6
330
0
100
AcDbSymbolTable
 70
     0
  0
ENDTAB
  0
TABLE
  2
UCS
  5
7
330
0
100
AcDbSymbolTable
 70
     0
  0
ENDTAB
  0
TABLE
  2
APPID
  5
9
330
0
100
AcDbSymbolTable
 70
     1
  0
APPID
  5
12
330
9
100
AcDbSymbolTableRecord
100
AcDbRegAppTableRecord
  2
ACAD
 70
     0
  0
ENDTAB
  0
TABLE
  2
DIMSTYLE
  5
A
330
0
100
AcDbSymbolTable
 70
     1
100
AcDbDimStyleTable
  0
DIMSTYLE
105
27
330
A
100
AcDbSymbolTableRecord
100
AcDbDimStyleTableRecord
  2
ISO-25
 70
     0
 41
2.5
 42
0.625
 43
3.75
 44
1.25
 73
     0
 74
     0
 77
     1
 78
     8
140
2.5
141
2.5
143
0.03937007874016
147
0.625
171
     3
172
     1
178
     0
271
     2
272
     2
274
     3
278
    44
283
     0
284
     8
340
11
  0
ENDTAB
  0
TABLE
  2
BLOCK_RECORD
  5
1
330
0
100
AcDbSymbolTable
 70
     2
  0
BLOCK_RECORD
  5
1F
330
1
100
AcDbSymbolTableRecord
100
AcDbBlockTableRecord
  2
*Model_Space
340
22
 70
     0
280
     1
281
     0
  0
BLOCK_RECORD
  5
1B
330
1
100
AcDbSymbolTableRecord
100
AcDbBlockTableRecord
  2
*Paper_Space
340
1E
 70
     0
280
     1
281
     0
  0
BLOCK_RECORD
  5
23
330
1
100
AcDbSymbolTableRecord
100
AcDbBlockTableRecord
  2
*Paper_Space0
340
26
 70
     0
280
     1
281
     0
  0
ENDTAB
  0
ENDSEC
  0
SECTION
  2
BLOCKS
  0
BLOCK
  5
20
330
1F
100
AcDbEntity
  8
0
100
AcDbBlockBegin
  2
*Model_Space
 70
     0
 10
0.0
 20
0.0
 30
0.0
  3
*Model_Space
  1
*Model_Space
  0
ENDBLK
  5
21
330
1F
100
AcDbEntity
  8
0
100
AcDbBlockEnd
  0
BLOCK
  5
1C
330
1B
100
AcDbEntity
 67
     1
  8
0
100
AcDbBlockBegin
  2
*Paper_Space
 70
     0
 10
0.0
 20
0.0
 30
0.0
  3
*Paper_Space
  1
*Paper_Space
  0
ENDBLK
  5
1D
330
1B
100
AcDbEntity
 67
     1
  8
0
100
AcDbBlockEnd
  0
BLOCK
  5
24
330
23
100
AcDbEntity
  8
0
100
AcDbBlockBegin
  2
*Paper_Space0
 70
     0
 10
0.0
 20
0.0
 30
0.0
  3
*Paper_Space0
  1
*Paper_Space0
  0
ENDBLK
  5
25
330
23
100
AcDbEntity
  8
0
100
AcDbBlockEnd
  0
ENDSEC
  0
SECTION
  2
ENTITIES
  0
LINE
  5
78
330
1F
100
AcDbEntity
  8
0
100
AcDbLine
 10
203.0416687439596
 20
151.0444860971415
 30
0.0
 11
203.4416685301279
 21
151.0444860971415
 31
0.0
  0
LINE
  5
79
330
1F
100
AcDbEntity
  8
0
100
AcDbLine
 10
193.3416689235186
 20
151.0444860971415
 30
0.0
 11
193.7416687096869
 21
151.0444860971415
 31
0.0
  0
LINE
  5
7A
330
1F
100
AcDbEntity
  8
0
100
AcDbLine
 10
208.3416685882424
 20
184.9444862521136
 30
0.0
 11
208.3416685882424
 21
185.0444879448855
 31
0.0
  0
LINE
  5
7B
330
1F
100
AcDbEntity
  8
0
100
AcDbLine
 10
205.5416686880802
 20
185.0444879448855
 30
0.0
 11
205.5416686880802
 21
184.9444862521136
 31
0.0
  0
LINE
  5
7C
330
1F
100
AcDbEntity
  8
0
100
AcDbLine
 10
205.5416686880802
 20
151.1444877899135
 30
0.0
 11
205.5416686880802
 21
151.0444860971415
 31
0.0
  0
LINE
  5
7D
330
1F
100
AcDbEntity
  8
0
100
AcDbLine
 10
208.3416685882424
 20
151.0444860971415
 30
0.0
 11
208.3416685882424
 21
151.1444877899135
 31
0.0
  0
ELLIPSE
  5
7E
330
1F
100
AcDbEntity
  8
0
100
AcDbEllipse
 10
210.6416687268232
 20
151.1444870210135
 30
0.0
 11
1.300000000000011
 21
0.0
 31
0.0
210
0.0
220
0.0
230
1.0
 40
0.0225302476010167
 41
4.71238898038469
 42
6.283185307179586
  0
LINE
  5
7F
330
1F
100
AcDbEntity
  8
0
100
AcDbLine
 10
210.6416684064483
 20
151.1151976949418
 30
0.0
 11
210.6416684064483
 21
151.1444877899135
 31
0.0
  0
LINE
  5
80
330
1F
100
AcDbEntity
  8
0
100
AcDbLine
 10
210.6416684064483
 20
184.9444862521136
 30
0.0
 11
210.6416684064483
 21
184.9737763470853
 31
0.0
  0
ELLIPSE
  5
81
330
1F
100
AcDbEntity
  8
0
100
AcDbEllipse
 10
210.6416687268232
 20
184.7444870210135
 30
0.0
 11
1.300000000000011
 21
0.0
 31
0.0
210
0.0
220
0.0
230
1.0
 40
0.1763764014472042
 41
0.0
 42
1.570796326794897
  0
LINE
  5
82
330
1F
100
AcDbEntity
  8
0
100
AcDbLine
 10
211.9416689920639
 20
184.7444865918601
 30
0.0
 11
211.9416689920639
 21
151.1444877899135
 31
0.0
  0
LINE
  5
83
330
1F
100
AcDbEntity
  8
0
100
AcDbLine
 10
203.4416685301279
 20
151.1444877899135
 30
0.0
 11
210.6416684064483
 21
151.1444877899135
 31
0.0
  0
LINE
  5
84
330
1F
100
AcDbEntity
  8
0
100
AcDbLine
 10
203.4416685301279
 20
151.1444877899135
 30
0.0
 11
203.4416685301279
 21
184.9444862521136
 31
0.0
  0
LINE
  5
85
330
1F
100
AcDbEntity
  8
0
100
AcDbLine
 10
203.4416685301279
 20
184.9444862521136
 30
0.0
 11
210.6416684064483
 21
184.9444862521136
 31
0.0
  0
LINE
  5
86
330
1F
100
AcDbEntity
  8
0
100
AcDbLine
 10
203.4416685301279
 20
150.0444877958739
 30
0.0
 11
203.4416685301279
 21
151.0444860971415
 31
0.0
  0
LINE
  5
87
330
1F
100
AcDbEntity
  8
0
100
AcDbLine
 10
210.8416689980244
 20
150.0444877958739
 30
0.0
 11
210.8416689980244
 21
151.0444860971415
 31
0.0
  0
LINE
  5
88
330
1F
100
AcDbEntity
  8
0
100
AcDbLine
 10
210.8416689980244
 20
150.0444877958739
 30
0.0
 11
203.4416685301279
 21
150.0444877958739
 31
0.0
  0
LINE
  5
89
330
1F
100
AcDbEntity
  8
0
100
AcDbLine
 10
210.8416689980244
 20
151.0444860971415
 30
0.0
 11
203.4416685301279
 21
151.0444860971415
 31
0.0
  0
LINE
  5
8A
330
1F
100
AcDbEntity
  8
0
100
AcDbLine
 10
203.4416685301279
 20
186.0444862461532
 30
0.0
 11
203.4416685301279
 21
185.0444879448855
 31
0.0
  0
LINE
  5
8B
330
1F
100
AcDbEntity
  8
0
100
AcDbLine
 10
210.6416684064483
 20
185.0444879448855
 30
0.0
 11
203.4416685301279
 21
185.0444879448855
 31
0.0
  0
LINE
  5
8C
330
1F
100
AcDbEntity
  8
0
100
AcDbLine
 10
210.6416684064483
 20
186.0444862461532
 30
0.0
 11
210.6416684064483
 21
185.0444879448855
 31
0.0
  0
LINE
  5
8D
330
1F
100
AcDbEntity
  8
0
100
AcDbLine
 10
210.6416684064483
 20
186.0444862461532
 30
0.0
 11
203.4416685301279
 21
186.0444862461532
 31
0.0
  0
SPLINE
  5
8E
330
1F
100
AcDbEntity
  8
0
100
AcDbSpline
210
0.0
220
0.0
230
1.0
 70
     8
 71
     3
 72
    12
 73
     8
 74
     0
 42
0.000000001
 43
0.00000001
 40
0.0
 40
0.0
 40
0.0
 40
0.0
 40
0.1233502867434197
 40
0.2484745480766725
 40
0.4971529080409198
 40
0.7478634328774595
 40
1.0
 40
1.0
 40
1.0
 40
1.0
 10
210.8416689980244
 20
150.0444877958739
 30
0.0
 10
210.9132205344542
 20
150.0485649620306
 30
0.0
 10
211.0573526329518
 20
150.0567779305204
 30
0.0
 10
211.3343506467398
 20
150.1433373260805
 30
0.0
 10
211.639219166079
 20
150.3474108823048
 30
0.0
 10
211.8923561504297
 20
150.7138964600064
 30
0.0
 10
211.9252003301861
 20
151.0006862407679
 30
0.0
 10
211.9416689920639
 20
151.1444877899135
 30
0.0
  0
SPLINE
  5
8F
330
1F
100
AcDbEntity
  8
0
100
AcDbSpline
210
0.0
220
0.0
230
1.0
 70
     8
 71
     3
 72
    12
 73
     8
 74
     0
 42
0.000000001
 43
0.00000001
 40
0.0
 40
0.0
 40
0.0
 40
0.0
 40
0.034178326838972
 40
0.0702177196801425
 40
0.1529019616827995
 40
0.3736515134908624
 40
0.9999999999999999
 40
0.9999999999999999
 40
0.9999999999999999
 40
0.9999999999999999
 10
210.8416689980244
 20
151.0444860971415
 30
0.0
 10
210.844936552315
 20
151.0445813737589
 30
0.0
 10
210.8516495845913
 20
151.044777114962
 30
0.0
 10
210.8654155485443
 20
151.0469246402888
 30
0.0
 10
210.8910517448759
 20
151.0552494245719
 30
0.0
 10
210.9328610162154
 20
151.087749126999
 30
0.0
 10
210.9379247087804
 20
151.120368709211
 30
0.0
 10
210.9416688281511
 20
151.1444877899135
 30
0.0
  0
ARC
  5
90
330
1F
100
AcDbEntity
  8
0
100
AcDbCircle
 10
210.6416687268232
 20
184.7444870210135
 30
0.0
 40
1.300000000000011
100
AcDbArc
 50
0.0
 51
90.0
  0
ARC
  5
91
330
1F
100
AcDbEntity
  8
0
100
AcDbCircle
 10
210.6416687268232
 20
184.7444870210135
 30
0.0
 40
0.3000000000000368
100
AcDbArc
 50
49.07017369449763
 51
90.0
  0
LINE
  5
92
330
1F
100
AcDbEntity
  8
0
100
AcDbLine
 10
185.8416686254953
 20
184.9737763470853
 30
0.0
 11
185.8416686254953
 21
184.9444862521136
 31
0.0
  0
LINE
  5
93
330
1F
100
AcDbEntity
  8
0
100
AcDbLine
 10
185.8416686254953
 20
151.1444877899135
 30
0.0
 11
185.8416686254953
 21
151.1151976949418
 31
0.0
  0
ELLIPSE
  5
94
330
1F
100
AcDbEntity
  8
0
100
AcDbEllipse
 10
185.8416687268232
 20
151.1444870210136
 30
0.0
 11
1.299999999999983
 21
0.0
 31
0.0
210
0.0
220
0.0
230
1.0
 40
0.022530247601039
 41
3.141592653589788
 42
4.71238898038469
  0
LINE
  5
95
330
1F
100
AcDbEntity
  8
0
100
AcDbLine
 10
184.5416689712023
 20
151.1444877899135
 30
0.0
 11
184.5416689712023
 21
184.7444865918601
 31
0.0
  0
ELLIPSE
  5
96
330
1F
100
AcDbEntity
  8
0
100
AcDbEllipse
 10
185.8416687268232
 20
184.7444870210136
 30
0.0
 11
1.299999999999983
 21
0.0
 31
0.0
210
0.0
220
0.0
230
1.0
 40
0.1763764014471862
 41
1.570796326794897
 42
3.141592653589793
  0
LINE
  5
97
330
1F
100
AcDbEntity
  8
0
100
AcDbLine
 10
193.0416685018157
 20
151.1444877899135
 30
0.0
 11
185.8416686254953
 21
151.1444877899135
 31
0.0
  0
LINE
  5
98
330
1F
100
AcDbEntity
  8
0
100
AcDbLine
 10
193.0416685018157
 20
184.9444862521136
 30
0.0
 11
185.8416686254953
 21
184.9444862521136
 31
0.0
  0
CIRCLE
  5
99
330
1F
100
AcDbEntity
  8
0
100
AcDbCircle
 10
189.8416687268232
 20
168.0444870210136
 30
0.0
 40
1.599999999999994
  0
LINE
  5
9A
330
1F
100
AcDbEntity
  8
0
100
AcDbLine
 10
193.0416685018157
 20
184.9444862521136
 30
0.0
 11
193.0416685018157
 21
151.1444877899135
 31
0.0
  0
LINE
  5
9B
330
1F
100
AcDbEntity
  8
0
100
AcDbLine
 10
185.6416689652418
 20
150.0444877958739
 30
0.0
 11
193.0416685018157
 21
150.0444877958739
 31
0.0
  0
LINE
  5
9C
330
1F
100
AcDbEntity
  8
0
100
AcDbLine
 10
185.6416689652418
 20
150.0444877958739
 30
0.0
 11
185.6416689652418
 21
151.0444860971415
 31
0.0
  0
LINE
  5
9D
330
1F
100
AcDbEntity
  8
0
100
AcDbLine
 10
185.6416689652418
 20
151.0444860971415
 30
0.0
 11
193.0416685018157
 21
151.0444860971415
 31
0.0
  0
LINE
  5
9E
330
1F
100
AcDbEntity
  8
0
100
AcDbLine
 10
193.0416685018157
 20
150.0444877958739
 30
0.0
 11
193.0416685018157
 21
151.0444860971415
 31
0.0
  0
LINE
  5
9F
330
1F
100
AcDbEntity
  8
0
100
AcDbLine
 10
185.8416686254953
 20
186.0444862461532
 30
0.0
 11
185.8416686254953
 21
185.0444879448855
 31
0.0
  0
LINE
  5
A0
330
1F
100
AcDbEntity
  8
0
100
AcDbLine
 10
185.8416686254953
 20
186.0444862461532
 30
0.0
 11
193.0416685018157
 21
186.0444862461532
 31
0.0
  0
LINE
  5
A1
330
1F
100
AcDbEntity
  8
0
100
AcDbLine
 10
193.0416685018157
 20
186.0444862461532
 30
0.0
 11
193.0416685018157
 21
185.0444879448855
 31
0.0
  0
LINE
  5
A2
330
1F
100
AcDbEntity
  8
0
100
AcDbLine
 10
185.8416686254953
 20
185.0444879448855
 30
0.0
 11
193.0416685018157
 21
185.0444879448855
 31
0.0
  0
ARC
  5
A3
330
1F
100
AcDbEntity
  8
0
100
AcDbCircle
 10
185.8416687268232
 20
184.7444870210136
 30
0.0
 40
1.300000000000011
100
AcDbArc
 50
90.0
 51
180.0
  0
ARC
  5
A4
330
1F
100
AcDbEntity
  8
0
100
AcDbCircle
 10
185.8416687268232
 20
184.7444870210136
 30
0.0
 40
0.3000000000000114
100
AcDbArc
 50
90.0
 51
130.9298263054712
  0
ARC
  5
A5
330
1F
100
AcDbEntity
  8
0
100
AcDbCircle
 10
185.6416687268232
 20
151.1444870210136
 30
0.0
 40
1.099999999999994
100
AcDbArc
 50
180.0
 51
270.0000000000008
  0
ARC
  5
A6
330
1F
100
AcDbEntity
  8
0
100
AcDbCircle
 10
185.6416687268232
 20
151.1444870210136
 30
0.0
 40
0.0999999999999985
100
AcDbArc
 50
196.5712769164778
 51
270.0000000000008
  0
CIRCLE
  5
A7
330
1F
100
AcDbEntity
  8
0
100
AcDbCircle
 10
221.3916687268232
 20
169.5444870210135
 30
0.0
 40
5.200000000000017
  0
CIRCLE
  5
A8
330
1F
100
AcDbEntity
  8
0
100
AcDbCircle
 10
221.3916687268232
 20
169.5444870210135
 30
0.0
 40
2.650000000000006
  0
CIRCLE
  5
A9
330
1F
100
AcDbEntity
  8
0
100
AcDbCircle
 10
175.3916687268232
 20
169.5444870210135
 30
0.0
 40
5.200000000000017
  0
CIRCLE
  5
AA
330
1F
100
AcDbEntity
  8
0
100
AcDbCircle
 10
175.3916687268232
 20
169.5444870210135
 30
0.0
 40
2.650000000000006
  0
LINE
  5
AB
330
1F
100
AcDbEntity
  8
0
100
AcDbLine
 10
228.391668056271
 20
186.5444872594321
 30
0.0
 11
228.391668056271
 21
149.544486782595
 31
0.0
  0
LINE
  5
AC
330
1F
100
AcDbEntity
  8
0
100
AcDbLine
 10
228.391668056271
 20
149.544486782595
 30
0.0
 11
203.4416685301279
 21
149.544486782595
 31
0.0
  0
LINE
  5
AD
330
1F
100
AcDbEntity
  8
0
100
AcDbLine
 10
193.3416689235186
 20
149.544486782595
 30
0.0
 11
168.3916693973755
 21
149.544486782595
 31
0.0
  0
LINE
  5
AE
330
1F
100
AcDbEntity
  8
0
100
AcDbLine
 10
168.3916693973755
 20
149.544486782595
 30
0.0
 11
168.3916693973755
 21
186.5444872594321
 31
0.0
  0
LINE
  5
AF
330
1F
100
AcDbEntity
  8
0
100
AcDbLine
 10
168.3916693973755
 20
186.5444872594321
 30
0.0
 11
191.8916685927128
 21
186.5444872594321
 31
0.0
  0
LINE
  5
B0
330
1F
100
AcDbEntity
  8
0
100
AcDbLine
 10
191.8916685927128
 20
186.5444872594321
 30
0.0
 11
191.8916685927128
 21
186.0444862461532
 31
0.0
  0
LINE
  5
B1
330
1F
100
AcDbEntity
  8
0
100
AcDbLine
 10
191.8916685927128
 20
185.0444879448855
 30
0.0
 11
191.8916685927128
 21
184.9444862521136
 31
0.0
  0
LINE
  5
B2
330
1F
100
AcDbEntity
  8
0
100
AcDbLine
 10
204.8916688609337
 20
184.9444862521136
 30
0.0
 11
204.8916688609337
 21
185.0444879448855
 31
0.0
  0
LINE
  5
B3
330
1F
100
AcDbEntity
  8
0
100
AcDbLine
 10
204.8916688609337
 20
186.0444862461532
 30
0.0
 11
204.8916688609337
 21
186.5444872594321
 31
0.0
  0
LINE
  5
B4
330
1F
100
AcDbEntity
  8
0
100
AcDbLine
 10
204.8916688609337
 20
186.5444872594321
 30
0.0
 11
228.391668056271
 21
186.5444872594321
 31
0.0
  0
LINE
  5
B6
330
1F
100
AcDbEntity
  8
0
100
AcDbLine
 10
193.0416685018157
 20
170.5444869651342
 30
0.0
 11
193.3416689235186
 21
170.5444869651342
 31
0.0
  0
LINE
  5
B7
330
1F
100
AcDbEntity
  8
0
100
AcDbLine
 10
193.3416689235186
 20
170.5444869651342
 30
0.0
 11
193.3416689235186
 21
179.5635139635647
 31
0.0
  0
LINE
  5
B8
330
1F
100
AcDbEntity
  8
0
100
AcDbLine
 10
193.3416689235186
 20
151.5444871104205
 30
0.0
 11
193.0416685018157
 21
151.5707336432183
 31
0.0
  0
LINE
  5
B9
330
1F
100
AcDbEntity
  8
0
100
AcDbLine
 10
193.3416689235186
 20
156.5254600784624
 30
0.0
 11
193.3416689235186
 21
155.544486834749
 31
0.0
  0
LINE
  5
BA
330
1F
100
AcDbEntity
  8
0
100
AcDbLine
 10
193.3416689235186
 20
165.5444870768929
 30
0.0
 11
193.0416685018157
 21
165.5444870768929
 31
0.0
  0
LINE
  5
BB
330
1F
100
AcDbEntity
  8
0
100
AcDbLine
 10
193.3416689235186
 20
156.5254600784624
 30
0.0
 11
193.3416689235186
 21
165.5444870768929
 31
0.0
  0
LINE
  5
BC
330
1F
100
AcDbEntity
  8
0
100
AcDbLine
 10
193.0416685018157
 20
184.5182403988088
 30
0.0
 11
193.3416689235186
 21
184.5444869316066
 31
0.0
  0
LINE
  5
BD
330
1F
100
AcDbEntity
  8
0
100
AcDbLine
 10
193.3416689235186
 20
184.5444869316066
 30
0.0
 11
193.3416689235186
 21
179.5635139635647
 31
0.0
  0
LINE
  5
BE
330
1F
100
AcDbEntity
  8
0
100
AcDbLine
 10
193.3416689235186
 20
165.5444870768929
 30
0.0
 11
193.3416689235186
 21
170.5444869651342
 31
0.0
  0
LINE
  5
C1
330
1F
100
AcDbEntity
  8
0
100
AcDbLine
 10
188.3416690352773
 20
151.0444860971415
 30
0.0
 11
188.3416690352773
 21
151.1444877899135
 31
0.0
  0
LINE
  5
C4
330
1F
100
AcDbEntity
  8
0
100
AcDbLine
 10
193.7416687096869
 20
174.0444870731676
 30
0.0
 11
203.0416687439596
 21
174.0444870731676
 31
0.0
  0
LINE
  5
C5
330
1F
100
AcDbEntity
  8
0
100
AcDbLine
 10
193.3416689235186
 20
149.544486782595
 30
0.0
 11
203.4416685301279
 21
149.544486782595
 31
0.0
  0
LINE
  5
C6
330
1F
100
AcDbEntity
  8
0
100
AcDbLine
 10
193.3416689235186
 20
149.544486782595
 30
0.0
 11
193.3416689235186
 21
151.0444860971415
 31
0.0
  0
LINE
  5
C7
330
1F
100
AcDbEntity
  8
0
100
AcDbLine
 10
203.4416685301279
 20
149.544486782595
 30
0.0
 11
203.4416685301279
 21
150.0444877958739
 31
0.0
  0
LINE
  5
C8
330
1F
100
AcDbEntity
  8
0
100
AcDbLine
 10
203.0416687439596
 20
177.0444866335833
 30
0.0
 11
203.0416687439596
 21
155.544486834749
 31
0.0
  0
LINE
  5
C9
330
1F
100
AcDbEntity
  8
0
100
AcDbLine
 10
203.4416685301279
 20
183.0444866857374
 30
0.0
 11
203.0416687439596
 21
183.0444866857374
 31
0.0
  0
LINE
  5
CA
330
1F
100
AcDbEntity
  8
0
100
AcDbLine
 10
203.0416687439596
 20
183.0444866857374
 30
0.0
 11
203.0416687439596
 21
177.0444866335833
 31
0.0
  0
LINE
  5
CB
330
1F
100
AcDbEntity
  8
0
100
AcDbLine
 10
203.4416685301279
 20
151.1444877899135
 30
0.0
 11
203.4416685301279
 21
151.0444860971415
 31
0.0
  0
LINE
  5
CC
330
1F
100
AcDbEntity
  8
0
100
AcDbLine
 10
203.0416687439596
 20
155.544486834749
 30
0.0
 11
203.0416687439596
 21
151.0444860971415
 31
0.0
  0
LINE
  5
CD
330
1F
100
AcDbEntity
  8
0
100
AcDbLine
 10
193.7416687096869
 20
177.0444866335833
 30
0.0
 11
193.7416687096869
 21
155.544486834749
 31
0.0
  0
LINE
  5
CE
330
1F
100
AcDbEntity
  8
0
100
AcDbLine
 10
193.7416687096869
 20
155.544486834749
 30
0.0
 11
193.7416687096869
 21
151.0444860971415
 31
0.0
  0
LINE
  5
CF
330
1F
100
AcDbEntity
  8
0
100
AcDbLine
 10
193.3416689235186
 20
155.544486834749
 30
0.0
 11
193.3416689235186
 21
151.0444860971415
 31
0.0
  0
LINE
  5
D0
330
1F
100
AcDbEntity
  8
0
100
AcDbLine
 10
193.7416687096869
 20
183.0444866857374
 30
0.0
 11
193.3416689235186
 21
183.0444866857374
 31
0.0
  0
LINE
  5
D1
330
1F
100
AcDbEntity
  8
0
100
AcDbLine
 10
193.7416687096869
 20
183.0444866857374
 30
0.0
 11
193.7416687096869
 21
177.0444866335833
 31
0.0
  0
LINE
  5
D2
330
1F
100
AcDbEntity
  8
0
100
AcDbLine
 10
189.3121453422522
 20
167.3446741253952
 30
0.0
 11
190.1829626831626
 21
167.2359996657701
 31
0.0
  0
LINE
  5
D3
330
1F
100
AcDbEntity
  8
0
100
AcDbLine
 10
188.9708510089134
 20
168.1531614951905
 30
0.0
 11
189.3121453422522
 21
167.3446741253952
 31
0.0
  0
LINE
  5
D4
330
1F
100
AcDbEntity
  8
0
100
AcDbLine
 10
189.5003749478077
 20
168.852974376257
 30
0.0
 11
188.9708510089134
 21
168.1531614951905
 31
0.0
  0
LINE
  5
D5
330
1F
100
AcDbEntity
  8
0
100
AcDbLine
 10
190.1829626831626
 20
167.2359996657701
 30
0.0
 11
190.7124861563956
 21
167.9358125468366
 31
0.0
  0
CIRCLE
  5
D6
330
1F
100
AcDbEntity
  8
0
100
AcDbCircle
 10
189.8416687268232
 20
168.0444870210135
 30
0.0
 40
1.400000000000007
  0
LINE
  5
D7
330
1F
100
AcDbEntity
  8
0
100
AcDbLine
 10
190.3711922887181
 20
168.7442999166319
 30
0.0
 11
189.5003749478077
 21
168.852974376257
 31
0.0
  0
LINE
  5
D8
330
1F
100
AcDbEntity
  8
0
100
AcDbLine
 10
190.7124861563956
 20
167.9358125468366
 30
0.0
 11
190.3711922887181
 21
168.7442999166319
 31
0.0
  0
LINE
  5
D9
330
1F
100
AcDbEntity
  8
0
  6
Continuous
 62
     8
370
     0
100
AcDbLine
 10
210.6416684064483
 20
151.1444877899135
 30
0.0
 11
210.6416684064483
 21
184.9444862521136
 31
0.0
  0
LINE
  5
DA
330
1F
100
AcDbEntity
  8
0
  6
Continuous
 62
     8
370
     0
100
AcDbLine
 10
185.8416686254953
 20
184.9444862521136
 30
0.0
 11
185.8416686254953
 21
151.1444877899135
 31
0.0
  0
LINE
  5
DB
330
1F
100
AcDbEntity
  8
0
  6
Continuous
 62
     8
370
     0
100
AcDbLine
 10
193.3416689235186
 20
179.5635139635647
 30
0.0
 11
193.0416685018157
 21
179.5372664994443
 31
0.0
  0
LINE
  5
DC
330
1F
100
AcDbEntity
  8
0
  6
Continuous
 62
     8
370
     0
100
AcDbLine
 10
193.0416685018157
 20
156.5517075425828
 30
0.0
 11
193.3416689235186
 21
156.5254600784624
 31
0.0
  0
LINE
  5
DD
330
1F
100
AcDbEntity
  8
0
  6
Continuous
 62
     8
370
     0
100
AcDbLine
 10
193.3416689235186
 20
151.0425768858636
 30
0.0
 11
192.176833045802
 21
151.1444877899135
 31
0.0
  0
LINE
  5
E0
330
1F
100
AcDbEntity
  8
0
  6
Continuous
 62
     8
370
     0
100
AcDbLine
 10
190.3416684317802
 20
151.1444877899135
 30
0.0
 11
190.3416684317802
 21
151.0444860971415
 31
0.0
  0
LINE
  5
E3
330
1F
100
AcDbEntity
  8
0
  6
Continuous
 62
     8
370
     0
100
AcDbLine
 10
203.0416687439596
 20
168.0444870210135
 30
0.0
 11
193.7416687096869
 21
168.0444870210135
 31
0.0
  0
LINE
  5
E4
330
1F
100
AcDbEntity
  8
0
  6
Continuous
 62
     8
370
     0
100
AcDbLine
 10
203.4416685301279
 20
177.0444866335833
 30
0.0
 11
203.0416687439596
 21
177.0444866335833
 31
0.0
  0
LINE
  5
E5
330
1F
100
AcDbEntity
  8
0
  6
Continuous
 62
     8
370
     0
100
AcDbLine
 10
203.4416685301279
 20
155.544486834749
 30
0.0
 11
203.0416687439596
 21
155.544486834749
 31
0.0
  0
LINE
  5
E6
330
1F
100
AcDbEntity
  8
0
  6
Continuous
 62
     8
370
     0
100
AcDbLine
 10
193.7416687096869
 20
177.0444866335833
 30
0.0
 11
193.3416689235186
 21
177.0444866335833
 31
0.0
  0
LINE
  5
E7
330
1F
100
AcDbEntity
  8
0
  6
Continuous
 62
     8
370
     0
100
AcDbLine
 10
193.7416687096869
 20
155.544486834749
 30
0.0
 11
193.3416689235186
 21
155.544486834749
 31
0.0
  0
SPLINE
  5
E8
330
1F
100
AcDbEntity
  8
0
100
AcDbSpline
210
0.0
220
0.0
230
1.0
 70
     8
 71
     3
 72
    12
 73
     8
 74
     0
 42
0.000000001
 43
0.00000001
 40
0.0
 40
0.0
 40
0.0
 40
0.0
 40
0.1233502867434197
 40
0.2484745480766725
 40
0.4971529080409198
 40
0.7478634328774595
 40
1.0
 40
1.0
 40
1.0
 40
1.0
 10
78.09681680414188
 20
150.0444877958739
 30
0.0
 10
78.09767502532053
 20
150.0485649620306
 30
0.0
 10
78.09940381027225
 20
150.0567779305204
 30
0.0
 10
78.11740661806371
 20
150.1433373260805
 30
0.0
 10
78.15996141578727
 20
150.3474108823048
 30
0.0
 10
78.23635466168282
 20
150.7138964600064
 30
0.0
 10
78.29613151059839
 20
151.0006862407679
 30
0.0
 10
78.32610469672193
 20
151.1444877899135
 30
0.0
  0
LINE
  5
E9
330
1F
100
AcDbEntity
  8
0
100
AcDbLine
 10
78.0968168041419
 20
150.0444877958739
 30
0.0
 11
78.0968168041419
 21
151.0444860971415
 31
0.0
  0
SPLINE
  5
EA
330
1F
100
AcDbEntity
  8
0
100
AcDbSpline
210
0.0
220
0.0
230
1.0
 70
     8
 71
     3
 72
    12
 73
     8
 74
     0
 42
0.000000001
 43
0.00000001
 40
0.0
 40
0.0
 40
0.0
 40
0.0
 40
0.034178326838972
 40
0.0702177196801425
 40
0.1529019616827995
 40
0.3736515134908624
 40
0.9999999999999999
 40
0.9999999999999999
 40
0.9999999999999999
 40
0.9999999999999999
 10
78.0968168041419
 20
151.0444860971415
 30
0.0
 10
78.09704035183381
 20
151.0445813737589
 30
0.0
 10
78.09749961975646
 20
151.044777114962
 30
0.0
 10
78.10243631963766
 20
151.0469246402888
 30
0.0
 10
78.12146419058064
 20
151.0552494245719
 30
0.0
 10
78.19604192751686
 20
151.087749126999
 30
0.0
 10
78.27081621677361
 20
151.120368709211
 30
0.0
 10
78.32610469672193
 20
151.1444877899135
 30
0.0
  0
LWPOLYLINE
  5
EB
330
1F
100
AcDbEntity
  8
0
100
AcDbPolyline
 90
       10
 70
   128
 43
0.0
 10
78.32610469672193
 20
151.1444877899135
 10
78.10036328050603
 20
151.1394009060109
 10
77.8814801237296
 20
151.1344686216557
 10
77.6761048695754
 20
151.1298418111051
 10
77.49048110458364
 20
151.125660172745
 10
77.3302489182662
 20
151.1220503664458
 10
77.20027353975286
 20
151.1191222882712
 10
77.1045075020503
 20
151.1169634825433
 10
77.04585653159131
 20
151.1156428671325
 10
77.02610504242887
 20
151.1151976949418
  0
LWPOLYLINE
  5
EC
330
1F
100
AcDbEntity
  8
0
100
AcDbPolyline
 90
        9
 70
   128
 43
0.0
 10
78.32610469672193
 20
151.1444877899135
 10
78.26758038613309
 20
151.1387731945956
 10
78.21130242559423
 20
151.1332783914054
 10
78.15943520876874
 20
151.1282138592446
 10
78.11397549125661
 20
151.1237770384992
 10
78.07666670891751
 20
151.1201337045873
 10
78.04894309851636
 20
151.1174272811854
 10
78.03187009307851
 20
151.1157602137769
 10
78.02610706898679
 20
151.1151976949418
  0
LINE
  5
ED
330
1F
100
AcDbEntity
  8
0
100
AcDbLine
 10
78.02610706898679
 20
151.1151976949418
 30
0.0
 11
77.02610504242887
 21
151.1151976949418
 31
0.0
  0
LWPOLYLINE
  5
EE
330
1F
100
AcDbEntity
  8
0
100
AcDbPolyline
 90
        9
 70
   128
 43
0.0
 10
126.9553955866705
 20
150.0444877958739
 10
126.9509899652313
 20
150.0656232303822
 10
126.9379421359609
 20
150.1282192832673
 10
126.9167536160659
 20
150.2298712796414
 10
126.8882383814763
 20
150.3666695273364
 10
126.8534925988625
 20
150.5333595043862
 10
126.8138517847966
 20
150.7235355741227
 10
126.770838651688
 20
150.9298868543351
 10
126.7261062971066
 20
151.1444877899135
  0
LINE
  5
EF
330
1F
100
AcDbEntity
  8
0
100
AcDbLine
 10
126.9553955866705
 20
150.0444877958739
 30
0.0
 11
78.0968168041419
 21
150.0444877958739
 31
0.0
  0
LINE
  5
F0
330
1F
100
AcDbEntity
  8
0
100
AcDbLine
 10
77.02610504242887
 20
151.1151976949418
 30
0.0
 11
77.02610504242887
 21
151.1444877899135
 31
0.0
  0
LINE
  5
F1
330
1F
100
AcDbEntity
  8
0
100
AcDbLine
 10
77.02610504242887
 20
151.1444877899135
 30
0.0
 11
77.02610504242887
 21
184.9444862521136
 31
0.0
  0
LINE
  5
F2
330
1F
100
AcDbEntity
  8
0
100
AcDbLine
 10
77.02610504242887
 20
184.9444862521136
 30
0.0
 11
77.02610504242887
 21
184.9737763470853
 31
0.0
  0
LWPOLYLINE
  5
F3
330
1F
100
AcDbEntity
  8
0
100
AcDbPolyline
 90
        9
 70
   128
 43
0.0
 10
78.32610469672193
 20
184.7444865918601
 10
78.07249065849294
 20
184.789219877764
 10
77.82861825439443
 20
184.8322320795501
 10
77.60386404010762
 20
184.871872893616
 10
77.40686696383466
 20
184.9066186762298
 10
77.24519681546201
 20
184.9351339108193
 10
77.12506365391721
 20
184.956323362037
 10
77.05108683917035
 20
184.9693711913073
 10
77.02610504242887
 20
184.9737763470853
  0
LINE
  5
F4
330
1F
100
AcDbEntity
  8
0
100
AcDbLine
 10
128.026106417061
 20
184.9737763470853
 30
0.0
 11
128.026106417061
 21
184.9444862521136
 31
0.0
  0
LINE
  5
F5
330
1F
100
AcDbEntity
  8
0
100
AcDbLine
 10
128.026106417061
 20
184.9444862521136
 30
0.0
 11
128.026106417061
 21
151.1444877899135
 31
0.0
  0
LINE
  5
F6
330
1F
100
AcDbEntity
  8
0
100
AcDbLine
 10
128.026106417061
 20
151.1444877899135
 30
0.0
 11
128.026106417061
 21
151.1151976949418
 31
0.0
  0
LWPOLYLINE
  5
F7
330
1F
100
AcDbEntity
  8
0
100
AcDbPolyline
 90
        9
 70
   128
 43
0.0
 10
126.7261062971066
 20
151.1444877899135
 10
126.9797240606259
 20
151.1387731945956
 10
127.2235948349099
 20
151.1332783914054
 10
127.4483476522129
 20
151.1282138592446
 10
127.6453451941471
 20
151.1237770384992
 10
127.8070169723343
 20
151.1201337045873
 10
127.9271499010484
 20
151.1174272811854
 10
128.0011274142872
 20
151.1157602137769
 10
128.026106417061
 20
151.1151976949418
  0
LWPOLYLINE
  5
F8
330
1F
100
AcDbEntity
  8
0
100
AcDbPolyline
 90
       10
 70
   128
 43
0.0
 10
126.7261062971066
 20
184.7444865918601
 10
126.9518491103064
 20
184.7843024945701
 10
127.1707327327441
 20
184.822907677933
 10
127.3761063570838
 20
184.8591324007953
 10
127.5617303549062
 20
184.8918721145833
 10
127.7219641710382
 20
184.9201321667874
 10
127.8519395495515
 20
184.9430576032842
 10
127.9477067514073
 20
184.9599480694974
 10
128.006356557713
 20
184.9702932006562
 10
128.026106417061
 20
184.9737763470853
  0
LWPOLYLINE
  5
F9
330
1F
100
AcDbEntity
  8
0
100
AcDbPolyline
 90
       10
 70
   128
 43
0.0
 10
126.7261062971066
 20
184.7444865918601
 10
126.7782007566403
 20
184.7843024945701
 10
126.8287124334584
 20
184.822907677933
 10
126.8761065079581
 20
184.8591324007953
 10
126.9189426897775
 20
184.8918721145833
 10
126.95591992128
 20
184.9201321667874
 10
126.9859140961181
 20
184.9430576032842
 10
127.0080143808137
 20
184.9599480694974
 10
127.0215488261293
 20
184.9702932006562
 10
127.0261062531482
 20
184.9737763470853
  0
LINE
  5
FA
330
1F
100
AcDbEntity
  8
0
100
AcDbLine
 10
127.0261062531482
 20
184.9737763470853
 30
0.0
 11
128.026106417061
 21
184.9737763470853
 31
0.0
  0
LWPOLYLINE
  5
FB
330
1F
100
AcDbEntity
  8
0
100
AcDbPolyline
 90
        9
 70
   128
 43
0.0
 10
126.9553955866705
 20
186.0444862461532
 10
126.9509899652313
 20
186.019508174702
 10
126.9379421359609
 20
185.94552949731
 10
126.9167536160659
 20
185.8253981984103
 10
126.8882383814763
 20
185.6637261873925
 10
126.8534925988625
 20
185.4667291111195
 10
126.8138517847966
 20
185.2419748968327
 10
126.770838651688
 20
184.9981043553794
 10
126.7261062971066
 20
184.7444865918601
  0
LINE
  5
FC
330
1F
100
AcDbEntity
  8
0
100
AcDbLine
 10
126.9553955866705
 20
185.0444879448855
 30
0.0
 11
126.9553955866705
 21
186.0444862461532
 31
0.0
  0
LWPOLYLINE
  5
FD
330
1F
100
AcDbEntity
  8
0
100
AcDbPolyline
 90
        9
 70
   128
 43
0.0
 10
126.9553955866705
 20
185.0444879448855
 10
126.9509899652313
 20
185.0387230581487
 10
126.9379421359609
 20
185.0216500527108
 10
126.9167536160659
 20
184.9939283049548
 10
126.8882383814763
 20
184.9566195226157
 10
126.8534925988625
 20
184.9111579424584
 10
126.8138517847966
 20
184.8592925882781
 10
126.770838651688
 20
184.8030146277392
 10
126.7261062971066
 20
184.7444865918601
  0
LWPOLYLINE
  5
FE
330
1F
100
AcDbEntity
  8
0
100
AcDbPolyline
 90
        9
 70
   128
 43
0.0
 10
78.0968168041419
 20
186.0444862461532
 10
78.10122382256498
 20
186.019508174702
 10
78.11426978919019
 20
185.94552949731
 10
78.13545924040784
 20
185.8253981984103
 10
78.16397261235227
 20
185.6637261873925
 10
78.19871839496602
 20
185.4667291111195
 10
78.23836293432225
 20
185.2419748968327
 10
78.2813751361083
 20
184.9981043553794
 10
78.32610469672193
 20
184.7444865918601
  0
LINE
  5
FF
330
1F
100
AcDbEntity
  8
0
100
AcDbLine
 10
78.0968168041419
 20
186.0444862461532
 30
0.0
 11
126.9553955866705
 21
186.0444862461532
 31
0.0
  0
LINE
  5
100
330
1F
100
AcDbEntity
  8
0
100
AcDbLine
 10
127.0261062531482
 20
151.1151976949418
 30
0.0
 11
128.026106417061
 21
151.1151976949418
 31
0.0
  0
LWPOLYLINE
  5
101
330
1F
100
AcDbEntity
  8
0
100
AcDbPolyline
 90
        9
 70
   128
 43
0.0
 10
126.7261062971066
 20
151.1444877899135
 10
126.7846334016632
 20
151.1387731945956
 10
126.840911362202
 20
151.1332783914054
 10
126.892777647705
 20
151.1282138592446
 10
126.9382382965397
 20
151.1237770384992
 10
126.97554754454
 20
151.1201337045873
 10
127.0032702236186
 20
151.1174272811854
 10
127.0203418320726
 20
151.1157602137769
 10
127.0261062531482
 20
151.1151976949418
  0
LWPOLYLINE
  5
102
330
1F
100
AcDbEntity
  8
0
100
AcDbPolyline
 90
       10
 70
   128
 43
0.0
 10
126.9553955866705
 20
151.0444860971415
 10
126.9519124402415
 20
151.0460060155833
 10
126.9415677747439
 20
151.0505173421348
 10
126.9246768428694
 20
151.0578841037
 10
126.9017523376952
 20
151.067882782861
 10
126.8734908885072
 20
151.0802079058135
 10
126.8407511747192
 20
151.0944869435275
 10
126.8045278488408
 20
151.1102858996833
 10
126.7659221998166
 20
151.1271223491872
 10
126.7261062971066
 20
151.1444877899135
  0
LINE
  5
103
330
1F
100
AcDbEntity
  8
0
100
AcDbLine
 10
126.9553955866705
 20
151.0444860971415
 30
0.0
 11
126.9553955866705
 21
150.0444877958739
 31
0.0
  0
LWPOLYLINE
  5
104
330
1F
100
AcDbEntity
  8
0
100
AcDbPolyline
 90
        9
 70
   128
 43
0.0
 10
78.0968168041419
 20
185.0444879448855
 10
78.10122382256498
 20
185.0387230581487
 10
78.11426978919019
 20
185.0216500527108
 10
78.13545924040784
 20
184.9939283049548
 10
78.16397261235227
 20
184.9566195226157
 10
78.19871839496602
 20
184.9111579424584
 10
78.23836293432225
 20
184.8592925882781
 10
78.2813751361083
 20
184.8030146277392
 10
78.32610469672193
 20
184.7444865918601
  0
LINE
  5
105
330
1F
100
AcDbEntity
  8
0
100
AcDbLine
 10
78.0968168041419
 20
185.0444879448855
 30
0.0
 11
78.0968168041419
 21
186.0444862461532
 31
0.0
  0
LINE
  5
106
330
1F
100
AcDbEntity
  8
0
100
AcDbLine
 10
78.02610706898679
 20
184.9737763470853
 30
0.0
 11
77.02610504242887
 21
184.9737763470853
 31
0.0
  0
LWPOLYLINE
  5
107
330
1F
100
AcDbEntity
  8
0
100
AcDbPolyline
 90
        9
 70
   128
 43
0.0
 10
78.32610469672193
 20
184.7444865918601
 10
78.26758038613309
 20
184.789219877764
 10
78.21130242559423
 20
184.8322320795501
 10
78.15943520876874
 20
184.871872893616
 10
78.11397549125661
 20
184.9066186762298
 10
78.07666670891751
 20
184.9351339108193
 10
78.04894309851636
 20
184.956323362037
 10
78.03187009307851
 20
184.9693711913073
 10
78.02610706898679
 20
184.9737763470853
  0
LINE
  5
108
330
1F
100
AcDbEntity
  8
0
100
AcDbLine
 10
77.02610504242887
 20
150.0444877958739
 30
0.0
 11
77.02610504242887
 21
151.0444860971415
 31
0.0
  0
LINE
  5
109
330
1F
100
AcDbEntity
  8
0
100
AcDbLine
 10
78.0968168041419
 20
151.0444860971415
 30
0.0
 11
77.02610504242887
 21
151.0444860971415
 31
0.0
  0
LINE
  5
10A
330
1F
100
AcDbEntity
  8
0
100
AcDbLine
 10
78.0968168041419
 20
150.0444877958739
 30
0.0
 11
77.02610504242887
 21
150.0444877958739
 31
0.0
  0
LINE
  5
10B
330
1F
100
AcDbEntity
  8
0
100
AcDbLine
 10
128.026106417061
 20
150.0444877958739
 30
0.0
 11
128.026106417061
 21
151.0444860971415
 31
0.0
  0
LINE
  5
10C
330
1F
100
AcDbEntity
  8
0
100
AcDbLine
 10
126.9553955866705
 20
151.0444860971415
 30
0.0
 11
128.026106417061
 21
151.0444860971415
 31
0.0
  0
LINE
  5
10D
330
1F
100
AcDbEntity
  8
0
100
AcDbLine
 10
126.9553955866705
 20
150.0444877958739
 30
0.0
 11
128.026106417061
 21
150.0444877958739
 31
0.0
  0
LINE
  5
10E
330
1F
100
AcDbEntity
  8
0
100
AcDbLine
 10
126.9553955866705
 20
185.0444879448855
 30
0.0
 11
128.026106417061
 21
185.0444879448855
 31
0.0
  0
LINE
  5
10F
330
1F
100
AcDbEntity
  8
0
100
AcDbLine
 10
128.026106417061
 20
186.0444862461532
 30
0.0
 11
128.026106417061
 21
185.0444879448855
 31
0.0
  0
LINE
  5
110
330
1F
100
AcDbEntity
  8
0
100
AcDbLine
 10
126.9553955866705
 20
186.0444862461532
 30
0.0
 11
128.026106417061
 21
186.0444862461532
 31
0.0
  0
LINE
  5
111
330
1F
100
AcDbEntity
  8
0
100
AcDbLine
 10
77.02610504242887
 20
186.0444862461532
 30
0.0
 11
77.02610504242887
 21
185.0444879448855
 31
0.0
  0
LINE
  5
112
330
1F
100
AcDbEntity
  8
0
100
AcDbLine
 10
78.0968168041419
 20
185.0444879448855
 30
0.0
 11
77.02610504242887
 21
185.0444879448855
 31
0.0
  0
LINE
  5
113
330
1F
100
AcDbEntity
  8
0
100
AcDbLine
 10
78.0968168041419
 20
186.0444862461532
 30
0.0
 11
77.02610504242887
 21
186.0444862461532
 31
0.0
  0
LINE
  5
114
330
1F
100
AcDbEntity
  8
0
100
AcDbLine
 10
127.0261062531482
 20
184.9444862521136
 30
0.0
 11
127.0261062531482
 21
184.9737763470853
 31
0.0
  0
LINE
  5
115
330
1F
100
AcDbEntity
  8
0
100
AcDbLine
 10
78.02610706898679
 20
184.9737763470853
 30
0.0
 11
78.02610706898679
 21
184.9444862521136
 31
0.0
  0
LINE
  5
116
330
1F
100
AcDbEntity
  8
0
100
AcDbLine
 10
129.5261064300995
 20
186.5444872594321
 30
0.0
 11
129.5261064300995
 21
149.544486782595
 31
0.0
  0
LINE
  5
117
330
1F
100
AcDbEntity
  8
0
100
AcDbLine
 10
132.5261064561765
 20
186.5444872594321
 30
0.0
 11
132.5261064561765
 21
149.544486782595
 31
0.0
  0
LINE
  5
118
330
1F
100
AcDbEntity
  8
0
100
AcDbLine
 10
132.5261064561765
 20
186.5444872594321
 30
0.0
 11
129.5261064300995
 21
186.5444872594321
 31
0.0
  0
LINE
  5
119
330
1F
100
AcDbEntity
  8
0
100
AcDbLine
 10
132.5261064561765
 20
149.544486782595
 30
0.0
 11
129.5261064300995
 21
149.544486782595
 31
0.0
  0
LINE
  5
11F
330
1F
100
AcDbEntity
  8
0
100
AcDbLine
 10
129.5261064300995
 20
149.544486782595
 30
0.0
 11
89.02610700938214
 21
149.544486782595
 31
0.0
  0
LINE
  5
120
330
1F
100
AcDbEntity
  8
0
100
AcDbLine
 10
89.02610700938214
 20
149.544486782595
 30
0.0
 11
89.02610700938214
 21
150.0444877958739
 31
0.0
  0
LINE
  5
121
330
1F
100
AcDbEntity
  8
0
100
AcDbLine
 10
128.026106417061
 20
174.0444870731676
 30
0.0
 11
129.5261064300995
 21
174.0444870731676
 31
0.0
  0
LINE
  5
122
330
1F
100
AcDbEntity
  8
0
  6
Continuous
 62
     8
370
     0
100
AcDbLine
 10
126.7261062971066
 20
151.1444877899135
 30
0.0
 11
126.7261062971066
 21
184.7444865918601
 31
0.0
  0
LINE
  5
123
330
1F
100
AcDbEntity
  8
0
  6
Continuous
 62
     8
370
     0
100
AcDbLine
 10
78.32610469672193
 20
151.1444877899135
 30
0.0
 11
126.7261062971066
 21
151.1444877899135
 31
0.0
  0
LINE
  5
124
330
1F
100
AcDbEntity
  8
0
  6
Continuous
 62
     8
370
     0
100
AcDbLine
 10
78.32610469672193
 20
184.7444865918601
 30
0.0
 11
78.32610469672193
 21
151.1444877899135
 31
0.0
  0
LINE
  5
125
330
1F
100
AcDbEntity
  8
0
  6
Continuous
 62
     8
370
     0
100
AcDbLine
 10
126.7261062971066
 20
184.7444865918601
 30
0.0
 11
78.32610469672193
 21
184.7444865918601
 31
0.0
  0
LINE
  5
126
330
1F
100
AcDbEntity
  8
0
100
AcDbLine
 10
317.6338434872555
 20
184.9444862521136
 30
0.0
 11
317.6338434872555
 21
184.9737763470853
 31
0.0
  0
LINE
  5
127
330
1F
100
AcDbEntity
  8
0
100
AcDbLine
 10
268.6338443030941
 20
184.9737763470853
 30
0.0
 11
268.6338443030941
 21
184.9444862521136
 31
0.0
  0
LWPOLYLINE
  5
128
330
1F
100
AcDbEntity
  8
0
100
AcDbPolyline
 90
        9
 70
   128
 43
0.0
 10
268.9338442591356
 20
151.1444877899135
 10
268.6802264956164
 20
151.1387731945956
 10
268.4363557213323
 20
151.1332783914054
 10
268.2116029040294
 20
151.1282138592446
 10
268.0146053620952
 20
151.1237770384992
 10
267.852933583908
 20
151.1201337045873
 10
267.7328006551938
 20
151.1174272811854
 10
267.6588231419551
 20
151.1157602137769
 10
267.6338441391813
 20
151.1151976949418
  0
LWPOLYLINE
  5
129
330
1F
100
AcDbEntity
  8
0
100
AcDbPolyline
 90
        9
 70
   128
 43
0.0
 10
268.9338442591356
 20
151.1444877899135
 10
268.8753171545791
 20
151.1387731945956
 10
268.8190391940402
 20
151.1332783914054
 10
268.7671729085373
 20
151.1282138592446
 10
268.7217122597026
 20
151.1237770384992
 10
268.6844030117022
 20
151.1201337045873
 10
268.6566803326236
 20
151.1174272811854
 10
268.6396087241696
 20
151.1157602137769
 10
268.6338443030941
 20
151.1151976949418
  0
LINE
  5
12A
330
1F
100
AcDbEntity
  8
0
100
AcDbLine
 10
268.6338443030941
 20
151.1151976949418
 30
0.0
 11
267.6338441391813
 21
151.1151976949418
 31
0.0
  0
SPLINE
  5
12B
330
1F
100
AcDbEntity
  8
0
100
AcDbSpline
210
0.0
220
0.0
230
1.0
 70
     8
 71
     3
 72
    12
 73
     8
 74
     0
 42
0.000000001
 43
0.00000001
 40
0.0
 40
0.0
 40
0.0
 40
0.0
 40
0.123350247229175
 40
0.2484750400727372
 40
0.4971529613189365
 40
0.7478630618788608
 40
1.0
 40
1.0
 40
1.0
 40
1.0
 10
268.7045549695717
 20
150.0444877958739
 30
0.0
 10
268.7054126871973
 20
150.0485650012357
 30
0.0
 10
268.7071404617756
 20
150.0567780675926
 30
0.0
 10
268.7251459847189
 20
150.1433368645957
 30
0.0
 10
268.7677025662439
 20
150.3474108724863
 30
0.0
 10
268.8440883852705
 20
150.7138972010937
 30
0.0
 10
268.903869091569
 20
151.0006863371877
 30
0.0
 10
268.9338442591356
 20
151.1444877899135
 30
0.0
  0
LINE
  5
12C
330
1F
100
AcDbEntity
  8
0
100
AcDbLine
 10
268.7045549695717
 20
150.0444877958739
 30
0.0
 11
268.7045549695717
 21
151.0444860971415
 31
0.0
  0
SPLINE
  5
12D
330
1F
100
AcDbEntity
  8
0
100
AcDbSpline
210
0.0
220
0.0
230
1.0
 70
     8
 71
     3
 72
    12
 73
     8
 74
     0
 42
0.000000001
 43
0.00000001
 40
0.0
 40
0.0
 40
0.0
 40
0.0
 40
0.0341775400921105
 40
0.0702197334463498
 40
0.1529069936828644
 40
0.3736558913340364
 40
1.0
 40
1.0
 40
1.0
 40
1.0
 10
268.7045549695717
 20
151.0444860971415
 30
0.0
 10
268.7047779786055
 20
151.0445813883883
 30
0.0
 10
268.7052361635676
 20
151.0447771697677
 30
0.0
 10
268.710172946123
 20
151.0469245662366
 30
0.0
 10
268.7292039386308
 20
151.055249159684
 30
0.0
 10
268.8037807486215
 20
151.087749176027
 30
0.0
 10
268.8785554974135
 20
151.1203687446008
 30
0.0
 10
268.9338442591356
 20
151.1444877899135
 30
0.0
  0
LINE
  5
12E
330
1F
100
AcDbEntity
  8
0
100
AcDbLine
 10
267.6338441391813
 20
151.1151976949418
 30
0.0
 11
267.6338441391813
 21
151.1444877899135
 31
0.0
  0
LINE
  5
12F
330
1F
100
AcDbEntity
  8
0
100
AcDbLine
 10
267.6338441391813
 20
151.1444877899135
 30
0.0
 11
267.6338441391813
 21
184.9444862521136
 31
0.0
  0
LINE
  5
130
330
1F
100
AcDbEntity
  8
0
100
AcDbLine
 10
267.6338441391813
 20
184.9444862521136
 30
0.0
 11
267.6338441391813
 21
184.9737763470853
 31
0.0
  0
LWPOLYLINE
  5
131
330
1F
100
AcDbEntity
  8
0
100
AcDbPolyline
 90
        9
 70
   128
 43
0.0
 10
268.9338442591356
 20
184.7444865918601
 10
268.6802264956164
 20
184.789219877764
 10
268.4363557213323
 20
184.8322320795501
 10
268.2116029040294
 20
184.871872893616
 10
268.0146053620952
 20
184.9066186762298
 10
267.852933583908
 20
184.9351339108193
 10
267.7328006551938
 20
184.956323362037
 10
267.6588231419551
 20
184.9693711913073
 10
267.6338441391813
 20
184.9737763470853
  0
LWPOLYLINE
  5
132
330
1F
100
AcDbEntity
  8
0
100
AcDbPolyline
 90
       10
 70
   128
 43
0.0
 10
317.5631337521004
 20
150.0444877958739
 10
317.5596506056713
 20
150.0611975855077
 10
317.5493054745125
 20
150.1108259028638
 10
317.5324150082993
 20
150.1918584174359
 10
317.5094895718025
 20
150.3018383002723
 10
317.4812295195984
 20
150.4374202406848
 10
317.4484879431652
 20
150.5944877928937
 10
317.4122669455933
 20
150.7682651347363
 10
317.37365803694
 20
150.9534735298598
 10
317.3338458595204
 20
151.1444877899135
  0
LINE
  5
133
330
1F
100
AcDbEntity
  8
0
100
AcDbLine
 10
317.5631337521004
 20
150.0444877958739
 30
0.0
 11
268.7045549695717
 21
150.0444877958739
 31
0.0
  0
LINE
  5
134
330
1F
100
AcDbEntity
  8
0
100
AcDbLine
 10
268.6338443030941
 20
184.9737763470853
 30
0.0
 11
267.6338441391813
 21
184.9737763470853
 31
0.0
  0
LWPOLYLINE
  5
135
330
1F
100
AcDbEntity
  8
0
100
AcDbPolyline
 90
        9
 70
   128
 43
0.0
 10
268.9338442591356
 20
184.7444865918601
 10
268.8753171545791
 20
184.789219877764
 10
268.8190391940402
 20
184.8322320795501
 10
268.7671729085373
 20
184.871872893616
 10
268.7217122597026
 20
184.9066186762298
 10
268.6844030117022
 20
184.9351339108193
 10
268.6566803326236
 20
184.956323362037
 10
268.6396087241696
 20
184.9693711913073
 10
268.6338443030941
 20
184.9737763470853
  0
LWPOLYLINE
  5
136
330
1F
100
AcDbEntity
  8
0
100
AcDbPolyline
 90
        9
 70
   128
 43
0.0
 10
268.7045549695717
 20
186.0444862461532
 10
268.708960591011
 20
186.019508174702
 10
268.7220084202813
 20
185.94552949731
 10
268.7431969401764
 20
185.8253981984103
 10
268.771712174766
 20
185.6637261873925
 10
268.8064579573797
 20
185.4667291111195
 10
268.8460987714457
 20
185.2419748968327
 10
268.8891119045543
 20
184.9981043553794
 10
268.9338442591356
 20
184.7444865918601
  0
LINE
  5
137
330
1F
100
AcDbEntity
  8
0
100
AcDbLine
 10
268.7045549695717
 20
186.0444862461532
 30
0.0
 11
317.5631337521004
 21
186.0444862461532
 31
0.0
  0
LWPOLYLINE
  5
138
330
1F
100
AcDbEntity
  8
0
100
AcDbPolyline
 90
        9
 70
   128
 43
0.0
 10
317.5631337521004
 20
186.0444862461532
 10
317.5587267336773
 20
186.019508174702
 10
317.5456807670521
 20
185.94552949731
 10
317.5244913158344
 20
185.8253981984103
 10
317.49597794389
 20
185.6637261873925
 10
317.4612321612763
 20
185.4667291111195
 10
317.42158762192
 20
185.2419748968327
 10
317.378575420134
 20
184.9981043553794
 10
317.3338458595204
 20
184.7444865918601
  0
LWPOLYLINE
  5
139
330
1F
100
AcDbEntity
  8
0
100
AcDbPolyline
 90
        9
 70
   128
 43
0.0
 10
268.7045549695717
 20
185.0444879448855
 10
268.708960591011
 20
185.0387230581487
 10
268.7220084202813
 20
185.0216500527108
 10
268.7431969401764
 20
184.9939283049548
 10
268.771712174766
 20
184.9566195226157
 10
268.8064579573797
 20
184.9111579424584
 10
268.8460987714457
 20
184.8592925882781
 10
268.8891119045543
 20
184.8030146277392
 10
268.9338442591356
 20
184.7444865918601
  0
LINE
  5
13A
330
1F
100
AcDbEntity
  8
0
100
AcDbLine
 10
268.7045549695717
 20
185.0444879448855
 30
0.0
 11
268.7045549695717
 21
186.0444862461532
 31
0.0
  0
LWPOLYLINE
  5
13B
330
1F
100
AcDbEntity
  8
0
100
AcDbPolyline
 90
       10
 70
   128
 43
0.0
 10
317.5631337521004
 20
151.0444860971415
 10
317.5596506056713
 20
151.0460060155833
 10
317.5493054745125
 20
151.0505173421348
 10
317.5324150082993
 20
151.0578841037
 10
317.5094895718025
 20
151.067882782861
 10
317.4812295195984
 20
151.0802079058135
 10
317.4484879431652
 20
151.0944869435275
 10
317.4122669455933
 20
151.1102858996833
 10
317.37365803694
 20
151.1271223491872
 10
317.3338458595204
 20
151.1444877899135
  0
LINE
  5
13C
330
1F
100
AcDbEntity
  8
0
100
AcDbLine
 10
317.5631337521004
 20
151.0444860971415
 30
0.0
 11
317.5631337521004
 21
150.0444877958739
 31
0.0
  0
LINE
  5
13D
330
1F
100
AcDbEntity
  8
0
100
AcDbLine
 10
318.6338455138134
 20
184.9737763470853
 30
0.0
 11
318.6338455138134
 21
184.9444862521136
 31
0.0
  0
LINE
  5
13E
330
1F
100
AcDbEntity
  8
0
100
AcDbLine
 10
318.6338455138134
 20
184.9444862521136
 30
0.0
 11
318.6338455138134
 21
151.1444877899135
 31
0.0
  0
LINE
  5
13F
330
1F
100
AcDbEntity
  8
0
100
AcDbLine
 10
318.6338455138134
 20
151.1444877899135
 30
0.0
 11
318.6338455138134
 21
151.1151976949418
 31
0.0
  0
LWPOLYLINE
  5
140
330
1F
100
AcDbEntity
  8
0
100
AcDbPolyline
 90
        9
 70
   128
 43
0.0
 10
317.3338458595204
 20
151.1444877899135
 10
317.5874598977493
 20
151.1387731945956
 10
317.8313323018479
 20
151.1332783914054
 10
318.0560865161347
 20
151.1282138592446
 10
318.2530835924076
 20
151.1237770384992
 10
318.4147537407803
 20
151.1201337045873
 10
318.5348869023251
 20
151.1174272811854
 10
318.6088637170719
 20
151.1157602137769
 10
318.6338455138134
 20
151.1151976949418
  0
LWPOLYLINE
  5
141
330
1F
100
AcDbEntity
  8
0
100
AcDbPolyline
 90
        9
 70
   128
 43
0.0
 10
317.3338458595204
 20
184.7444865918601
 10
317.5874598977493
 20
184.789219877764
 10
317.8313323018479
 20
184.8322320795501
 10
318.0560865161347
 20
184.871872893616
 10
318.2530835924076
 20
184.9066186762298
 10
318.4147537407803
 20
184.9351339108193
 10
318.5348869023251
 20
184.956323362037
 10
318.6088637170719
 20
184.9693711913073
 10
318.6338455138134
 20
184.9737763470853
  0
LINE
  5
142
330
1F
100
AcDbEntity
  8
0
100
AcDbLine
 10
317.6338434872555
 20
151.1151976949418
 30
0.0
 11
318.6338455138134
 21
151.1151976949418
 31
0.0
  0
LWPOLYLINE
  5
143
330
1F
100
AcDbEntity
  8
0
100
AcDbPolyline
 90
        9
 70
   128
 43
0.0
 10
317.3338458595204
 20
151.1444877899135
 10
317.3923701701092
 20
151.1387731945956
 10
317.4486481306481
 20
151.1332783914054
 10
317.5005153474735
 20
151.1282138592446
 10
317.5459750649857
 20
151.1237770384992
 10
317.5832838473248
 20
151.1201337045873
 10
317.6110074577259
 20
151.1174272811854
 10
317.6280804631638
 20
151.1157602137769
 10
317.6338434872555
 20
151.1151976949418
  0
LINE
  5
144
330
1F
100
AcDbEntity
  8
0
100
AcDbLine
 10
317.5631337521004
 20
185.0444879448855
 30
0.0
 11
317.5631337521004
 21
186.0444862461532
 31
0.0
  0
LWPOLYLINE
  5
145
330
1F
100
AcDbEntity
  8
0
100
AcDbPolyline
 90
       10
 70
   128
 43
0.0
 10
317.5631337521004
 20
185.0444879448855
 10
317.5596506056713
 20
185.0399300522054
 10
317.5493054745125
 20
185.0263942099059
 10
317.5324150082993
 20
185.0042939252103
 10
317.5094895718025
 20
184.9742997503722
 10
317.4812295195984
 20
184.9373225188697
 10
317.4484879431652
 20
184.8944872683728
 10
317.4122669455933
 20
184.8470922625506
 10
317.37365803694
 20
184.7965810513938
 10
317.3338458595204
 20
184.7444865918601
  0
LWPOLYLINE
  5
146
330
1F
100
AcDbEntity
  8
0
100
AcDbPolyline
 90
       10
 70
   128
 43
0.0
 10
317.3338458595204
 20
184.7444865918601
 10
317.385940319054
 20
184.7843024945701
 10
317.4364515302109
 20
184.822907677933
 10
317.4838446733879
 20
184.8591324007953
 10
317.5266817865299
 20
184.8918721145833
 10
317.5636590180325
 20
184.9201321667874
 10
317.5936513302254
 20
184.9430576032842
 10
317.6157534775662
 20
184.9599480694974
 10
317.6292874572205
 20
184.9702932006562
 10
317.6338434872555
 20
184.9737763470853
  0
LINE
  5
147
330
1F
100
AcDbEntity
  8
0
100
AcDbLine
 10
317.6338434872555
 20
184.9737763470853
 30
0.0
 11
318.6338455138134
 21
184.9737763470853
 31
0.0
  0
LINE
  5
148
330
1F
100
AcDbEntity
  8
0
100
AcDbLine
 10
267.6338441391813
 20
150.0444877958739
 30
0.0
 11
267.6338441391813
 21
151.0444860971415
 31
0.0
  0
LINE
  5
149
330
1F
100
AcDbEntity
  8
0
100
AcDbLine
 10
268.7045549695717
 20
150.0444877958739
 30
0.0
 11
267.6338441391813
 21
150.0444877958739
 31
0.0
  0
LINE
  5
14A
330
1F
100
AcDbEntity
  8
0
100
AcDbLine
 10
268.7045549695717
 20
151.0444860971415
 30
0.0
 11
267.6338441391813
 21
151.0444860971415
 31
0.0
  0
LINE
  5
14B
330
1F
100
AcDbEntity
  8
0
100
AcDbLine
 10
318.6338455138134
 20
150.0444877958739
 30
0.0
 11
318.6338455138134
 21
151.0444860971415
 31
0.0
  0
LINE
  5
14C
330
1F
100
AcDbEntity
  8
0
100
AcDbLine
 10
317.5631337521004
 20
150.0444877958739
 30
0.0
 11
318.6338455138134
 21
150.0444877958739
 31
0.0
  0
LINE
  5
14D
330
1F
100
AcDbEntity
  8
0
100
AcDbLine
 10
317.5631337521004
 20
151.0444860971415
 30
0.0
 11
318.6338455138134
 21
151.0444860971415
 31
0.0
  0
LINE
  5
14E
330
1F
100
AcDbEntity
  8
0
100
AcDbLine
 10
268.7045549695717
 20
186.0444862461532
 30
0.0
 11
267.6338441391813
 21
186.0444862461532
 31
0.0
  0
LINE
  5
14F
330
1F
100
AcDbEntity
  8
0
100
AcDbLine
 10
268.7045549695717
 20
185.0444879448855
 30
0.0
 11
267.6338441391813
 21
185.0444879448855
 31
0.0
  0
LINE
  5
150
330
1F
100
AcDbEntity
  8
0
100
AcDbLine
 10
267.6338441391813
 20
186.0444862461532
 30
0.0
 11
267.6338441391813
 21
185.0444879448855
 31
0.0
  0
LINE
  5
151
330
1F
100
AcDbEntity
  8
0
100
AcDbLine
 10
318.6338455138134
 20
186.0444862461532
 30
0.0
 11
318.6338455138134
 21
185.0444879448855
 31
0.0
  0
LINE
  5
152
330
1F
100
AcDbEntity
  8
0
100
AcDbLine
 10
317.5631337521004
 20
185.0444879448855
 30
0.0
 11
318.6338455138134
 21
185.0444879448855
 31
0.0
  0
LINE
  5
153
330
1F
100
AcDbEntity
  8
0
100
AcDbLine
 10
317.5631337521004
 20
186.0444862461532
 30
0.0
 11
318.6338455138134
 21
186.0444862461532
 31
0.0
  0
LINE
  5
154
330
1F
100
AcDbEntity
  8
0
100
AcDbLine
 10
263.1338441000657
 20
149.544486782595
 30
0.0
 11
266.1338441261428
 21
149.544486782595
 31
0.0
  0
LINE
  5
155
330
1F
100
AcDbEntity
  8
0
100
AcDbLine
 10
263.1338441000657
 20
149.544486782595
 30
0.0
 11
263.1338441000657
 21
186.5444872594321
 31
0.0
  0
LINE
  5
156
330
1F
100
AcDbEntity
  8
0
100
AcDbLine
 10
263.1338441000657
 20
186.5444872594321
 30
0.0
 11
266.1338441261428
 21
186.5444872594321
 31
0.0
  0
LINE
  5
157
330
1F
100
AcDbEntity
  8
0
100
AcDbLine
 10
266.1338441261428
 20
149.544486782595
 30
0.0
 11
266.1338441261428
 21
186.5444872594321
 31
0.0
  0
LINE
  5
15B
330
1F
100
AcDbEntity
  8
0
100
AcDbLine
 10
266.1338441261428
 20
149.544486782595
 30
0.0
 11
306.6338435468601
 21
149.544486782595
 31
0.0
  0
LINE
  5
15D
330
1F
100
AcDbEntity
  8
0
100
AcDbLine
 10
267.6338441391813
 20
174.0444870731676
 30
0.0
 11
266.1338441261428
 21
174.0444870731676
 31
0.0
  0
LINE
  5
15E
330
1F
100
AcDbEntity
  8
0
100
AcDbLine
 10
306.6338435468601
 20
149.544486782595
 30
0.0
 11
306.6338435468601
 21
150.0444877958739
 31
0.0
  0
LINE
  5
15F
330
1F
100
AcDbEntity
  8
0
  6
Continuous
 62
     8
370
     0
100
AcDbLine
 10
268.9338442591356
 20
184.7444865918601
 30
0.0
 11
268.9338442591356
 21
151.1444877899135
 31
0.0
  0
LINE
  5
160
330
1F
100
AcDbEntity
  8
0
  6
Continuous
 62
     8
370
     0
100
AcDbLine
 10
268.9338442591356
 20
151.1444877899135
 30
0.0
 11
317.3338458595204
 21
151.1444877899135
 31
0.0
  0
LINE
  5
161
330
1F
100
AcDbEntity
  8
0
  6
Continuous
 62
     8
370
     0
100
AcDbLine
 10
317.3338458595204
 20
151.1444877899135
 30
0.0
 11
317.3338458595204
 21
184.7444865918601
 31
0.0
  0
LINE
  5
162
330
1F
100
AcDbEntity
  8
0
  6
Continuous
 62
     8
370
     0
100
AcDbLine
 10
317.3338458595204
 20
184.7444865918601
 30
0.0
 11
268.9338442591356
 21
184.7444865918601
 31
0.0
  0
LINE
  5
16A
330
1F
100
AcDbEntity
  8
0
100
AcDbLine
 10
210.8416689980244
 20
276.7931162183868
 30
0.0
 11
203.4416685301279
 21
276.7931162183868
 31
0.0
  0
LINE
  5
16B
330
1F
100
AcDbEntity
  8
0
100
AcDbLine
 10
210.8416689980244
 20
275.7224044566738
 30
0.0
 11
210.8416689980244
 21
276.7931162183868
 31
0.0
  0
LINE
  5
16C
330
1F
100
AcDbEntity
  8
0
100
AcDbLine
 10
210.8416689980244
 20
226.8638256741452
 30
0.0
 11
210.8416689980244
 21
225.7931148437548
 31
0.0
  0
LINE
  5
16D
330
1F
100
AcDbEntity
  8
0
100
AcDbLine
 10
210.8416689980244
 20
225.7931148437548
 30
0.0
 11
203.4416685301279
 21
225.7931148437548
 31
0.0
  0
LINE
  5
16E
330
1F
100
AcDbEntity
  8
0
100
AcDbLine
 10
203.4416685301279
 20
264.7931142514336
 30
0.0
 11
203.4416685301279
 21
276.7931162183868
 31
0.0
  0
CIRCLE
  5
16F
330
1F
100
AcDbEntity
  8
0
100
AcDbCircle
 10
206.9416687268232
 20
251.2931148176777
 30
0.0
 40
1.599999999999994
  0
LINE
  5
170
330
1F
100
AcDbEntity
  8
0
100
AcDbLine
 10
211.9416689920639
 20
275.4931165640938
 30
0.0
 11
211.9416689920639
 21
227.0931149637091
 31
0.0
  0
ELLIPSE
  5
171
330
1F
100
AcDbEntity
  8
0
100
AcDbEllipse
 10
210.8416687268233
 20
227.0931148176777
 30
0.0
 11
1.100000000000023
 21
0.0
 31
0.0
210
0.0
220
0.0
230
1.0
 40
0.2084448380739402
 41
4.712388980384692
 42
6.283185307179586
  0
SPLINE
  5
172
330
1F
100
AcDbEntity
  8
0
100
AcDbSpline
210
0.0
220
0.0
230
1.0
 70
     8
 71
     3
 72
    12
 73
     8
 74
     0
 42
0.000000001
 43
0.00000001
 40
0.0
 40
0.0
 40
0.0
 40
0.0
 40
0.1233502867434197
 40
0.2484745480766725
 40
0.4971529080409198
 40
0.7478634328774595
 40
1.0
 40
1.0
 40
1.0
 40
1.0
 10
210.8416689980244
 20
275.7224044566738
 30
0.0
 10
210.9132205344542
 20
275.7215462354952
 30
0.0
 10
211.0573526329518
 20
275.7198174505435
 30
0.0
 10
211.3343506467398
 20
275.701814642752
 30
0.0
 10
211.639219166079
 20
275.6592598450285
 30
0.0
 10
211.8923561504297
 20
275.5828665991329
 30
0.0
 10
211.9252003301861
 20
275.5230897502173
 30
0.0
 10
211.9416689920639
 20
275.4931165640938
 30
0.0
  0
ARC
  5
173
330
1F
100
AcDbEntity
  8
0
100
AcDbCircle
 10
210.6416687268232
 20
275.4931148176777
 30
0.0
 40
1.300000000000056
100
AcDbArc
 50
0.0
 51
81.15011690157058
  0
ARC
  5
174
330
1F
100
AcDbEntity
  8
0
100
AcDbCircle
 10
210.6416687268233
 20
227.0931148176777
 30
0.0
 40
1.300000000000024
100
AcDbArc
 50
278.8498830984292
 51
0.0
  0
LINE
  5
175
330
1F
100
AcDbEntity
  8
0
100
AcDbLine
 10
185.6416689652418
 20
225.7931148437548
 30
0.0
 11
193.0416685018157
 21
225.7931148437548
 31
0.0
  0
LINE
  5
176
330
1F
100
AcDbEntity
  8
0
100
AcDbLine
 10
185.6416689652418
 20
275.7224044566738
 30
0.0
 11
185.6416689652418
 21
276.7931162183868
 31
0.0
  0
LINE
  5
177
330
1F
100
AcDbEntity
  8
0
100
AcDbLine
 10
185.6416689652418
 20
276.7931162183868
 30
0.0
 11
193.0416685018157
 21
276.7931162183868
 31
0.0
  0
LINE
  5
178
330
1F
100
AcDbEntity
  8
0
100
AcDbLine
 10
193.0416685018157
 20
276.7931162183868
 30
0.0
 11
193.0416685018157
 21
225.7931148437548
 31
0.0
  0
LINE
  5
17F
330
1F
100
AcDbEntity
  8
0
100
AcDbLine
 10
185.6416689652418
 20
226.8638256741452
 30
0.0
 11
185.6416689652418
 21
225.7931148437548
 31
0.0
  0
LINE
  5
180
330
1F
100
AcDbEntity
  8
0
100
AcDbLine
 10
184.5416689712023
 20
227.0931149637091
 30
0.0
 11
184.5416689712023
 21
275.4931165640938
 31
0.0
  0
ELLIPSE
  5
181
330
1F
100
AcDbEntity
  8
0
100
AcDbEllipse
 10
185.6416687268232
 20
275.4931148176777
 30
0.0
 11
1.099999999999994
 21
0.0
 31
0.0
210
0.0
220
0.0
230
1.0
 40
0.2084448380739715
 41
1.570796326794897
 42
3.141592653589793
  0
SPLINE
  5
182
330
1F
100
AcDbEntity
  8
0
100
AcDbSpline
210
0.0
220
0.0
230
1.0
 70
     8
 71
     3
 72
    12
 73
     8
 74
     0
 42
0.000000001
 43
0.00000001
 40
0.0
 40
0.0
 40
0.0
 40
0.0
 40
0.123350247229175
 40
0.2484750400727372
 40
0.4971529613189365
 40
0.7478630618788608
 40
1.0
 40
1.0
 40
1.0
 40
1.0
 10
185.6416689652418
 20
226.8638256741452
 30
0.0
 10
185.5701174339865
 20
226.8646833917708
 30
0.0
 10
185.4259850143497
 20
226.8664111663491
 30
0.0
 10
185.1489868031534
 20
226.8844166892924
 30
0.0
 10
184.844119086551
 20
226.9269732708173
 30
0.0
 10
184.5909814577049
 20
227.0033590898439
 30
0.0
 10
184.558137531781
 20
227.0631397961425
 30
0.0
 10
184.5416689712023
 20
227.0931149637091
 30
0.0
  0
ARC
  5
183
330
1F
100
AcDbEntity
  8
0
100
AcDbCircle
 10
185.8416687268232
 20
227.0931148176777
 30
0.0
 40
1.300000000000028
100
AcDbArc
 50
180.0
 51
261.1501169015712
  0
ARC
  5
184
330
1F
100
AcDbEntity
  8
0
100
AcDbCircle
 10
185.8416687268232
 20
275.4931148176777
 30
0.0
 40
1.300000000000056
100
AcDbArc
 50
98.84988309842942
 51
180.0
  0
LINE
  5
185
330
1F
100
AcDbEntity
  8
0
100
AcDbLine
 10
228.391668056271
 20
221.2931148046392
 30
0.0
 11
228.391668056271
 21
224.2931148307162
 31
0.0
  0
LINE
  5
186
330
1F
100
AcDbEntity
  8
0
100
AcDbLine
 10
228.391668056271
 20
221.2931148046392
 30
0.0
 11
168.3916693973755
 21
221.2931148046392
 31
0.0
  0
LINE
  5
187
330
1F
100
AcDbEntity
  8
0
100
AcDbLine
 10
168.3916693973755
 20
221.2931148046392
 30
0.0
 11
168.3916693973755
 21
224.2931148307162
 31
0.0
  0
LINE
  5
188
330
1F
100
AcDbEntity
  8
0
100
AcDbLine
 10
228.391668056271
 20
224.2931148307162
 30
0.0
 11
168.3916693973755
 21
224.2931148307162
 31
0.0
  0
LINE
  5
190
330
1F
100
AcDbEntity
  8
0
100
AcDbLine
 10
193.3416689235186
 20
227.2931146239626
 30
0.0
 11
193.0416685018157
 21
227.3193616224217
 31
0.0
  0
LINE
  5
191
330
1F
100
AcDbEntity
  8
0
100
AcDbLine
 10
193.3416689235186
 20
264.7931142514336
 30
0.0
 11
193.3416689235186
 21
267.2315626209366
 31
0.0
  0
LINE
  5
192
330
1F
100
AcDbEntity
  8
0
100
AcDbLine
 10
193.0416685018157
 20
275.2668685083973
 30
0.0
 11
193.3416689235186
 21
275.29311317855
 31
0.0
  0
LINE
  5
193
330
1F
100
AcDbEntity
  8
0
100
AcDbLine
 10
193.3416689235186
 20
275.29311317855
 30
0.0
 11
193.3416689235186
 21
273.7931138640034
 31
0.0
  0
LINE
  5
194
330
1F
100
AcDbEntity
  8
0
100
AcDbLine
 10
193.3416689235186
 20
224.2931148307162
 30
0.0
 11
203.4416685301279
 21
224.2931148307162
 31
0.0
  0
LINE
  5
195
330
1F
100
AcDbEntity
  8
0
100
AcDbLine
 10
193.3416689235186
 20
224.2931148307162
 30
0.0
 11
193.3416689235186
 21
264.7931142514336
 31
0.0
  0
LINE
  5
197
330
1F
100
AcDbEntity
  8
0
100
AcDbLine
 10
193.3416689235186
 20
264.7931142514336
 30
0.0
 11
203.4416685301279
 21
264.7931142514336
 31
0.0
  0
LINE
  5
198
330
1F
100
AcDbEntity
  8
0
100
AcDbLine
 10
203.4416685301279
 20
224.2931148307162
 30
0.0
 11
203.4416685301279
 21
264.7931142514336
 31
0.0
  0
LINE
  5
199
330
1F
100
AcDbEntity
  8
0
100
AcDbLine
 10
203.4416685301279
 20
273.7931138640034
 30
0.0
 11
203.0416687439596
 21
273.7931138640034
 31
0.0
  0
LINE
  5
19A
330
1F
100
AcDbEntity
  8
0
100
AcDbLine
 10
203.0416687439596
 20
273.7931138640034
 30
0.0
 11
203.0416687439596
 21
264.7931142514336
 31
0.0
  0
LINE
  5
19B
330
1F
100
AcDbEntity
  8
0
100
AcDbLine
 10
193.7416687096869
 20
273.7931138640034
 30
0.0
 11
193.3416689235186
 21
273.7931138640034
 31
0.0
  0
LINE
  5
19C
330
1F
100
AcDbEntity
  8
0
100
AcDbLine
 10
193.7416687096869
 20
273.7931138640034
 30
0.0
 11
193.7416687096869
 21
264.7931142514336
 31
0.0
  0
LINE
  5
19D
330
1F
100
AcDbEntity
  8
0
100
AcDbLine
 10
193.3416689235186
 20
273.7931138640034
 30
0.0
 11
193.3416689235186
 21
267.2315626209366
 31
0.0
  0
CIRCLE
  5
19E
330
1F
100
AcDbEntity
  8
0
100
AcDbCircle
 10
206.9416687268233
 20
251.2931148176777
 30
0.0
 40
1.40000000000001
  0
LINE
  5
19F
330
1F
100
AcDbEntity
  8
0
100
AcDbLine
 10
206.3535929146623
 20
251.9444986050713
 30
0.0
 11
206.0835163529431
 21
251.1095176255095
 31
0.0
  0
LINE
  5
1A0
330
1F
100
AcDbEntity
  8
0
100
AcDbLine
 10
206.0835163529431
 20
251.1095176255095
 30
0.0
 11
206.6715920764422
 21
250.4581338530171
 31
0.0
  0
LINE
  5
1A1
330
1F
100
AcDbEntity
  8
0
100
AcDbLine
 10
206.6715920764422
 20
250.4581338530171
 30
0.0
 11
207.5297443616604
 21
250.6417310600865
 31
0.0
  0
LINE
  5
1A2
330
1F
100
AcDbEntity
  8
0
100
AcDbLine
 10
207.5297443616604
 20
250.6417310600865
 30
0.0
 11
207.7998213890409
 21
251.4767120396483
 31
0.0
  0
LINE
  5
1A3
330
1F
100
AcDbEntity
  8
0
100
AcDbLine
 10
207.7998213890409
 20
251.4767120396483
 30
0.0
 11
207.2117461312031
 21
252.1280958121407
 31
0.0
  0
LINE
  5
1A4
330
1F
100
AcDbEntity
  8
0
100
AcDbLine
 10
207.2117461312031
 20
252.1280958121407
 30
0.0
 11
206.3535929146623
 21
251.9444986050713
 31
0.0
  0
LINE
  5
1A5
330
1F
100
AcDbEntity
  8
0
  6
Continuous
 62
     8
370
     0
100
AcDbLine
 10
210.8416689980244
 20
226.8638256741452
 30
0.0
 11
210.8416689980244
 21
275.7224044566738
 31
0.0
  0
LINE
  5
1A6
330
1F
100
AcDbEntity
  8
0
  6
Continuous
 62
     8
370
     0
100
AcDbLine
 10
185.6416689652418
 20
275.7224044566738
 30
0.0
 11
185.6416689652418
 21
226.8638256741452
 31
0.0
  0
LINE
  5
1B1
330
1F
100
AcDbEntity
  8
0
  6
Continuous
 62
     8
370
     0
100
AcDbLine
 10
193.0416685018157
 20
232.3003350561249
 30
0.0
 11
193.3416689235186
 21
232.2740885233271
 31
0.0
  0
LINE
  5
1B3
330
1F
100
AcDbEntity
  8
0
  6
Continuous
 62
     8
370
     0
100
AcDbLine
 10
193.3416689235186
 20
270.3121430044758
 30
0.0
 11
193.0416685018157
 21
270.2858946090328
 31
0.0
  0
LINE
  5
1B4
330
1F
100
AcDbEntity
  8
0
100
AcDbLine
 10
203.4416685301279
 20
100.6617184213985
 30
0.0
 11
203.0416687439596
 21
100.6617184213985
 31
0.0
  0
LINE
  5
1B5
330
1F
100
AcDbEntity
  8
0
100
AcDbLine
 10
193.7416687096869
 20
100.6617184213985
 30
0.0
 11
193.3416689235186
 21
100.6617184213985
 31
0.0
  0
LINE
  5
1B6
330
1F
100
AcDbEntity
  8
0
100
AcDbLine
 10
210.6416684064483
 20
102.6617182835627
 30
0.0
 11
203.4416685301279
 21
102.6617182835627
 31
0.0
  0
LINE
  5
1B7
330
1F
100
AcDbEntity
  8
0
100
AcDbLine
 10
210.6416684064483
 20
101.5910074531723
 30
0.0
 11
210.6416684064483
 21
102.6617182835627
 31
0.0
  0
LINE
  5
1B8
330
1F
100
AcDbEntity
  8
0
100
AcDbLine
 10
210.6416684064483
 20
52.73242867064364
 30
0.0
 11
210.6416684064483
 21
51.66171690893061
 31
0.0
  0
LINE
  5
1B9
330
1F
100
AcDbEntity
  8
0
100
AcDbLine
 10
210.6416684064483
 20
51.66171690893061
 30
0.0
 11
203.4416685301279
 21
51.66171690893061
 31
0.0
  0
LINE
  5
1BA
330
1F
100
AcDbEntity
  8
0
100
AcDbLine
 10
203.4416685301279
 20
51.66171690893061
 30
0.0
 11
203.4416685301279
 21
102.6617182835627
 31
0.0
  0
CIRCLE
  5
1BB
330
1F
100
AcDbEntity
  8
0
100
AcDbCircle
 10
206.9416687268233
 20
77.16171830963978
 30
0.0
 40
1.599999999999994
  0
LINE
  5
1BC
330
1F
100
AcDbEntity
  8
0
100
AcDbLine
 10
211.9416689920639
 20
101.3617181636084
 30
0.0
 11
211.9416689920639
 21
52.96171656322367
 31
0.0
  0
ELLIPSE
  5
1BD
330
1F
100
AcDbEntity
  8
0
100
AcDbEllipse
 10
210.6416687268232
 20
52.96171830963978
 30
0.0
 11
1.300000000000011
 21
0.0
 31
0.0
210
0.0
220
0.0
230
1.0
 40
0.1763764014471823
 41
4.712388980384692
 42
6.283185307179586
  0
ELLIPSE
  5
1BE
330
1F
100
AcDbEntity
  8
0
100
AcDbEllipse
 10
210.6416687268233
 20
101.3617183096398
 30
0.0
 11
1.300000000000011
 21
0.0
 31
0.0
210
0.0
220
0.0
230
1.0
 40
0.1763764014471932
 41
0.0
 42
1.570796326794897
  0
ARC
  5
1BF
330
1F
100
AcDbEntity
  8
0
100
AcDbCircle
 10
210.6416687268233
 20
101.3617183096398
 30
0.0
 40
0.2999999999999972
100
AcDbArc
 50
48.18968510422316
 51
90.0
  0
ARC
  5
1C0
330
1F
100
AcDbEntity
  8
0
100
AcDbCircle
 10
210.6416687268233
 20
101.3617183096398
 30
0.0
 40
1.300000000000011
100
AcDbArc
 50
0.0
 51
90.0
  0
ARC
  5
1C1
330
1F
100
AcDbEntity
  8
0
100
AcDbCircle
 10
210.6416687268232
 20
52.96171830963978
 30
0.0
 40
1.300000000000011
100
AcDbArc
 50
270.0000000000008
 51
0.0
  0
ARC
  5
1C2
330
1F
100
AcDbEntity
  8
0
100
AcDbCircle
 10
210.6416687268232
 20
52.96171830963978
 30
0.0
 40
0.3000000000000227
100
AcDbArc
 50
270.0000000000008
 51
311.8103148957799
  0
LINE
  5
1C3
330
1F
100
AcDbEntity
  8
0
100
AcDbLine
 10
210.8416689980244
 20
51.67719549012072
 30
0.0
 11
210.8416689980244
 21
51.66171690893061
 31
0.0
  0
LINE
  5
1C4
330
1F
100
AcDbEntity
  8
0
100
AcDbLine
 10
210.8416689980244
 20
51.66171690893061
 30
0.0
 11
210.6416684064483
 21
51.66171690893061
 31
0.0
  0
LINE
  5
1C5
330
1F
100
AcDbEntity
  8
0
100
AcDbLine
 10
210.8416689980244
 20
102.6617182835627
 30
0.0
 11
210.6416684064483
 21
102.6617182835627
 31
0.0
  0
LINE
  5
1C6
330
1F
100
AcDbEntity
  8
0
100
AcDbLine
 10
210.8416689980244
 20
102.6462415650178
 30
0.0
 11
210.8416689980244
 21
102.6617182835627
 31
0.0
  0
LINE
  5
1C7
330
1F
100
AcDbEntity
  8
0
100
AcDbLine
 10
185.8416686254953
 20
51.66171690893061
 30
0.0
 11
193.0416685018157
 21
51.66171690893061
 31
0.0
  0
LINE
  5
1C8
330
1F
100
AcDbEntity
  8
0
100
AcDbLine
 10
185.8416686254953
 20
52.73242867064364
 30
0.0
 11
185.8416686254953
 21
51.66171690893061
 31
0.0
  0
LINE
  5
1C9
330
1F
100
AcDbEntity
  8
0
100
AcDbLine
 10
185.8416686254953
 20
101.5910074531723
 30
0.0
 11
185.8416686254953
 21
102.6617182835627
 31
0.0
  0
LINE
  5
1CA
330
1F
100
AcDbEntity
  8
0
100
AcDbLine
 10
185.8416686254953
 20
102.6617182835627
 30
0.0
 11
193.0416685018157
 21
102.6617182835627
 31
0.0
  0
LINE
  5
1CB
330
1F
100
AcDbEntity
  8
0
100
AcDbLine
 10
193.0416685018157
 20
102.6617182835627
 30
0.0
 11
193.0416685018157
 21
51.66171690893061
 31
0.0
  0
LINE
  5
1CC
330
1F
100
AcDbEntity
  8
0
100
AcDbLine
 10
184.5416689712023
 20
52.96171656322367
 30
0.0
 11
184.5416689712023
 21
101.3617181636084
 31
0.0
  0
ELLIPSE
  5
1CD
330
1F
100
AcDbEntity
  8
0
100
AcDbEllipse
 10
185.8416687268232
 20
52.96171830963976
 30
0.0
 11
1.299999999999983
 21
0.0
 31
0.0
210
0.0
220
0.0
230
1.0
 40
0.1763764014471916
 41
3.141592653589793
 42
4.712388980384692
  0
ELLIPSE
  5
1CE
330
1F
100
AcDbEntity
  8
0
100
AcDbEllipse
 10
185.8416687268232
 20
101.3617183096398
 30
0.0
 11
1.299999999999983
 21
0.0
 31
0.0
210
0.0
220
0.0
230
1.0
 40
0.1763764014471971
 41
1.570796326794897
 42
3.141592653589793
  0
ARC
  5
1CF
330
1F
100
AcDbEntity
  8
0
100
AcDbCircle
 10
185.8416687268232
 20
101.3617183096398
 30
0.0
 40
0.3000000000000121
100
AcDbArc
 50
90.0
 51
131.8103148957809
  0
ARC
  5
1D0
330
1F
100
AcDbEntity
  8
0
100
AcDbCircle
 10
185.8416687268232
 20
101.3617183096398
 30
0.0
 40
1.300000000000011
100
AcDbArc
 50
90.0
 51
180.0
  0
ARC
  5
1D1
330
1F
100
AcDbEntity
  8
0
100
AcDbCircle
 10
185.8416687268232
 20
52.96171830963976
 30
0.0
 40
0.3000000000000015
100
AcDbArc
 50
228.1896851042181
 51
270.0000000000008
  0
ARC
  5
1D2
330
1F
100
AcDbEntity
  8
0
100
AcDbCircle
 10
185.8416687268232
 20
52.96171830963976
 30
0.0
 40
1.299999999999997
100
AcDbArc
 50
180.0
 51
270.0000000000008
  0
LINE
  5
1D3
330
1F
100
AcDbEntity
  8
0
100
AcDbLine
 10
185.6416689652418
 20
51.66171690893061
 30
0.0
 11
185.8416686254953
 21
51.66171690893061
 31
0.0
  0
LINE
  5
1D4
330
1F
100
AcDbEntity
  8
0
100
AcDbLine
 10
185.6416689652418
 20
51.67719549012072
 30
0.0
 11
185.6416689652418
 21
51.66171690893061
 31
0.0
  0
LINE
  5
1D5
330
1F
100
AcDbEntity
  8
0
100
AcDbLine
 10
185.6416689652418
 20
102.6462415650178
 30
0.0
 11
185.6416689652418
 21
102.6617182835627
 31
0.0
  0
LINE
  5
1D6
330
1F
100
AcDbEntity
  8
0
100
AcDbLine
 10
185.6416689652418
 20
102.6617182835627
 30
0.0
 11
185.8416686254953
 21
102.6617182835627
 31
0.0
  0
LINE
  5
1D7
330
1F
100
AcDbEntity
  8
0
100
AcDbLine
 10
168.3916693973755
 20
107.1617183226783
 30
0.0
 11
191.8916685927128
 21
107.1617183226783
 31
0.0
  0
LINE
  5
1D8
330
1F
100
AcDbEntity
  8
0
100
AcDbLine
 10
191.8916685927128
 20
107.1617183226783
 30
0.0
 11
191.8916685927128
 21
104.1617182966013
 31
0.0
  0
LINE
  5
1D9
330
1F
100
AcDbEntity
  8
0
100
AcDbLine
 10
168.3916693973755
 20
104.1617182966013
 30
0.0
 11
191.8916685927128
 21
104.1617182966013
 31
0.0
  0
LINE
  5
1DA
330
1F
100
AcDbEntity
  8
0
100
AcDbLine
 10
168.3916693973755
 20
107.1617183226783
 30
0.0
 11
168.3916693973755
 21
104.1617182966013
 31
0.0
  0
LINE
  5
1DB
330
1F
100
AcDbEntity
  8
0
100
AcDbLine
 10
228.391668056271
 20
107.1617183226783
 30
0.0
 11
228.391668056271
 21
104.1617182966013
 31
0.0
  0
LINE
  5
1DC
330
1F
100
AcDbEntity
  8
0
100
AcDbLine
 10
204.8916688609337
 20
104.1617182966013
 30
0.0
 11
228.391668056271
 21
104.1617182966013
 31
0.0
  0
LINE
  5
1DD
330
1F
100
AcDbEntity
  8
0
100
AcDbLine
 10
204.8916688609337
 20
107.1617183226783
 30
0.0
 11
228.391668056271
 21
107.1617183226783
 31
0.0
  0
LINE
  5
1DE
330
1F
100
AcDbEntity
  8
0
100
AcDbLine
 10
204.8916688609337
 20
107.1617183226783
 30
0.0
 11
204.8916688609337
 21
104.1617182966013
 31
0.0
  0
LINE
  5
1DF
330
1F
100
AcDbEntity
  8
0
100
AcDbLine
 10
191.8916685927128
 20
104.1617182966013
 30
0.0
 11
193.3416689235186
 21
104.1617182966013
 31
0.0
  0
LINE
  5
1E0
330
1F
100
AcDbEntity
  8
0
100
AcDbLine
 10
203.4416685301279
 20
104.1617182966013
 30
0.0
 11
204.8916688609337
 21
104.1617182966013
 31
0.0
  0
LINE
  5
1E1
330
1F
100
AcDbEntity
  8
0
100
AcDbLine
 10
191.8916685927128
 20
107.1617183226783
 30
0.0
 11
204.8916688609337
 21
107.1617183226783
 31
0.0
  0
LINE
  5
1E2
330
1F
100
AcDbEntity
  8
0
100
AcDbLine
 10
193.0416685018157
 20
101.1354715048958
 30
0.0
 11
193.3416689235186
 21
101.1617185033549
 31
0.0
  0
LINE
  5
1E3
330
1F
100
AcDbEntity
  8
0
100
AcDbLine
 10
193.3416689235186
 20
101.1617185033549
 30
0.0
 11
193.3416689235186
 21
96.18074460399039
 31
0.0
  0
LINE
  5
1E4
330
1F
100
AcDbEntity
  8
0
100
AcDbLine
 10
193.0416685018157
 20
79.66171777319796
 30
0.0
 11
193.3416689235186
 21
79.66171777319796
 31
0.0
  0
LINE
  5
1E5
330
1F
100
AcDbEntity
  8
0
100
AcDbLine
 10
193.3416689235186
 20
79.66171777319796
 30
0.0
 11
193.3416689235186
 21
96.18074460399039
 31
0.0
  0
LINE
  5
1E6
330
1F
100
AcDbEntity
  8
0
100
AcDbLine
 10
193.3416689235186
 20
74.66171881627925
 30
0.0
 11
193.0416685018157
 21
74.66171881627925
 31
0.0
  0
LINE
  5
1E7
330
1F
100
AcDbEntity
  8
0
100
AcDbLine
 10
193.3416689235186
 20
58.14269012284166
 30
0.0
 11
193.3416689235186
 21
74.66171881627925
 31
0.0
  0
LINE
  5
1E8
330
1F
100
AcDbEntity
  8
0
100
AcDbLine
 10
193.3416689235186
 20
53.16171994876749
 30
0.0
 11
193.0416685018157
 21
53.18796461892016
 31
0.0
  0
LINE
  5
1E9
330
1F
100
AcDbEntity
  8
0
100
AcDbLine
 10
193.3416689235186
 20
58.14269012284166
 30
0.0
 11
193.3416689235186
 21
53.16171994876749
 31
0.0
  0
LINE
  5
1EA
330
1F
100
AcDbEntity
  8
0
100
AcDbLine
 10
193.3416689235186
 20
74.66171881627925
 30
0.0
 11
193.3416689235186
 21
79.66171777319796
 31
0.0
  0
LINE
  5
1EB
330
1F
100
AcDbEntity
  8
0
100
AcDbLine
 10
193.3416689235186
 20
104.1617182966013
 30
0.0
 11
203.4416685301279
 21
104.1617182966013
 31
0.0
  0
LINE
  5
1EC
330
1F
100
AcDbEntity
  8
0
100
AcDbLine
 10
203.4416685301279
 20
102.6617182835627
 30
0.0
 11
203.4416685301279
 21
104.1617182966013
 31
0.0
  0
LINE
  5
1ED
330
1F
100
AcDbEntity
  8
0
100
AcDbLine
 10
193.3416689235186
 20
101.1617185033549
 30
0.0
 11
193.3416689235186
 21
104.1617182966013
 31
0.0
  0
LINE
  5
1EE
330
1F
100
AcDbEntity
  8
0
100
AcDbLine
 10
203.0416687439596
 20
63.66171887588389
 30
0.0
 11
193.7416687096869
 21
63.66171887588389
 31
0.0
  0
LINE
  5
1EF
330
1F
100
AcDbEntity
  8
0
100
AcDbLine
 10
203.0416687439596
 20
100.6617184213985
 30
0.0
 11
203.0416687439596
 21
96.16171861511357
 31
0.0
  0
LINE
  5
1F0
330
1F
100
AcDbEntity
  8
0
100
AcDbLine
 10
203.0416687439596
 20
96.16171861511357
 30
0.0
 11
203.0416687439596
 21
60.66171652150042
 31
0.0
  0
LINE
  5
1F1
330
1F
100
AcDbEntity
  8
0
100
AcDbLine
 10
203.4416685301279
 20
54.66171926331408
 30
0.0
 11
203.0416687439596
 21
54.66171926331408
 31
0.0
  0
LINE
  5
1F2
330
1F
100
AcDbEntity
  8
0
100
AcDbLine
 10
203.0416687439596
 20
60.66171652150042
 30
0.0
 11
203.0416687439596
 21
54.66171926331408
 31
0.0
  0
LINE
  5
1F3
330
1F
100
AcDbEntity
  8
0
100
AcDbLine
 10
193.7416687096869
 20
100.6617184213985
 30
0.0
 11
193.7416687096869
 21
96.16171861511357
 31
0.0
  0
LINE
  5
1F4
330
1F
100
AcDbEntity
  8
0
100
AcDbLine
 10
193.7416687096869
 20
96.16171861511357
 30
0.0
 11
193.7416687096869
 21
60.66171652150042
 31
0.0
  0
LINE
  5
1F5
330
1F
100
AcDbEntity
  8
0
100
AcDbLine
 10
193.7416687096869
 20
54.66171926331408
 30
0.0
 11
193.3416689235186
 21
54.66171926331408
 31
0.0
  0
LINE
  5
1F6
330
1F
100
AcDbEntity
  8
0
100
AcDbLine
 10
193.7416687096869
 20
60.66171652150042
 30
0.0
 11
193.7416687096869
 21
54.66171926331408
 31
0.0
  0
LINE
  5
1F7
330
1F
100
AcDbEntity
  8
0
100
AcDbLine
 10
207.3952287855958
 20
76.41044086289294
 30
0.0
 11
207.8190736893033
 21
77.17887511920817
 31
0.0
  0
LINE
  5
1F8
330
1F
100
AcDbEntity
  8
0
100
AcDbLine
 10
207.8190736893033
 20
77.17887511920817
 30
0.0
 11
207.3655130762075
 21
77.93015068840869
 31
0.0
  0
LINE
  5
1F9
330
1F
100
AcDbEntity
  8
0
100
AcDbLine
 10
207.3655130762075
 20
77.93015068840869
 30
0.0
 11
206.4881084907269
 21
77.91299572658427
 31
0.0
  0
LINE
  5
1FA
330
1F
100
AcDbEntity
  8
0
100
AcDbLine
 10
206.4881084907269
 20
77.91299572658427
 30
0.0
 11
206.0642640526806
 21
77.14456147026904
 31
0.0
  0
LINE
  5
1FB
330
1F
100
AcDbEntity
  8
0
100
AcDbLine
 10
206.0642640526806
 20
77.14456147026904
 30
0.0
 11
206.5178242001151
 21
76.39328590106852
 31
0.0
  0
LINE
  5
1FC
330
1F
100
AcDbEntity
  8
0
100
AcDbLine
 10
206.5178242001151
 20
76.39328590106852
 30
0.0
 11
207.3952287855958
 21
76.41044086289294
 31
0.0
  0
CIRCLE
  5
1FD
330
1F
100
AcDbEntity
  8
0
100
AcDbCircle
 10
206.9416687268232
 20
77.16171830963978
 30
0.0
 40
1.399999999999988
  0
LINE
  5
1FE
330
1F
100
AcDbEntity
  8
0
  6
Continuous
 62
     8
370
     0
100
AcDbLine
 10
210.6416684064483
 20
52.73242867064364
 30
0.0
 11
210.6416684064483
 21
101.5910074531723
 31
0.0
  0
LINE
  5
1FF
330
1F
100
AcDbEntity
  8
0
  6
Continuous
 62
     8
370
     0
100
AcDbLine
 10
185.8416686254953
 20
101.5910074531723
 30
0.0
 11
185.8416686254953
 21
52.73242867064364
 31
0.0
  0
LINE
  5
200
330
1F
100
AcDbEntity
  8
0
  6
Continuous
 62
     8
370
     0
100
AcDbLine
 10
193.3416689235186
 20
96.18074460399039
 30
0.0
 11
193.0416685018157
 21
96.15449807119258
 31
0.0
  0
LINE
  5
201
330
1F
100
AcDbEntity
  8
0
  6
Continuous
 62
     8
370
     0
100
AcDbLine
 10
193.0416685018157
 20
58.16893851828463
 30
0.0
 11
193.3416689235186
 21
58.14269012284166
 31
0.0
  0
LINE
  5
202
330
1F
100
AcDbEntity
  8
0
  6
Continuous
 62
     8
370
     0
100
AcDbLine
 10
193.7416687096869
 20
69.66171985936053
 30
0.0
 11
203.0416687439596
 21
69.66171985936053
 31
0.0
  0
LINE
  5
203
330
1F
100
AcDbEntity
  8
0
  6
Continuous
 62
     8
370
     0
100
AcDbLine
 10
203.4416685301279
 20
96.16171861511357
 30
0.0
 11
203.0416687439596
 21
96.16171861511357
 31
0.0
  0
LINE
  5
204
330
1F
100
AcDbEntity
  8
0
  6
Continuous
 62
     8
370
     0
100
AcDbLine
 10
203.4416685301279
 20
60.66171652150042
 30
0.0
 11
203.0416687439596
 21
60.66171652150042
 31
0.0
  0
LINE
  5
205
330
1F
100
AcDbEntity
  8
0
  6
Continuous
 62
     8
370
     0
100
AcDbLine
 10
193.7416687096869
 20
96.16171861511357
 30
0.0
 11
193.3416689235186
 21
96.16171861511357
 31
0.0
  0
LINE
  5
206
330
1F
100
AcDbEntity
  8
0
  6
Continuous
 62
     8
370
     0
100
AcDbLine
 10
193.7416687096869
 20
60.66171652150042
 30
0.0
 11
193.3416689235186
 21
60.66171652150042
 31
0.0
  0
LINE
  5
207
330
1F
100
AcDbEntity
  8
0
100
AcDbLine
 10
266.8156449697013
 20
36.4557881246111
 30
0.0
 11
301.2689181913638
 21
56.34523939660262
 31
0.0
  0
LINE
  5
208
330
1F
100
AcDbEntity
  8
0
100
AcDbLine
 10
301.7628879816262
 20
57.29643509849932
 30
0.0
 11
301.7628879816262
 21
84.8815040371796
 31
0.0
  0
LINE
  5
209
330
1F
100
AcDbEntity
  8
0
100
AcDbLine
 10
247.4026708854149
 20
75.24788824026913
 30
0.0
 11
247.4026708854149
 21
47.66281930158888
 31
0.0
  0
LINE
  5
20A
330
1F
100
AcDbEntity
  8
0
100
AcDbLine
 10
282.3913460604234
 20
96.06462967269047
 30
0.0
 11
247.9380702045829
 21
76.17517688002035
 31
0.0
  0
LINE
  5
20B
330
1F
100
AcDbEntity
  8
0
100
AcDbLine
 10
253.5817077344862
 20
48.0609372727587
 30
0.0
 11
254.9707256157916
 21
46.95153009383594
 31
0.0
  0
LINE
  5
20C
330
1F
100
AcDbEntity
  8
0
100
AcDbLine
 10
286.8326123691073
 20
89.89074639012325
 30
0.0
 11
285.1774266027436
 21
90.53875288722523
 31
0.0
  0
LINE
  5
20D
330
1F
100
AcDbEntity
  8
0
100
AcDbLine
 10
256.1402163682719
 20
46.8446239902872
 30
0.0
 11
256.4230589295447
 21
46.68134245520962
 31
0.0
  0
LINE
  5
20E
330
1F
100
AcDbEntity
  8
0
100
AcDbLine
 10
287.0856449254096
 20
88.35977114995062
 30
0.0
 11
286.8028023641368
 21
88.5230526850282
 31
0.0
  0
LINE
  5
20F
330
1F
100
AcDbEntity
  8
0
100
AcDbLine
 10
282.1346085327192
 20
76.99527190691042
 30
0.0
 11
282.1346085327192
 21
77.19747442690422
 31
0.0
  0
LINE
  5
210
330
1F
100
AcDbEntity
  8
0
100
AcDbLine
 10
279.334608664406
 20
77.19747461698906
 30
0.0
 11
279.334608664406
 21
76.99527209699524
 31
0.0
  0
ELLIPSE
  5
211
330
1F
100
AcDbEntity
  8
0
100
AcDbEllipse
 10
266.2389194928324
 20
37.55626955228572
 30
0.0
 11
1.299909796395582
 21
0.02594978831169216
 31
0.0
210
0.0
220
0.0
230
1.0
 40
0.5901430090539695
 41
3.915210478241214
 42
5.486006805036094
  0
LINE
  5
212
330
1F
100
AcDbEntity
  8
0
100
AcDbLine
 10
265.3196794602996
 20
37.00168790851396
 30
0.0
 11
265.3196794602996
 21
37.02560446644233
 31
0.0
  0
LINE
  5
213
330
1F
100
AcDbEntity
  8
0
100
AcDbLine
 10
265.3196794602996
 20
64.62468265250435
 30
0.0
 11
265.3196794602996
 21
64.64859921043272
 31
0.0
  0
ELLIPSE
  5
214
330
1F
100
AcDbEntity
  8
0
100
AcDbEllipse
 10
266.2389194928324
 20
64.9920408316469
 30
0.0
 11
1.297548523005901
 21
-0.170078157291158
 31
0.0
210
0.0
220
0.0
230
1.0
 40
0.4691883323544579
 41
3.988413036234387
 42
5.559209363029294
  0
LINE
  5
215
330
1F
100
AcDbEntity
  8
0
100
AcDbLine
 10
266.026787674479
 20
65.05680409359324
 30
0.0
 11
265.3196794602996
 21
64.64859921043272
 31
0.0
  0
ELLIPSE
  5
216
330
1F
100
AcDbEntity
  8
0
100
AcDbEllipse
 10
266.2389194928324
 20
64.9920408316469
 30
0.0
 11
0.2996122897074542
 21
-0.1342898869813069
 31
0.0
210
0.0
220
0.0
230
1.0
 40
0.113539145053355
 41
3.97783658587416
 42
5.548632912669039
  0
LINE
  5
217
330
1F
100
AcDbEntity
  8
0
100
AcDbLine
 10
266.4510503639353
 20
64.86957851019562
 30
0.0
 11
267.1581572610257
 21
64.4613743873744
 31
0.0
  0
ELLIPSE
  5
218
330
1F
100
AcDbEntity
  8
0
100
AcDbEllipse
 10
266.2389194928324
 20
64.99204083164692
 30
0.0
 11
-0.7960360106885108
 21
1.03869553566453
 31
0.0
210
0.0
220
0.0
230
1.0
 40
0.4692964401212857
 41
3.865627603389272
 42
5.43642393018414
  0
ELLIPSE
  5
219
330
1F
100
AcDbEntity
  8
0
100
AcDbEllipse
 10
300.4628877022614
 20
84.74911713775641
 30
0.0
 11
-0.4370939218823651
 21
1.237325507437902
 31
0.0
210
0.0
220
0.0
230
1.0
 40
0.6665699704011366
 41
4.050478901546258
 42
5.621275228341122
  0
ELLIPSE
  5
21A
330
1F
100
AcDbEntity
  8
0
100
AcDbEllipse
 10
266.2389194928324
 20
64.99204083164692
 30
0.0
 11
0.2660991472299088
 21
-0.1923362163121141
 31
0.0
210
0.0
220
0.0
230
1.0
 40
0.1136766419558215
 41
0.7345702535379317
 42
2.305366580332369
  0
LINE
  5
21B
330
1F
100
AcDbEntity
  8
0
100
AcDbLine
 10
266.0767870077031
 20
65.14340699975352
 30
0.0
 11
266.0767870077031
 21
65.95994642455497
 31
0.0
  0
LINE
  5
21C
330
1F
100
AcDbEntity
  8
0
100
AcDbLine
 10
301.3821262728253
 20
86.34128495332116
 30
0.0
 11
296.2909575357369
 21
89.2803541053964
 31
0.0
  0
LINE
  5
21D
330
1F
100
AcDbEntity
  8
0
100
AcDbLine
 10
300.6250193839663
 20
85.90421644964758
 30
0.0
 11
301.3821262728253
 21
86.34128495332116
 31
0.0
  0
LINE
  5
21E
330
1F
100
AcDbEntity
  8
0
100
AcDbLine
 10
266.0767870077031
 20
65.95994642455497
 30
0.0
 11
265.3196794602996
 21
65.5228775407117
 31
0.0
  0
LINE
  5
21F
330
1F
100
AcDbEntity
  8
0
100
AcDbLine
 10
265.3196794602996
 20
65.5228775407117
 30
0.0
 11
260.2285107232112
 21
68.46194669278694
 31
0.0
  0
LINE
  5
220
330
1F
100
AcDbEntity
  8
0
100
AcDbLine
 10
260.2285107232112
 20
68.46194669278694
 30
0.0
 11
296.2909575357369
 21
89.2803541053964
 31
0.0
  0
LWPOLYLINE
  5
221
330
1F
100
AcDbEntity
  8
0
100
AcDbPolyline
 90
       25
 70
   128
 43
0.0
 10
281.8659796668344
 20
76.78930973386464
 10
281.5346086314962
 20
76.64252280957707
 10
281.1487186719755
 20
76.5502487919053
 10
280.7346087631987
 20
76.51877606706836
 10
280.3204981958775
 20
76.55024917207497
 10
279.9346082363568
 20
76.64252318974674
 10
279.6032385181076
 20
76.7893101140343
 10
279.3489678981304
 20
76.98060616070651
 10
279.1891272922418
 20
77.20337569255497
 10
279.1346086973317
 20
77.44243644442949
 10
279.1891269629696
 20
77.68149700621915
 10
279.3489675688581
 20
77.90426653806762
 10
279.6032375302908
 20
78.09556296490949
 10
279.934608565629
 20
78.24234988919706
 10
280.3204985251497
 20
78.33462390686883
 10
280.7346084339265
 20
78.36609663170577
 10
281.1487186719755
 20
78.33462371678398
 10
281.5346086314962
 20
78.24234969911222
 10
281.86597900829
 20
78.095562394655
 10
282.1202489697226
 20
77.90426672815245
 10
282.2800895756112
 20
77.681497196304
 10
282.3346084997936
 20
77.44243625434466
 10
282.2800902341557
 20
77.20337569255497
 10
282.1202496282672
 20
76.98060616070651
 10
281.8659796668344
 20
76.78930973386464
  0
LINE
  5
222
330
1F
100
AcDbEntity
  8
0
100
AcDbLine
 10
265.3196794602996
 20
65.5228775407117
 30
0.0
 11
265.3196794602996
 21
64.70633811591027
 31
0.0
  0
LINE
  5
223
330
1F
100
AcDbEntity
  8
0
100
AcDbLine
 10
266.0767870077031
 20
65.14340699975352
 30
0.0
 11
265.3196794602996
 21
64.70633811591027
 31
0.0
  0
LINE
  5
224
330
1F
100
AcDbEntity
  8
0
100
AcDbLine
 10
260.2285107232112
 20
68.46194669278694
 30
0.0
 11
260.2285107232112
 21
67.6454072679855
 31
0.0
  0
LINE
  5
225
330
1F
100
AcDbEntity
  8
0
100
AcDbLine
 10
265.3196794602996
 20
64.70633811591027
 30
0.0
 11
260.2285107232112
 21
67.6454072679855
 31
0.0
  0
LINE
  5
226
330
1F
100
AcDbEntity
  8
0
100
AcDbLine
 10
260.2285107232112
 20
39.96467361851757
 30
0.0
 11
265.3196794602996
 21
37.02560446644233
 31
0.0
  0
LINE
  5
227
330
1F
100
AcDbEntity
  8
0
100
AcDbLine
 10
260.2285107232112
 20
39.96467361851757
 30
0.0
 11
260.2285107232112
 21
67.56375180457958
 31
0.0
  0
LINE
  5
228
330
1F
100
AcDbEntity
  8
0
100
AcDbLine
 10
260.2285107232112
 20
67.56375180457958
 30
0.0
 11
265.3196794602996
 21
64.62468265250435
 31
0.0
  0
LINE
  5
229
330
1F
100
AcDbEntity
  8
0
100
AcDbLine
 10
266.0060738155249
 20
65.04484539190894
 30
0.0
 11
265.9560659212222
 21
65.07371433479715
 31
0.0
  0
LINE
  5
22A
330
1F
100
AcDbEntity
  8
0
100
AcDbLine
 10
260.2992331350125
 20
67.60457898388151
 30
0.0
 11
260.2285107232112
 21
67.56375180457958
 31
0.0
  0
LINE
  5
22B
330
1F
100
AcDbEntity
  8
0
100
AcDbLine
 10
279.2993949724752
 20
77.03416729196877
 30
0.0
 11
279.3346083351338
 21
77.07306187884312
 31
0.0
  0
LINE
  5
22C
330
1F
100
AcDbEntity
  8
0
100
AcDbLine
 10
282.1346078741747
 20
77.07306187884312
 30
0.0
 11
282.1698215661056
 21
77.03416748205358
 31
0.0
  0
SPLINE
  5
22D
330
1F
100
AcDbEntity
  8
0
100
AcDbSpline
210
0.0
220
0.0
230
1.0
 70
     8
 71
     3
 72
    12
 73
     8
 74
     0
 42
0.000000001
 43
0.00000001
 40
0.0
 40
0.0
 40
0.0
 40
0.0
 40
0.1233502867434197
 40
0.2484745480766725
 40
0.4971529080409198
 40
0.7478634328774595
 40
1.0
 40
1.0
 40
1.0
 40
1.0
 10
266.2182087822479
 20
36.48283740941218
 30
0.0
 10
266.2694102128769
 20
36.45730928396462
 30
0.0
 10
266.3725494326738
 20
36.40588589775863
 30
0.0
 10
266.5811465140682
 20
36.37084228333619
 30
0.0
 10
266.8268118975056
 20
36.43039914553528
 30
0.0
 10
267.0598249579187
 20
36.65750206580187
 30
0.0
 10
267.1253179153731
 20
36.90267165101272
 30
0.0
 10
267.1581572610257
 20
37.02560408627267
 30
0.0
  0
LINE
  5
22E
330
1F
100
AcDbEntity
  8
0
100
AcDbLine
 10
266.2182087822479
 20
36.48283740941219
 30
0.0
 11
266.2182087822479
 21
36.81476425216493
 31
0.0
  0
ELLIPSE
  5
22F
330
1F
100
AcDbEntity
  8
0
100
AcDbEllipse
 10
300.6043090584986
 20
57.23170504721295
 30
0.0
 11
-0.692604430508311
 21
0.8673806710315333
 31
0.0
210
0.0
220
0.0
230
1.0
 40
0.4488690511412463
 41
3.073731079360198
 42
3.859210506819733
  0
LINE
  5
230
330
1F
100
AcDbEntity
  8
0
100
AcDbLine
 10
266.2182087822479
 20
36.48283740941219
 30
0.0
 11
265.4611012348444
 21
36.04576852556892
 31
0.0
  0
LINE
  5
231
330
1F
100
AcDbEntity
  8
0
100
AcDbLine
 10
265.4611012348444
 20
36.04576852556892
 30
0.0
 11
265.4611012348444
 21
36.86230795037037
 31
0.0
  0
LINE
  5
232
330
1F
100
AcDbEntity
  8
0
100
AcDbLine
 10
265.5318183782896
 20
36.90313208831508
 30
0.0
 11
265.4611012348444
 21
36.86230795037037
 31
0.0
  0
LINE
  5
233
330
1F
100
AcDbEntity
  8
0
100
AcDbLine
 10
265.4611012348444
 20
36.86230795037037
 30
0.0
 11
260.2285107232112
 21
39.88301815511162
 31
0.0
  0
LINE
  5
234
330
1F
100
AcDbEntity
  8
0
100
AcDbLine
 10
260.2992331350125
 20
39.92384533441356
 30
0.0
 11
260.2285107232112
 21
39.88301815511162
 31
0.0
  0
LINE
  5
235
330
1F
100
AcDbEntity
  8
0
100
AcDbLine
 10
265.4611012348444
 20
36.04576852556892
 30
0.0
 11
260.2285107232112
 21
39.06647873031019
 31
0.0
  0
LINE
  5
236
330
1F
100
AcDbEntity
  8
0
100
AcDbLine
 10
260.2285107232112
 20
39.06647873031019
 30
0.0
 11
260.2285107232112
 21
39.88301815511162
 31
0.0
  0
ELLIPSE
  5
237
330
1F
100
AcDbEntity
  8
0
100
AcDbEllipse
 10
300.4628877022614
 20
57.31334585839522
 30
0.0
 11
1.29992467140238
 21
-0.02480699216475557
 31
0.0
210
0.0
220
0.0
230
1.0
 40
0.5641391168179548
 41
5.508552424522899
 42
6.293950587920321
  0
ELLIPSE
  5
238
330
1F
100
AcDbEntity
  8
0
100
AcDbEllipse
 10
300.4628877022614
 20
84.7491171377564
 30
0.0
 11
1.29011932750393
 21
0.240024357652544
 31
0.0
210
0.0
220
0.0
230
1.0
 40
0.6664964221650109
 41
5.374416443502577
 42
6.945212770297436
  0
LINE
  5
239
330
1F
100
AcDbEntity
  8
0
100
AcDbLine
 10
301.1548386908821
 20
85.3357962948767
 30
0.0
 11
301.3821262728253
 21
85.46700662304215
 31
0.0
  0
LINE
  5
23A
330
1F
100
AcDbEntity
  8
0
100
AcDbLine
 10
301.3821262728253
 20
86.34128495332116
 30
0.0
 11
301.3821262728253
 21
85.52474552851973
 31
0.0
  0
LINE
  5
23B
330
1F
100
AcDbEntity
  8
0
100
AcDbLine
 10
301.1299690868103
 20
85.37917828351921
 30
0.0
 11
301.3821262728253
 21
85.52474552851973
 31
0.0
  0
LINE
  5
23C
330
1F
100
AcDbEntity
  8
0
100
AcDbLine
 10
301.3114045195685
 20
85.48391686424608
 30
0.0
 11
301.3614124138712
 21
85.45504792135786
 31
0.0
  0
LINE
  5
23D
330
1F
100
AcDbEntity
  8
0
100
AcDbLine
 10
301.5235480473701
 20
56.86417593817838
 30
0.0
 11
301.5235480473701
 21
56.87539884952677
 31
0.0
  0
LINE
  5
23E
330
1F
100
AcDbEntity
  8
0
100
AcDbLine
 10
301.382153108514
 20
56.78255037742567
 30
0.0
 11
301.3887937066963
 21
56.78638391315726
 31
0.0
  0
LINE
  5
23F
330
1F
100
AcDbEntity
  8
0
100
AcDbLine
 10
301.4161921216788
 20
56.8022006814572
 30
0.0
 11
301.5235480473701
 21
56.86417593817838
 31
0.0
  0
LINE
  5
240
330
1F
100
AcDbEntity
  8
0
100
AcDbLine
 10
247.7834314417629
 20
75.64633803789741
 30
0.0
 11
247.7834314417629
 21
74.82979861309597
 31
0.0
  0
LINE
  5
241
330
1F
100
AcDbEntity
  8
0
100
AcDbLine
 10
247.7834314417629
 20
75.64633803789741
 30
0.0
 11
252.8746001788514
 21
72.70726888582219
 31
0.0
  0
LINE
  5
242
330
1F
100
AcDbEntity
  8
0
100
AcDbLine
 10
252.8746001788514
 20
72.70726888582219
 30
0.0
 11
252.8746001788514
 21
71.89072946102075
 31
0.0
  0
LINE
  5
243
330
1F
100
AcDbEntity
  8
0
100
AcDbLine
 10
247.7834314417629
 20
74.82979861309597
 30
0.0
 11
252.8746001788514
 21
71.89072946102075
 31
0.0
  0
LINE
  5
244
330
1F
100
AcDbEntity
  8
0
100
AcDbLine
 10
288.9370469913771
 20
93.52567629843165
 30
0.0
 11
288.9370469913771
 21
92.70913687363021
 31
0.0
  0
LINE
  5
245
330
1F
100
AcDbEntity
  8
0
100
AcDbLine
 10
288.9370469913771
 20
92.70913687363021
 30
0.0
 11
252.8746001788514
 21
71.89072946102075
 31
0.0
  0
LINE
  5
246
330
1F
100
AcDbEntity
  8
0
100
AcDbLine
 10
288.9370469913771
 20
93.52567629843165
 30
0.0
 11
252.8746001788514
 21
72.70726888582219
 31
0.0
  0
LINE
  5
247
330
1F
100
AcDbEntity
  8
0
100
AcDbLine
 10
248.5405389891664
 20
76.08340692174067
 30
0.0
 11
247.7834314417629
 21
75.64633803789741
 31
0.0
  0
LINE
  5
248
330
1F
100
AcDbEntity
  8
0
100
AcDbLine
 10
283.0887713654296
 20
96.02767694683327
 30
0.0
 11
283.8458782542887
 21
96.46474545050687
 31
0.0
  0
LINE
  5
249
330
1F
100
AcDbEntity
  8
0
100
AcDbLine
 10
283.8458782542887
 20
96.46474545050687
 30
0.0
 11
288.9370469913771
 21
93.52567629843165
 31
0.0
  0
LINE
  5
24A
330
1F
100
AcDbEntity
  8
0
100
AcDbLine
 10
252.8746001788514
 20
44.20999581155282
 30
0.0
 11
247.7834314417629
 21
47.14906496362803
 31
0.0
  0
LINE
  5
24B
330
1F
100
AcDbEntity
  8
0
100
AcDbLine
 10
252.8746001788514
 20
71.80907399761483
 30
0.0
 11
247.7834314417629
 21
74.74814314969005
 31
0.0
  0
LINE
  5
24C
330
1F
100
AcDbEntity
  8
0
100
AcDbLine
 10
252.8746001788514
 20
71.80907399761483
 30
0.0
 11
252.8746001788514
 21
44.20999581155282
 31
0.0
  0
LWPOLYLINE
  5
24D
330
1F
100
AcDbEntity
  8
0
100
AcDbPolyline
 90
       25
 70
   128
 43
0.0
 10
249.4804874679442
 20
59.96891446602393
 10
249.5190380048971
 20
60.28479780451461
 10
249.6320626817131
 20
60.5346445906649
 10
249.8118585032826
 20
60.70142854953239
 10
250.0461732490343
 20
60.77378319966381
 10
250.319038531739
 20
60.74677776976382
 10
250.61185837158
 20
60.62225321155695
 10
250.9046788699654
 20
60.40869479880404
 10
251.1775441526701
 20
60.1206566791838
 10
251.4118585691496
 20
59.77776817217127
 10
251.5916543907191
 20
59.40339637635106
 10
251.7046790675351
 20
59.02305407602407
 10
251.7432296044879
 20
58.66266123497906
 10
251.7046790675351
 20
58.34677789648825
 10
251.5916543907191
 20
58.09693111033795
 10
251.4118585691496
 20
57.93014715147046
 10
251.1775441526701
 20
57.85779231125422
 10
250.9046788699654
 20
57.88479774115421
 10
250.61185837158
 20
58.00932267953073
 10
250.319038531739
 20
58.22288071211398
 10
250.0461732490343
 20
58.51091883173422
 10
249.8118585032826
 20
58.85380752883158
 10
249.6320626817131
 20
59.2281793246518
 10
249.5190380048971
 20
59.60852162497879
 10
249.4804874679442
 20
59.96891446602393
  0
LINE
  5
24E
330
1F
100
AcDbEntity
  8
0
100
AcDbLine
 10
253.5817083930307
 20
72.21727888077534
 30
0.0
 11
252.8746001788514
 21
71.80907399761483
 31
0.0
  0
LINE
  5
24F
330
1F
100
AcDbEntity
  8
0
100
AcDbLine
 10
247.8541538535642
 20
74.78897032899198
 30
0.0
 11
247.7834314417629
 21
74.74814314969005
 31
0.0
  0
LINE
  5
250
330
1F
100
AcDbEntity
  8
0
100
AcDbLine
 10
253.5109863105017
 20
72.25810586999246
 30
0.0
 11
253.5817083930307
 21
72.21727888077534
 31
0.0
  0
LINE
  5
251
330
1F
100
AcDbEntity
  8
0
100
AcDbLine
 10
253.5817083930307
 20
72.21727888077534
 30
0.0
 11
253.5817083930307
 21
44.61820069471332
 31
0.0
  0
LINE
  5
252
330
1F
100
AcDbEntity
  8
0
100
AcDbLine
 10
253.5817083930307
 20
44.61820069471332
 30
0.0
 11
252.8746001788514
 21
44.20999581155282
 31
0.0
  0
LINE
  5
253
330
1F
100
AcDbEntity
  8
0
100
AcDbLine
 10
247.7834314417629
 20
74.77205970761842
 30
0.0
 11
247.7834314417629
 21
74.74814314969005
 31
0.0
  0
LINE
  5
254
330
1F
100
AcDbEntity
  8
0
100
AcDbLine
 10
247.8334413116991
 20
74.80092979101559
 30
0.0
 11
247.7834314417629
 21
74.77205970761842
 31
0.0
  0
LINE
  5
255
330
1F
100
AcDbEntity
  8
0
100
AcDbLine
 10
247.7834314417629
 20
47.14906496362803
 30
0.0
 11
247.7834314417629
 21
47.12514840569967
 31
0.0
  0
ELLIPSE
  5
256
330
1F
100
AcDbEntity
  8
0
100
AcDbEllipse
 10
248.702671319406
 20
47.67973013888742
 30
0.0
 11
1.299909796395526
 21
0.02594978831168505
 31
0.0
210
0.0
220
0.0
230
1.0
 40
0.5901430090539904
 41
3.129812314843745
 42
3.915210478241193
  0
ELLIPSE
  5
257
330
1F
100
AcDbEntity
  8
0
100
AcDbEllipse
 10
248.702671319406
 20
75.1155014182486
 30
0.0
 11
1.297548523005872
 21
-0.1700781572911723
 31
0.0
210
0.0
220
0.0
230
1.0
 40
0.4691883323544753
 41
2.417616709439483
 42
3.988413036234373
  0
ELLIPSE
  5
258
330
1F
100
AcDbEntity
  8
0
100
AcDbEllipse
 10
282.926639528835
 20
94.87257772435812
 30
0.0
 11
-0.437093921882422
 21
1.237325507437902
 31
0.0
210
0.0
220
0.0
230
1.0
 40
0.6665699704010861
 41
5.621275228341093
 42
6.406592127676466
  0
ELLIPSE
  5
259
330
1F
100
AcDbEntity
  8
0
100
AcDbEllipse
 10
248.702671319406
 20
75.1155014182486
 30
0.0
 11
-0.7960360106885392
 21
1.038695535664544
 31
0.0
210
0.0
220
0.0
230
1.0
 40
0.4692964401212689
 41
5.436423930184173
 42
7.007220256979029
  0
ARC
  5
25A
330
1F
100
AcDbEntity
  8
0
100
AcDbCircle
 10
252.3161989760637
 20
60.29968235644544
 30
0.0
 40
2.119617216821847
100
AcDbArc
 50
167.3759997519444
 51
252.6186129784522
  0
LINE
  5
25B
330
1F
100
AcDbEntity
  8
0
100
AcDbLine
 10
252.8746001788514
 20
44.12834034814689
 30
0.0
 11
256.9685975292298
 21
46.49175471183113
 31
0.0
  0
LINE
  5
25C
330
1F
100
AcDbEntity
  8
0
100
AcDbLine
 10
247.6420103257627
 20
47.14905017271849
 30
0.0
 11
252.8746001788514
 21
44.12834034814689
 31
0.0
  0
LINE
  5
25D
330
1F
100
AcDbEntity
  8
0
100
AcDbLine
 10
247.6966695199252
 20
47.18060425386103
 30
0.0
 11
247.6420103257627
 21
47.14905017271849
 31
0.0
  0
LINE
  5
25E
330
1F
100
AcDbEntity
  8
0
100
AcDbLine
 10
252.8746001788514
 20
43.31180092334544
 30
0.0
 11
260.2285113817557
 21
47.55712349655033
 31
0.0
  0
LINE
  5
25F
330
1F
100
AcDbEntity
  8
0
100
AcDbLine
 10
252.8746001788514
 20
43.31180092334544
 30
0.0
 11
252.8746001788514
 21
44.12834034814689
 31
0.0
  0
LINE
  5
260
330
1F
100
AcDbEntity
  8
0
100
AcDbLine
 10
247.6420103257627
 20
46.33251074791706
 30
0.0
 11
252.8746001788514
 21
43.31180092334544
 31
0.0
  0
LINE
  5
261
330
1F
100
AcDbEntity
  8
0
100
AcDbLine
 10
247.6420103257627
 20
46.33251074791706
 30
0.0
 11
247.6420103257627
 21
47.14905017271849
 31
0.0
  0
LINE
  5
262
330
1F
100
AcDbEntity
  8
0
100
AcDbLine
 10
247.804146617806
 20
47.13710702228304
 30
0.0
 11
247.7834314417629
 21
47.12514840569967
 31
0.0
  0
LINE
  5
263
330
1F
100
AcDbEntity
  8
0
100
AcDbLine
 10
288.1592180117577
 20
92.26010427662018
 30
0.0
 11
288.2299400942866
 21
92.21927728740306
 31
0.0
  0
LINE
  5
264
330
1F
100
AcDbEntity
  8
0
100
AcDbLine
 10
288.2299400942866
 20
84.62682832925954
 30
0.0
 11
288.2299400942866
 21
92.21927728740306
 31
0.0
  0
LINE
  5
265
330
1F
100
AcDbEntity
  8
0
100
AcDbLine
 10
288.9370469913771
 20
92.62748141022428
 30
0.0
 11
288.866324908848
 21
92.66830839944139
 31
0.0
  0
LINE
  5
266
330
1F
100
AcDbEntity
  8
0
100
AcDbLine
 10
288.2299400942866
 20
92.21927728740306
 30
0.0
 11
288.9370469913771
 21
92.62748141022428
 31
0.0
  0
LINE
  5
267
330
1F
100
AcDbEntity
  8
0
100
AcDbLine
 10
288.9370469913771
 20
85.03503245208074
 30
0.0
 11
288.9370469913771
 21
92.62748141022428
 31
0.0
  0
LINE
  5
268
330
1F
100
AcDbEntity
  8
0
100
AcDbLine
 10
300.4982431453707
 20
90.93364759018338
 30
0.0
 11
298.3769227833718
 21
89.70903541180456
 31
0.0
  0
LINE
  5
269
330
1F
100
AcDbEntity
  8
0
100
AcDbLine
 10
300.4982431453707
 20
90.93364759018338
 30
0.0
 11
317.1152519342721
 21
81.34085260473312
 31
0.0
  0
LINE
  5
26A
330
1F
100
AcDbEntity
  8
0
100
AcDbLine
 10
317.1152519342721
 20
81.34085260473312
 30
0.0
 11
314.9939315722732
 21
80.11624042635431
 31
0.0
  0
LINE
  5
26B
330
1F
100
AcDbEntity
  8
0
100
AcDbLine
 10
298.3769227833718
 20
89.70903541180456
 30
0.0
 11
314.9939315722732
 21
80.11624042635431
 31
0.0
  0
LINE
  5
26C
330
1F
100
AcDbEntity
  8
0
100
AcDbLine
 10
314.9939315722732
 20
80.11624042635431
 30
0.0
 11
314.9939315722732
 21
49.90422999722456
 31
0.0
  0
LINE
  5
26D
330
1F
100
AcDbEntity
  8
0
100
AcDbLine
 10
314.9939315722732
 20
49.90422999722456
 30
0.0
 11
301.7628879816262
 21
57.54234888017329
 31
0.0
  0
LINE
  5
26E
330
1F
100
AcDbEntity
  8
0
100
AcDbLine
 10
272.5675256493845
 20
90.39345811061136
 30
0.0
 11
272.5675256493845
 21
104.6084832335913
 31
0.0
  0
LINE
  5
26F
330
1F
100
AcDbEntity
  8
0
100
AcDbLine
 10
272.5675256493845
 20
104.6084832335913
 30
0.0
 11
289.1845344382859
 21
95.01568824814105
 31
0.0
  0
LINE
  5
270
330
1F
100
AcDbEntity
  8
0
100
AcDbLine
 10
289.1845344382859
 20
95.01568824814105
 30
0.0
 11
289.1845344382859
 21
85.1779037818259
 31
0.0
  0
LINE
  5
271
330
1F
100
AcDbEntity
  8
0
100
AcDbLine
 10
298.3769227833718
 20
88.07615276162763
 30
0.0
 11
298.3769227833718
 21
89.70903541180456
 31
0.0
  0
LWPOLYLINE
  5
272
330
1F
100
AcDbEntity
  8
0
100
AcDbPolyline
 90
       45
 70
   128
 43
0.0
 10
313.7211402111818
 20
66.96981325307128
 10
313.683713809704
 20
67.59568952215295
 10
313.5721971998113
 20
68.25203610052613
 10
313.3888610429669
 20
68.92549110779271
 10
313.1374366523532
 20
69.60234583941795
 10
312.8230422358862
 20
70.26882099795492
 10
312.4520788461835
 20
70.91134881501372
 10
312.0320960374846
 20
71.51685041749528
 10
311.5716469858591
 20
72.07299798357855
 10
311.0801027796557
 20
72.5684706210577
 10
310.5674693441287
 20
72.99318248903091
 10
310.0441846097295
 20
73.33848658292294
 10
309.5208998753304
 20
73.59735418321205
 10
309.0082664398034
 20
73.76451628150673
 10
308.5167222336
 20
73.83656850440369
 10
308.0562718648856
 20
73.81204485774936
 10
307.6362903732756
 20
73.69144432442661
 10
307.2653269835729
 20
73.47722172038578
 10
306.950932567106
 20
73.17373862859824
 10
306.6995081764922
 20
72.78717231941279
 10
306.5161720196479
 20
72.32539273320069
 10
306.4046554097551
 20
71.79780049199658
 10
306.3672290082774
 20
71.21513582627617
 10
306.4046554097551
 20
70.58925946213664
 10
306.5161720196479
 20
69.93291296693909
 10
306.6995081764922
 20
69.25945792402582
 10
306.950932567106
 20
68.58260343004522
 10
307.2653269835729
 20
67.9161281764504
 10
307.6362903732756
 20
67.27360026433374
 10
308.0562718648856
 20
66.66809942219149
 10
308.5167222336
 20
66.11195128588463
 10
309.0082664398034
 20
65.61647845828976
 10
309.5208998753304
 20
65.19176640020083
 10
310.0441846097295
 20
64.8464623063088
 10
310.5674693441287
 20
64.58759470601969
 10
311.0801027796557
 20
64.42043279784073
 10
311.5716469858591
 20
64.34838076505949
 10
312.0320960374846
 20
64.3729049819374
 10
312.4520788461835
 20
64.49350475492083
 10
312.8230422358862
 20
64.70772745401952
 10
313.1374366523532
 20
65.01121064086493
 10
313.3888610429669
 20
65.39777671240574
 10
313.5721971998113
 20
65.85955633426454
 10
313.683713809704
 20
66.38714849229302
 10
313.7211402111818
 20
66.96981325307128
  0
ARC
  5
273
330
1F
100
AcDbEntity
  8
0
100
AcDbCircle
 10
275.8996777604805
 20
90.67192069724945
 30
0.0
 40
1.95045383637255
100
AcDbArc
 50
76.92446169308649
 51
163.0701579544485
  0
LINE
  5
274
330
1F
100
AcDbEntity
  8
0
100
AcDbLine
 10
317.1152519342721
 20
81.34085260473312
 30
0.0
 11
317.1152519342721
 21
51.12884217560337
 31
0.0
  0
LINE
  5
275
330
1F
100
AcDbEntity
  8
0
100
AcDbLine
 10
317.1152519342721
 20
51.12884217560337
 30
0.0
 11
314.9939315722732
 21
49.90422999722456
 31
0.0
  0
LWPOLYLINE
  5
276
330
1F
100
AcDbEntity
  8
0
100
AcDbPolyline
 90
       21
 70
   128
 43
0.0
 10
311.1012444455858
 20
72.54901756094266
 10
311.0220821273702
 20
72.55248620877148
 10
310.7003225491259
 20
72.50664154995613
 10
310.4255211455679
 20
72.36363562295335
 10
310.2089271739814
 20
72.1293237167682
 10
310.0594099117999
 20
71.81329762161648
 10
309.9830885545918
 20
71.42849652237017
 10
309.9830885545918
 20
70.99067379614935
 10
310.0594099117999
 20
70.51775398106005
 10
310.2089271739814
 20
70.02909885821093
 10
310.4255211455679
 20
69.54471292293734
 10
310.7003225491259
 20
69.08442807262313
 10
311.0220821273702
 20
68.66708775980419
 10
311.3776263559631
 20
68.30977827823965
 10
311.7523987670999
 20
68.0271282847964
 10
312.131056590834
 20
67.8307091591508
 10
312.4980990065361
 20
67.72856143694491
 10
312.8384967114454
 20
67.72486858275165
 10
313.1383162208617
 20
67.81978038361949
 10
313.3852809480674
 20
68.00941223086035
 10
313.5660922452681
 20
68.27931301971329
  0
LWPOLYLINE
  5
277
330
1F
100
AcDbEntity
  8
0
100
AcDbPolyline
 90
       16
 70
   128
 43
0.0
 10
310.6910975753401
 20
72.5036683489108
 10
310.5271252612084
 20
72.3130155625335
 10
310.377607999027
 20
71.99698946738178
 10
310.3012866418188
 20
71.61218836813548
 10
310.3012866418188
 20
71.17436564191465
 10
310.377607999027
 20
70.70144582682536
 10
310.5271252612084
 20
70.21279070397624
 10
310.7437192327949
 20
69.72840476870263
 10
311.018520636353
 20
69.26811991838844
 10
311.3402802145973
 20
68.8507796055695
 10
311.6958244431901
 20
68.49347012400494
 10
312.0705968543271
 20
68.2108201305617
 10
312.449254678061
 20
68.01440100491611
 10
312.8162970937632
 20
67.91225328271022
 10
313.1566947986724
 20
67.90856042851696
 10
313.3217141985717
 20
67.94681336530994
  0
LINE
  5
278
330
1F
100
AcDbEntity
  8
0
100
AcDbLine
 10
291.3058548002848
 20
96.24030042651987
 30
0.0
 11
289.1845344382859
 21
95.01568824814105
 31
0.0
  0
LINE
  5
279
330
1F
100
AcDbEntity
  8
0
100
AcDbLine
 10
291.3058548002848
 20
96.24030042651987
 30
0.0
 11
291.3058548002848
 21
86.40251596020472
 31
0.0
  0
LINE
  5
27A
330
1F
100
AcDbEntity
  8
0
100
AcDbLine
 10
274.6888460113834
 20
105.8330954119701
 30
0.0
 11
272.5675256493845
 21
104.6084832335913
 31
0.0
  0
LINE
  5
27B
330
1F
100
AcDbEntity
  8
0
100
AcDbLine
 10
274.6888460113834
 20
105.8330954119701
 30
0.0
 11
291.3058548002848
 21
96.24030042651987
 31
0.0
  0
LINE
  5
27C
330
1F
100
AcDbEntity
  8
0
100
AcDbLine
 10
279.3346083351338
 20
77.04203999333798
 30
0.0
 11
279.306576729607
 21
77.02585769191734
 31
0.0
  0
ELLIPSE
  5
27D
330
1F
100
AcDbEntity
  8
0
100
AcDbEllipse
 10
257.6964326056249
 20
51.17357282660944
 30
0.0
 11
2.518862864188351
 21
4.363260613484137
 31
0.0
210
0.0
220
0.0
230
1.0
 40
0.5730122156899885
 41
2.359912542918611
 42
3.59843817238308
  0
LINE
  5
27E
330
1F
100
AcDbEntity
  8
0
100
AcDbLine
 10
254.1473948326654
 20
49.09362522860583
 30
0.0
 11
254.1473948326654
 21
56.45802885632377
 31
0.0
  0
LINE
  5
27F
330
1F
100
AcDbEntity
  8
0
100
AcDbLine
 10
254.1473948326654
 20
56.45802885632377
 30
0.0
 11
255.2080545197564
 21
57.07033466038593
 31
0.0
  0
LINE
  5
280
330
1F
100
AcDbEntity
  8
0
100
AcDbLine
 10
255.2080545197564
 20
57.07033466038593
 30
0.0
 11
255.2080545197564
 21
61.15303862855914
 31
0.0
  0
LINE
  5
281
330
1F
100
AcDbEntity
  8
0
100
AcDbLine
 10
255.2080545197564
 20
61.15303862855914
 30
0.0
 11
254.1473948326654
 21
60.54073282449697
 31
0.0
  0
LINE
  5
282
330
1F
100
AcDbEntity
  8
0
100
AcDbLine
 10
254.1473948326654
 20
60.54073282449697
 30
0.0
 11
254.1473948326654
 21
67.90513645221489
 31
0.0
  0
ELLIPSE
  5
283
330
1F
100
AcDbEntity
  8
0
100
AcDbEllipse
 10
257.6964326056249
 20
69.92282096749253
 30
0.0
 11
2.499792129964135
 21
4.33024702638501
 31
0.0
210
0.0
220
0.0
230
1.0
 40
0.5817841916949111
 41
0.7891137462567581
 42
2.352313876505095
  0
LINE
  5
284
330
1F
100
AcDbEntity
  8
0
100
AcDbLine
 10
257.6694726196412
 20
74.00555639095136
 30
0.0
 11
269.3501898273861
 21
80.74869090332862
 31
0.0
  0
LINE
  5
285
330
1F
100
AcDbEntity
  8
0
100
AcDbLine
 10
269.3501898273861
 20
80.74869090332862
 30
0.0
 11
269.3501898273861
 21
79.52387948473779
 31
0.0
  0
LINE
  5
286
330
1F
100
AcDbEntity
  8
0
100
AcDbLine
 10
269.3501898273861
 20
79.52387948473779
 30
0.0
 11
272.8857229957489
 21
81.56489933850455
 31
0.0
  0
LINE
  5
287
330
1F
100
AcDbEntity
  8
0
100
AcDbLine
 10
272.8857229957489
 20
81.56489933850455
 30
0.0
 11
272.8857229957489
 21
82.78971075709538
 31
0.0
  0
LINE
  5
288
330
1F
100
AcDbEntity
  8
0
100
AcDbLine
 10
272.8857229957489
 20
82.78971075709538
 30
0.0
 11
284.5664388864048
 21
89.53284450913331
 31
0.0
  0
ELLIPSE
  5
289
330
1F
100
AcDbEntity
  8
0
100
AcDbEllipse
 10
284.5394799604144
 20
85.41898236034278
 30
0.0
 11
2.518862864188351
 21
4.363260613484144
 31
0.0
210
0.0
220
0.0
230
1.0
 40
0.5730122156899824
 41
5.501505196508416
 42
7.064705326756713
  0
LINE
  5
28A
330
1F
100
AcDbEntity
  8
0
100
AcDbLine
 10
288.0885193075586
 20
87.49893054593657
 30
0.0
 11
288.0885193075586
 21
84.54518773262107
 31
0.0
  0
LINE
  5
28B
330
1F
100
AcDbEntity
  8
0
100
AcDbLine
 10
253.5817083930307
 20
60.92991515876437
 30
0.0
 11
254.1473948326654
 21
60.54073282449697
 31
0.0
  0
LINE
  5
28C
330
1F
100
AcDbEntity
  8
0
100
AcDbLine
 10
269.3501898273861
 20
80.74869090332862
 30
0.0
 11
268.7301955270839
 21
81.04396818703344
 31
0.0
  0
LINE
  5
28D
330
1F
100
AcDbEntity
  8
0
100
AcDbLine
 10
250.2585992924298
 20
60.7608675652458
 30
0.0
 11
250.2585992924298
 21
59.92759434463915
 31
0.0
  0
LINE
  5
28E
330
1F
100
AcDbEntity
  8
0
100
AcDbLine
 10
250.2585992924298
 20
59.92759434463915
 30
0.0
 11
250.9798760916985
 21
59.51121011140896
 31
0.0
  0
LINE
  5
28F
330
1F
100
AcDbEntity
  8
0
100
AcDbLine
 10
253.581708722303
 20
58.00920410485776
 30
0.0
 11
255.2080545197564
 21
57.07033466038593
 31
0.0
  0
ARC
  5
290
330
1F
100
AcDbEntity
  8
0
100
AcDbCircle
 10
251.5564738949456
 20
59.79066148956663
 30
0.0
 40
2.344671632315984
100
AcDbArc
 50
1.862462267199569
 51
28.33118904220157
  0
ARC
  5
291
330
1F
100
AcDbEntity
  8
0
100
AcDbCircle
 10
253.0642394279633
 20
59.78687617582086
 30
0.0
 40
0.839486863216528
100
AcDbArc
 50
308.0545487393683
 51
5.467553080181729
  0
LINE
  5
292
330
1F
100
AcDbEntity
  8
0
100
AcDbLine
 10
254.1473948326654
 20
56.45802885632377
 30
0.0
 11
253.5817083930307
 21
56.84721119059115
 31
0.0
  0
LINE
  5
293
330
1F
100
AcDbEntity
  8
0
100
AcDbLine
 10
271.2591473662622
 20
82.50390146218503
 30
0.0
 11
272.8857229957489
 21
81.56489933850455
 31
0.0
  0
LINE
  5
294
330
1F
100
AcDbEntity
  8
0
100
AcDbLine
 10
272.2657286954468
 20
83.0849880408002
 30
0.0
 11
272.8857229957489
 21
82.78971075709538
 31
0.0
  0
ARC
  5
295
330
1F
100
AcDbEntity
  8
0
100
AcDbCircle
 10
264.6665497526223
 20
65.89868618936066
 30
0.0
 40
9.18430578094417
100
AcDbArc
 50
122.4873524460584
 51
177.5126628131028
  0
ARC
  5
296
330
1F
100
AcDbEntity
  8
0
100
AcDbCircle
 10
264.3837071913496
 20
66.06196772443815
 30
0.0
 40
9.184305780944321
100
AcDbArc
 50
122.487352446059
 51
177.5126628131021
  0
LWPOLYLINE
  5
297
330
1F
100
AcDbEntity
  8
0
100
AcDbPolyline
 90
       15
 70
   128
 43
0.0
 10
255.4908970810292
 20
48.74164480873049
 10
255.5300725767201
 20
48.18945229728486
 10
255.646632320455
 20
47.6960864966751
 10
255.8377103265352
 20
47.27369835190127
 10
256.0985993188177
 20
46.93268611377316
 10
256.4228771712605
 20
46.68144893706933
 10
256.8025544218928
 20
46.52616937430845
 10
257.2282876412355
 20
46.47067495148219
 10
257.6895901665433
 20
46.51632940208778
 10
258.1751060563206
 20
46.66200982753537
 10
258.6728761423025
 20
46.90412796514451
 10
259.1706488624623
 20
47.23672445637615
 10
259.6561621180616
 20
47.65160722463138
 10
260.1174646433694
 20
48.13856133285424
 10
260.2285110524834
 20
48.27123343642954
  0
LINE
  5
298
330
1F
100
AcDbEntity
  8
0
100
AcDbLine
 10
255.4908970810292
 20
66.29727210001413
 30
0.0
 11
255.4908970810292
 21
48.74164480873049
 31
0.0
  0
LINE
  5
299
330
1F
100
AcDbEntity
  8
0
100
AcDbLine
 10
284.8358280419241
 20
88.13698506963766
 30
0.0
 11
259.7335358293935
 21
73.64574023016323
 31
0.0
  0
LWPOLYLINE
  5
29A
330
1F
100
AcDbEntity
  8
0
100
AcDbPolyline
 90
       15
 70
   128
 43
0.0
 10
287.6122404923225
 20
84.27023805288451
 10
287.6709931991467
 20
84.43110009947746
 10
287.8620712052269
 20
85.0741022141711
 10
287.9786329245953
 20
85.70204617085382
 10
288.0178084202863
 20
86.29946974685387
 10
287.9786329245953
 20
86.8516622582995
 10
287.8620712052269
 20
87.3450269184003
 10
287.6709931991467
 20
87.76741582363702
 10
287.4101042068643
 20
88.10842730130224
 10
287.0858276715105
 20
88.35966599880828
 10
286.7061491037891
 20
88.51494404076695
 10
286.2804168722632
 20
88.57043979431059
 10
285.8191140176831
 20
88.52478439315728
 10
285.3335994449949
 20
88.3791039675861
 10
284.8358280419241
 20
88.13698506963766
  0
LINE
  5
29B
330
1F
100
AcDbEntity
  8
0
100
AcDbLine
 10
255.2080545197564
 20
66.46055363509173
 30
0.0
 11
255.2080545197564
 21
48.90492634380808
 31
0.0
  0
LINE
  5
29C
330
1F
100
AcDbEntity
  8
0
100
AcDbLine
 10
284.5529854806512
 20
88.30026660471523
 30
0.0
 11
259.4506932681207
 21
73.8090217652408
 31
0.0
  0
ARC
  5
29D
330
1F
100
AcDbEntity
  8
0
100
AcDbCircle
 10
257.4090294985095
 20
48.65970949770702
 30
0.0
 40
2.214593000690834
100
AcDbArc
 50
173.6427325504992
 51
235.0450018231138
  0
ARC
  5
29E
330
1F
100
AcDbEntity
  8
0
100
AcDbCircle
 10
285.8750217992455
 20
86.42095347093557
 30
0.0
 40
2.29773755735484
100
AcDbArc
 50
66.18529920645206
 51
125.125153135738
  0
LWPOLYLINE
  5
29F
330
1F
100
AcDbEntity
  8
0
100
AcDbPolyline
 90
        7
 70
   128
 43
0.0
 10
280.3458949648279
 20
77.97390023021217
 10
279.9827234737436
 20
77.87922886271286
 10
279.6804640569251
 20
77.72932530761558
 10
279.4636066675354
 20
77.53633522497265
 10
279.3497173217804
 20
77.31589195122672
 10
279.3480242038504
 20
77.08585547647417
 10
279.4249718368856
 20
76.91181799150831
  0
LWPOLYLINE
  5
2A0
330
1F
100
AcDbEntity
  8
0
100
AcDbPolyline
 90
        9
 70
   128
 43
0.0
 10
282.0442456895119
 20
76.91181799150831
 10
282.1194995460726
 20
77.07905728275138
 10
282.1211926640026
 20
77.30909375750394
 10
282.0105532353944
 20
77.53008713673677
 10
281.7965447095463
 20
77.72413485135247
 10
281.4965039291752
 20
77.87551536554902
 10
281.1347384306155
 20
77.9719647865122
 10
280.7405577250116
 20
78.00567043780207
 10
280.3458949648279
 20
77.97390023021217
  0
LINE
  5
2A1
330
1F
100
AcDbEntity
  8
0
100
AcDbLine
 10
280.5240905232429
 20
76.70565503041247
 30
0.0
 11
281.3671592023624
 21
76.84631780177081
 31
0.0
  0
LINE
  5
2A2
330
1F
100
AcDbEntity
  8
0
100
AcDbLine
 10
281.3671592023624
 20
76.84631780177081
 30
0.0
 11
281.5776754666847
 21
77.33813681809292
 31
0.0
  0
LINE
  5
2A3
330
1F
100
AcDbEntity
  8
0
100
AcDbLine
 10
281.5776754666847
 20
77.33813681809292
 30
0.0
 11
280.9451263446101
 21
77.68929420356562
 31
0.0
  0
LINE
  5
2A4
330
1F
100
AcDbEntity
  8
0
100
AcDbLine
 10
280.9451263446101
 20
77.68929420356562
 30
0.0
 11
280.1020579947628
 21
77.54863124212245
 31
0.0
  0
LINE
  5
2A5
330
1F
100
AcDbEntity
  8
0
100
AcDbLine
 10
280.1020579947628
 20
77.54863124212245
 30
0.0
 11
279.8915414011683
 21
77.05681241588519
 31
0.0
  0
LINE
  5
2A6
330
1F
100
AcDbEntity
  8
0
100
AcDbLine
 10
279.8915414011683
 20
77.05681241588519
 30
0.0
 11
280.5240905232429
 21
76.70565503041247
 31
0.0
  0
LINE
  5
2A7
330
1F
100
AcDbEntity
  8
0
100
AcDbLine
 10
280.1020579947628
 20
76.93994457659647
 30
0.0
 11
280.1020579947628
 21
77.54863124212245
 31
0.0
  0
LINE
  5
2A8
330
1F
100
AcDbEntity
  8
0
100
AcDbLine
 10
280.9451263446101
 20
76.77590374586622
 30
0.0
 11
280.9451263446101
 21
77.68929420356562
 31
0.0
  0
ARC
  5
2A9
330
1F
100
AcDbEntity
  8
0
100
AcDbCircle
 10
252.3780652743768
 20
60.05055608894437
 30
0.0
 40
1.339948426184074
100
AcDbArc
 50
333.932366089309
 51
26.0676339106916
  0
ARC
  5
2AA
330
1F
100
AcDbEntity
  8
0
100
AcDbCircle
 10
252.7334672054085
 20
60.54056638600918
 30
0.0
 40
2.048851532006128
100
AcDbArc
 50
178.9717283182075
 51
241.0228898264896
  0
LINE
  5
2AB
330
1F
100
AcDbEntity
  8
0
100
AcDbLine
 10
251.1075579936287
 20
60.20402059828744
 30
0.0
 11
251.2980913834008
 21
59.57282291971741
 31
0.0
  0
LINE
  5
2AC
330
1F
100
AcDbEntity
  8
0
100
AcDbLine
 10
251.2980913834008
 20
59.57282291971741
 30
0.0
 11
251.6133636396969
 21
59.34538635981904
 31
0.0
  0
LWPOLYLINE
  5
2AD
330
1F
100
AcDbEntity
  8
0
100
AcDbPolyline
 90
        8
 70
   128
 43
0.0
 10
253.581708722303
 20
59.06731074581116
 10
253.5933037154551
 20
59.07414459288294
 10
253.775119951575
 20
59.24665811628348
 10
253.8914673147061
 20
59.50046225910169
 10
253.9350353022652
 20
59.81960958004028
 10
253.9030860154604
 20
60.18404705442262
 10
253.7976276857688
 20
60.57087531602419
 10
253.6701713353326
 20
60.86905468695782
  0
LINE
  5
2AE
330
1F
100
AcDbEntity
  8
0
100
AcDbLine
 10
251.4698898404653
 20
59.672000057936
 30
0.0
 11
251.2980913834008
 21
59.57282291971741
 31
0.0
  0
LINE
  5
2AF
330
1F
100
AcDbEntity
  8
0
  6
Continuous
 62
     8
370
     0
100
AcDbLine
 10
265.3196794602996
 20
37.02560446644233
 30
0.0
 11
265.3196794602996
 21
64.62468265250435
 31
0.0
  0
LINE
  5
2B0
330
1F
100
AcDbEntity
  8
0
  6
Continuous
 62
     8
370
     0
100
AcDbLine
 10
267.1581572610257
 20
64.4613743873744
 30
0.0
 11
267.1581572610257
 21
37.02560408627267
 31
0.0
  0
LINE
  5
2B1
330
1F
100
AcDbEntity
  8
0
  6
Continuous
 62
     8
370
     0
100
AcDbLine
 10
301.3821266020976
 20
84.21845134676747
 30
0.0
 11
267.1581572610257
 21
64.4613743873744
 31
0.0
  0
LINE
  5
2B2
330
1F
100
AcDbEntity
  8
0
  6
Continuous
 62
     8
370
     0
100
AcDbLine
 10
266.0767870077031
 20
65.95994642455497
 30
0.0
 11
300.6250193839663
 21
85.90421644964758
 31
0.0
  0
LINE
  5
2B3
330
1F
100
AcDbEntity
  8
0
  6
Continuous
 62
     8
370
     0
100
AcDbLine
 10
301.3821266020976
 20
56.78268104566573
 30
0.0
 11
301.3821266020976
 21
84.21845134676747
 31
0.0
  0
LINE
  5
2B4
330
1F
100
AcDbEntity
  8
0
  6
Continuous
 62
     8
370
     0
100
AcDbLine
 10
267.1581572610257
 20
37.02560408627267
 30
0.0
 11
301.3821266020976
 21
56.78268104566573
 31
0.0
  0
LINE
  5
2B5
330
1F
100
AcDbEntity
  8
0
  6
Continuous
 62
     8
370
     0
100
AcDbLine
 10
283.0887713654296
 20
96.02767694683327
 30
0.0
 11
248.5405389891664
 21
76.08340692174067
 31
0.0
  0
LINE
  5
2B6
330
1F
100
AcDbEntity
  8
0
  6
Continuous
 62
     8
370
     0
100
AcDbLine
 10
247.7834314417629
 20
74.74814314969005
 30
0.0
 11
247.7834314417629
 21
47.14906496362803
 31
0.0
  0
LINE
  5
2B7
330
1F
100
AcDbEntity
  8
0
  6
Continuous
 62
     8
370
     0
100
AcDbLine
 10
254.1473948326654
 20
67.90513645221489
 30
0.0
 11
253.5817083930307
 21
68.2316885836885
 31
0.0
  0
LINE
  5
2B8
330
1F
100
AcDbEntity
  8
0
  6
Continuous
 62
     8
370
     0
100
AcDbLine
 10
257.1037213133725
 20
74.33214748857847
 30
0.0
 11
257.6694726196412
 21
74.00555639095136
 31
0.0
  0
LINE
  5
2B9
330
1F
100
AcDbEntity
  8
0
  6
Continuous
 62
     8
370
     0
100
AcDbLine
 10
253.5817083930307
 20
49.545437765667
 30
0.0
 11
254.1473948326654
 21
49.09362522860583
 31
0.0
  0
LINE
  5
2BA
330
1F
100
AcDbEntity
  8
0
  6
Continuous
 62
     8
370
     0
100
AcDbLine
 10
284.5664388864048
 20
89.53284450913331
 30
0.0
 11
283.8922022506136
 21
89.79680835908552
 31
0.0
  0
LINE
  5
2BB
330
1F
100
AcDbEntity
  8
0
  6
Continuous
 62
     8
370
     0
100
AcDbLine
 10
259.7335358293935
 20
73.64574023016323
 30
0.0
 11
259.4506932681207
 21
73.8090217652408
 31
0.0
  0
LINE
  5
2BC
330
1F
100
AcDbEntity
  8
0
  6
Continuous
 62
     8
370
     0
100
AcDbLine
 10
255.4908970810292
 20
66.29727210001413
 30
0.0
 11
255.2080545197564
 21
66.46055363509173
 31
0.0
  0
LINE
  5
2BD
330
1F
100
AcDbEntity
  8
0
  6
Continuous
 62
     8
370
     0
100
AcDbLine
 10
255.4908970810292
 20
48.74164480873049
 30
0.0
 11
255.2080545197564
 21
48.90492634380808
 31
0.0
  0
LINE
  5
2BE
330
1F
100
AcDbEntity
  8
0
  6
Continuous
 62
     8
370
     0
100
AcDbLine
 10
284.8358280419241
 20
88.13698506963766
 30
0.0
 11
284.5529854806512
 21
88.30026660471523
 31
0.0
  0
LWPOLYLINE
  5
2E6
330
1F
100
AcDbEntity
  8
0
  6
HIDDEN
 62
     1
100
AcDbPolyline
 90
        4
 70
     0
 43
0.0
 10
86.02610641706096
 20
149.544486782595
 10
86.02610641706096
 20
166.544486782595
 42
-0.414213562373095
 10
95.02610641706096
 20
175.544486782595
 10
128.026106417061
 20
175.544486782595
  0
LWPOLYLINE
  5
2EF
330
1F
100
AcDbEntity
  8
0
  6
HIDDEN
 62
     1
100
AcDbPolyline
 90
        4
 70
     0
 43
0.0
 10
309.6338441391813
 20
149.544486782595
 10
309.6338441391813
 20
166.544486782595
 42
0.414213562373095
 10
300.6338441391813
 20
175.544486782595
 10
267.6338441391813
 20
175.544486782595
  0
MTEXT
  5
317
330
1F
100
AcDbEntity
  8
0
  6
Continuous
 62
     7
370
     0
100
AcDbMText
 10
261.3312180197811
 20
240.8765287011817
 30
0.0
 40
19.05
 41
0.0
 46
19.05
 71
     1
 72
     1
  1
{1075}
  7
SLDTEXTSTYLE0
 73
     1
 44
1.0
1001
ACAD
1000
ACAD_MTEXT_DEFINED_HEIGHT_BEGIN
1070
    46
1040
19.05
1000
ACAD_MTEXT_DEFINED_HEIGHT_END
  0
ENDSEC
  0
SECTION
  2
OBJECTS
  0
DICTIONARY
  5
C
330
0
100
AcDbDictionary
281
     1
  3
ACAD_DETAILVIEWSTYLE
350
2EC
  3
ACAD_GROUP
350
D
  3
ACAD_IMAGE_VARS
350
2E2
  3
ACAD_LAYOUT
350
1A
  3
ACAD_MATERIAL
350
2D8
  3
ACAD_MLEADERSTYLE
350
2DE
  3
ACAD_MLINESTYLE
350
17
  3
ACAD_PLOTSETTINGS
350
19
  3
ACAD_PLOTSTYLENAME
350
E
  3
ACAD_SCALELIST
350
47
  3
ACAD_SECTIONVIEWSTYLE
350
2ED
  3
ACAD_TABLESTYLE
350
2DC
  3
ACAD_VISUALSTYLE
350
2BF
  3
ACDB_RECOMPOSE_DATA
350
31D
  3
AcDbVariableDictionary
350
2E7
  3
APPDATA
350
2E0
  0
SUN
  5
2E1
330
29
100
AcDbSun
 90
        1
290
     0
 63
     7
421
 16777215
 40
1.0
291
     1
 91
  2455826
 92
 54000000
292
     0
 70
     2
 71
   256
280
     1
  0
DICTIONARY
  5
2EC
102
{ACAD_REACTORS
330
C
102
}
330
C
100
AcDbDictionary
281
     1
  0
DICTIONARY
  5
D
102
{ACAD_REACTORS
330
C
102
}
330
C
100
AcDbDictionary
281
     1
  0
RASTERVARIABLES
  5
2E2
102
{ACAD_REACTORS
330
C
102
}
330
C
100
AcDbRasterVariables
 90
        0
 70
     1
 71
     1
 72
     1
  0
DICTIONARY
  5
1A
102
{ACAD_REACTORS
330
C
102
}
330
C
100
AcDbDictionary
281
     1
  3
Layout1
350
1E
  3
Layout2
350
26
  3
Model
350
22
  0
DICTIONARY
  5
2D8
102
{ACAD_REACTORS
330
C
102
}
330
C
100
AcDbDictionary
281
     1
  3
ByBlock
350
2DA
  3
ByLayer
350
2D9
  3
Global
350
2DB
  0
DICTIONARY
  5
2DE
102
{ACAD_REACTORS
330
C
102
}
330
C
100
AcDbDictionary
281
     1
  3
Standard
350
2DF
  0
DICTIONARY
  5
17
102
{ACAD_REACTORS
330
C
102
}
330
C
100
AcDbDictionary
281
     1
  3
Standard
350
18
  0
DICTIONARY
  5
19
102
{ACAD_REACTORS
330
C
102
}
330
C
100
AcDbDictionary
281
     1
  0
ACDBDICTIONARYWDFLT
  5
E
102
{ACAD_REACTORS
330
C
102
}
330
C
100
AcDbDictionary
281
     1
  3
Normal
350
F
100
AcDbDictionaryWithDefault
340
F
  0
DICTIONARY
  5
47
102
{ACAD_REACTORS
330
C
102
}
330
C
100
AcDbDictionary
281
     1
  3
A0
350
48
  3
A1
350
49
  3
A2
350
4A
  3
A3
350
4B
  3
A4
350
4C
  3
A5
350
4D
  3
A6
350
4E
  3
A7
350
4F
  3
A8
350
50
  3
A9
350
51
  3
B0
350
52
  3
B1
350
53
  3
B2
350
54
  3
B3
350
55
  3
B4
350
56
  3
B5
350
57
  3
B6
350
58
  3
B7
350
59
  3
B8
350
5A
  3
B9
350
5B
  3
C0
350
5C
  3
C1
350
5D
  3
C2
350
5E
  3
C3
350
5F
  3
C4
350
60
  3
C5
350
61
  3
C6
350
62
  3
C7
350
63
  3
C8
350
64
  3
C9
350
65
  3
D0
350
66
  3
D1
350
67
  3
D2
350
68
  0
DICTIONARY
  5
2ED
102
{ACAD_REACTORS
330
C
102
}
330
C
100
AcDbDictionary
281
     1
  0
DICTIONARY
  5
2DC
102
{ACAD_REACTORS
330
C
102
}
330
C
100
AcDbDictionary
281
     1
  3
Standard
350
2DD
  0
DICTIONARY
  5
2BF
102
{ACAD_REACTORS
330
C
102
}
330
C
100
AcDbDictionary
281
     1
  3
2dWireframe
350
2C4
  3
Basic
350
2C7
  3
Brighten
350
2CB
  3
ColorChange
350
2CF
  3
Conceptual
350
2C9
  3
Dim
350
2CA
  3
EdgeColorOff
350
2D2
  3
Facepattern
350
2CE
  3
Flat
350
2C0
  3
FlatWithEdges
350
2C1
  3
Gouraud
350
2C2
  3
GouraudWithEdges
350
2C3
  3
Hidden
350
2C6
  3
JitterOff
350
2D0
  3
Linepattern
350
2CD
  3
OverhangOff
350
2D1
  3
Realistic
350
2C8
  3
Shaded
350
2D7
  3
Shaded with edges
350
2D6
  3
Shades of Gray
350
2D3
  3
Sketchy
350
2D4
  3
Thicken
350
2CC
  3
Wireframe
350
2C5
  3
X-Ray
350
2D5
  0
XRECORD
  5
31D
102
{ACAD_REACTORS
330
C
102
}
330
C
100
AcDbXrecord
280
     1
 90
        1
330
2DD
  0
DICTIONARY
  5
2E7
102
{ACAD_REACTORS
330
C
102
}
330
C
100
AcDbDictionary
281
     1
  3
CANNOSCALE
350
2E8
  3
CMLEADERSTYLE
350
2EA
  3
CTABLESTYLE
350
2E9
  3
MSLTSCALE
350
2EB
  0
DICTIONARY
  5
2E0
102
{ACAD_REACTORS
330
C
102
}
330
C
100
AcDbDictionary
281
     1
  0
LAYOUT
  5
1E
102
{ACAD_REACTORS
330
1A
102
}
330
1A
100
AcDbPlotSettings
  1

  2
none_device
  4

  6

 40
0.0
 41
0.0
 42
0.0
 43
0.0
 44
0.0
 45
0.0
 46
0.0
 47
0.0
 48
0.0
 49
0.0
140
0.0
141
0.0
142
1.0
143
1.0
 70
   688
 72
     1
 73
     0
 74
     5
  7

 75
    16
 76
     0
 77
     2
 78
   300
147
1.0
148
0.0
149
0.0
100
AcDbLayout
  1
Layout1
 70
     1
 71
     1
 10
0.0
 20
0.0
 11
420.0
 21
297.0
 12
0.0
 22
0.0
 32
0.0
 14
1.000000000000000E+20
 24
1.000000000000000E+20
 34
1.000000000000000E+20
 15
-1.000000000000000E+20
 25
-1.000000000000000E+20
 35
-1.000000000000000E+20
146
0.0
 13
0.0
 23
0.0
 33
0.0
 16
1.0
 26
0.0
 36
0.0
 17
0.0
 27
1.0
 37
0.0
 76
     0
330
1B
  0
LAYOUT
  5
26
102
{ACAD_REACTORS
330
1A
102
}
330
1A
100
AcDbPlotSettings
  1

  2
none_device
  4

  6

 40
0.0
 41
0.0
 42
0.0
 43
0.0
 44
0.0
 45
0.0
 46
0.0
 47
0.0
 48
0.0
 49
0.0
140
0.0
141
0.0
142
1.0
143
1.0
 70
   688
 72
     1
 73
     0
 74
     5
  7

 75
    16
 76
     0
 77
     2
 78
   300
147
1.0
148
0.0
149
0.0
100
AcDbLayout
  1
Layout2
 70
     1
 71
     2
 10
0.0
 20
0.0
 11
0.0
 21
0.0
 12
0.0
 22
0.0
 32
0.0
 14
0.0
 24
0.0
 34
0.0
 15
0.0
 25
0.0
 35
0.0
146
0.0
 13
0.0
 23
0.0
 33
0.0
 16
1.0
 26
0.0
 36
0.0
 17
0.0
 27
1.0
 37
0.0
 76
     0
330
23
  0
LAYOUT
  5
22
102
{ACAD_REACTORS
330
1A
102
}
330
1A
100
AcDbPlotSettings
  1

  2
none_device
  4
Letter_(8.50_x_11.00_Inches)
  6

 40
6.35
 41
6.35
 42
6.35000508
 43
6.35000508
 44
215.9
 45
279.4
 46
0.0
 47
0.0
 48
0.0
 49
0.0
140
0.0
141
0.0
142
1.0
143
1.0
 70
  1712
 72
     1
 73
     0
 74
     0
  7

 75
     0
 76
     0
 77
     2
 78
   300
147
1.0
148
0.0
149
0.0
100
AcDbLayout
  1
Model
 70
     1
 71
     0
 10
0.0
 20
0.0
 11
420.0
 21
297.0
 12
0.0
 22
0.0
 32
0.0
 14
77.02610504242887
 24
36.04576852556892
 34
0.0
 15
511.7628877022614
 25
424.2224044566738
 35
0.0
146
0.0
 13
0.0
 23
0.0
 33
0.0
 16
1.0
 26
0.0
 36
0.0
 17
0.0
 27
1.0
 37
0.0
 76
     0
330
1F
331
29
  0
MATERIAL
  5
2DA
102
{ACAD_REACTORS
330
2D8
102
}
330
2D8
100
AcDbMaterial
  1
ByBlock
 72
     1
 94
      127
  0
MATERIAL
  5
2D9
102
{ACAD_REACTORS
330
2D8
102
}
330
2D8
100
AcDbMaterial
  1
ByLayer
 72
     1
 94
      127
  0
MATERIAL
  5
2DB
102
{ACAD_REACTORS
330
2D8
102
}
330
2D8
100
AcDbMaterial
  1
Global
 72
     1
 94
      127
  0
MLEADERSTYLE
  5
2DF
102
{ACAD_REACTORS
330
2DE
102
}
330
2DE
100
AcDbMLeaderStyle
179
     2
170
     2
171
     1
172
     0
 90
        2
 40
0.0
 41
0.0
173
     1
 91
-1056964608
340
14
 92
       -2
290
     1
 42
2.0
291
     1
 43
8.0
  3
Standard
341
0
 44
4.0
300

342
11
174
     1
178
     6
175
     1
176
     0
 93
-1056964608
 45
4.0
292
     0
297
     0
 46
4.0
343
0
 94
-1056964608
 47
1.0
 49
1.0
140
1.0
293
     1
141
0.0
294
     1
177
     0
142
1.0
295
     0
296
     0
143
3.75
271
     0
272
     9
273
     9
298
     0
  0
MLINESTYLE
  5
18
102
{ACAD_REACTORS
330
17
102
}
330
17
100
AcDbMlineStyle
  2
Standard
 70
     0
  3

 62
   256
 51
90.0
 52
90.0
 71
     2
 49
0.5
 62
   256
  6
BYLAYER
 49
-0.5
 62
   256
  6
BYLAYER
  0
ACDBPLACEHOLDER
  5
F
102
{ACAD_REACTORS
330
E
102
}
330
E
  0
SCALE
  5
48
102
{ACAD_REACTORS
330
47
102
}
330
47
100
AcDbScale
 70
     0
300
1:1
140
1.0
141
1.0
290
     1
  0
SCALE
  5
49
102
{ACAD_REACTORS
330
47
102
}
330
47
100
AcDbScale
 70
     0
300
1:2
140
1.0
141
2.0
290
     0
  0
SCALE
  5
4A
102
{ACAD_REACTORS
330
47
102
}
330
47
100
AcDbScale
 70
     0
300
1:4
140
1.0
141
4.0
290
     0
  0
SCALE
  5
4B
102
{ACAD_REACTORS
330
47
102
}
330
47
100
AcDbScale
 70
     0
300
1:5
140
1.0
141
5.0
290
     0
  0
SCALE
  5
4C
102
{ACAD_REACTORS
330
47
102
}
330
47
100
AcDbScale
 70
     0
300
1:8
140
1.0
141
8.0
290
     0
  0
SCALE
  5
4D
102
{ACAD_REACTORS
330
47
102
}
330
47
100
AcDbScale
 70
     0
300
1:10
140
1.0
141
10.0
290
     0
  0
SCALE
  5
4E
102
{ACAD_REACTORS
330
47
102
}
330
47
100
AcDbScale
 70
     0
300
1:16
140
1.0
141
16.0
290
     0
  0
SCALE
  5
4F
102
{ACAD_REACTORS
330
47
102
}
330
47
100
AcDbScale
 70
     0
300
1:20
140
1.0
141
20.0
290
     0
  0
SCALE
  5
50
102
{ACAD_REACTORS
330
47
102
}
330
47
100
AcDbScale
 70
     0
300
1:30
140
1.0
141
30.0
290
     0
  0
SCALE
  5
51
102
{ACAD_REACTORS
330
47
102
}
330
47
100
AcDbScale
 70
     0
300
1:40
140
1.0
141
40.0
290
     0
  0
SCALE
  5
52
102
{ACAD_REACTORS
330
47
102
}
330
47
100
AcDbScale
 70
     0
300
1:50
140
1.0
141
50.0
290
     0
  0
SCALE
  5
53
102
{ACAD_REACTORS
330
47
102
}
330
47
100
AcDbScale
 70
     0
300
1:100
140
1.0
141
100.0
290
     0
  0
SCALE
  5
54
102
{ACAD_REACTORS
330
47
102
}
330
47
100
AcDbScale
 70
     0
300
2:1
140
2.0
141
1.0
290
     0
  0
SCALE
  5
55
102
{ACAD_REACTORS
330
47
102
}
330
47
100
AcDbScale
 70
     0
300
4:1
140
4.0
141
1.0
290
     0
  0
SCALE
  5
56
102
{ACAD_REACTORS
330
47
102
}
330
47
100
AcDbScale
 70
     0
300
8:1
140
8.0
141
1.0
290
     0
  0
SCALE
  5
57
102
{ACAD_REACTORS
330
47
102
}
330
47
100
AcDbScale
 70
     0
300
10:1
140
10.0
141
1.0
290
     0
  0
SCALE
  5
58
102
{ACAD_REACTORS
330
47
102
}
330
47
100
AcDbScale
 70
     0
300
100:1
140
100.0
141
1.0
290
     0
  0
SCALE
  5
59
102
{ACAD_REACTORS
330
47
102
}
330
47
100
AcDbScale
 70
     0
300
1/128" = 1'-0"
140
0.0078125
141
12.0
290
     0
  0
SCALE
  5
5A
102
{ACAD_REACTORS
330
47
102
}
330
47
100
AcDbScale
 70
     0
300
1/64" = 1'-0"
140
0.015625
141
12.0
290
     0
  0
SCALE
  5
5B
102
{ACAD_REACTORS
330
47
102
}
330
47
100
AcDbScale
 70
     0
300
1/32" = 1'-0"
140
0.03125
141
12.0
290
     0
  0
SCALE
  5
5C
102
{ACAD_REACTORS
330
47
102
}
330
47
100
AcDbScale
 70
     0
300
1/16" = 1'-0"
140
0.0625
141
12.0
290
     0
  0
SCALE
  5
5D
102
{ACAD_REACTORS
330
47
102
}
330
47
100
AcDbScale
 70
     0
300
3/32" = 1'-0"
140
0.09375
141
12.0
290
     0
  0
SCALE
  5
5E
102
{ACAD_REACTORS
330
47
102
}
330
47
100
AcDbScale
 70
     0
300
1/8" = 1'-0"
140
0.125
141
12.0
290
     0
  0
SCALE
  5
5F
102
{ACAD_REACTORS
330
47
102
}
330
47
100
AcDbScale
 70
     0
300
3/16" = 1'-0"
140
0.1875
141
12.0
290
     0
  0
SCALE
  5
60
102
{ACAD_REACTORS
330
47
102
}
330
47
100
AcDbScale
 70
     0
300
1/4" = 1'-0"
140
0.25
141
12.0
290
     0
  0
SCALE
  5
61
102
{ACAD_REACTORS
330
47
102
}
330
47
100
AcDbScale
 70
     0
300
3/8" = 1'-0"
140
0.375
141
12.0
290
     0
  0
SCALE
  5
62
102
{ACAD_REACTORS
330
47
102
}
330
47
100
AcDbScale
 70
     0
300
1/2" = 1'-0"
140
0.5
141
12.0
290
     0
  0
SCALE
  5
63
102
{ACAD_REACTORS
330
47
102
}
330
47
100
AcDbScale
 70
     0
300
3/4" = 1'-0"
140
0.75
141
12.0
290
     0
  0
SCALE
  5
64
102
{ACAD_REACTORS
330
47
102
}
330
47
100
AcDbScale
 70
     0
300
1" = 1'-0"
140
1.0
141
12.0
290
     0
  0
SCALE
  5
65
102
{ACAD_REACTORS
330
47
102
}
330
47
100
AcDbScale
 70
     0
300
1-1/2" = 1'-0"
140
1.5
141
12.0
290
     0
  0
SCALE
  5
66
102
{ACAD_REACTORS
330
47
102
}
330
47
100
AcDbScale
 70
     0
300
3" = 1'-0"
140
3.0
141
12.0
290
     0
  0
SCALE
  5
67
102
{ACAD_REACTORS
330
47
102
}
330
47
100
AcDbScale
 70
     0
300
6" = 1'-0"
140
6.0
141
12.0
290
     0
  0
SCALE
  5
68
102
{ACAD_REACTORS
330
47
102
}
330
47
100
AcDbScale
 70
     0
300
1'-0" = 1'-0"
140
12.0
141
12.0
290
     0
  0
TABLESTYLE
  5
2DD
102
{ACAD_REACTORS
330
2DC
102
}
102
{ACAD_XDICTIONARY
360
31B
102
}
330
2DC
100
AcDbTableStyle
  3
Standard
 70
     0
 71
     0
 40
0.06
 41
0.06
280
     0
281
     0
  7
Standard
140
4.5
170
     2
 62
     0
 63
   257
283
     0
 90
        4
 91
        0
  1

274
    -2
284
     1
 64
     0
275
    -2
285
     1
 65
     0
276
    -2
286
     1
 66
     0
277
    -2
287
     1
 67
     0
278
    -2
288
     1
 68
     0
279
    -2
289
     1
 69
     0
  7
Standard
140
6.0
170
     5
 62
     0
 63
   257
283
     0
 90
        4
 91
        0
  1

274
    -2
284
     1
 64
     0
275
    -2
285
     1
 65
     0
276
    -2
286
     1
 66
     0
277
    -2
287
     1
 67
     0
278
    -2
288
     1
 68
     0
279
    -2
289
     1
 69
     0
  7
Standard
140
4.5
170
     5
 62
     0
 63
   257
283
     0
 90
        4
 91
        0
  1

274
    -2
284
     1
 64
     0
275
    -2
285
     1
 65
     0
276
    -2
286
     1
 66
     0
277
    -2
287
     1
 67
     0
278
    -2
288
     1
 68
     0
279
    -2
289
     1
 69
     0
  0
VISUALSTYLE
  5
2C4
102
{ACAD_REACTORS
330
2BF
102
}
330
2BF
100
AcDbVisualStyle
  2
2dWireframe
 70
     4
177
     3
291
     0
 70
    58
 90
        0
176
     1
 90
        2
176
     1
 90
        0
176
     1
 90
        0
176
     1
 40
0.6
176
     1
 40
30.0
176
     1
 62
     7
420
 16777215
176
     1
 90
        1
176
     1
 90
        4
176
     1
 62
     7
176
     1
 62
   257
176
     1
 90
        1
176
     1
 90
        1
176
     1
 40
1.0
176
     1
 90
        0
176
     1
 62
   257
176
     1
 40
1.0
176
     1
 90
        1
176
     1
 90
        6
176
     1
 90
        2
176
     1
 62
     7
176
     1
 90
        5
176
     1
 90
        0
176
     1
 90
        0
176
     1
290
     0
176
     1
 90
        1
176
     1
 40
0.0
176
     1
 90
        0
176
     1
290
     1
176
     1
290
     1
176
     1
290
     0
176
     1
290
     0
176
     1
290
     0
176
     1
290
     0
176
     1
290
     0
176
     1
290
     0
176
     1
290
     0
176
     1
 90
       50
176
     1
 40
0.0
176
     1
 40
1.0
176
     1
 90
        0
176
     1
 62
    18
420
        0
176
     1
 90
       50
176
     1
 90
        3
176
     1
 62
     5
420
      255
176
     1
290
     0
176
     1
 90
       50
176
     1
 90
       50
176
     1
 90
       50
176
     1
290
     0
176
     1
 90
       50
176
     1
 62
   256
176
     0
 40
1.0
176
     0
 90
        2
176
     1
  1
strokes_ogs.tif
176
     1
290
     0
176
     1
 40
1.0
176
     1
 40
1.0
176
     1
  0
VISUALSTYLE
  5
2C7
102
{ACAD_REACTORS
330
2BF
102
}
330
2BF
100
AcDbVisualStyle
  2
Basic
 70
     7
177
     3
291
     1
 70
    58
 90
        1
176
     1
 90
        0
176
     1
 90
        1
176
     1
 90
        0
176
     1
 40
0.6
176
     1
 40
30.0
176
     1
 62
     7
420
 16777215
176
     1
 90
        0
176
     1
 90
        4
176
     1
 62
     7
176
     1
 62
   257
176
     1
 90
        1
176
     1
 90
        1
176
     1
 40
1.0
176
     1
 90
        8
176
     1
 62
     7
176
     1
 40
1.0
176
     1
 90
        1
176
     1
 90
        6
176
     1
 90
        2
176
     1
 62
     7
176
     1
 90
        5
176
     1
 90
        0
176
     1
 90
        0
176
     1
290
     0
176
     1
 90
        1
176
     1
 40
0.0
176
     1
 90
        0
176
     1
290
     0
176
     1
290
     1
176
     1
290
     1
176
     1
290
     0
176
     1
290
     0
176
     1
290
     0
176
     1
290
     0
176
     1
290
     0
176
     1
290
     0
176
     1
 90
       50
176
     1
 40
0.0
176
     1
 40
1.0
176
     1
 90
        0
176
     1
 62
    18
420
        0
176
     1
 90
       50
176
     1
 90
        3
176
     1
 62
     5
420
      255
176
     1
290
     0
176
     1
 90
       50
176
     1
 90
       50
176
     1
 90
       50
176
     1
290
     0
176
     1
 90
       50
176
     1
 62
   256
176
     0
 40
1.0
176
     0
 90
        2
176
     1
  1
strokes_ogs.tif
176
     1
290
     0
176
     1
 40
1.0
176
     1
 40
1.0
176
     1
  0
VISUALSTYLE
  5
2CB
102
{ACAD_REACTORS
330
2BF
102
}
330
2BF
100
AcDbVisualStyle
  2
Brighten
 70
    12
177
     3
291
     1
 70
    58
 90
        2
176
     1
 90
        2
176
     1
 90
        0
176
     1
 90
        0
176
     1
 40
0.6
176
     1
 40
30.0
176
     1
 62
     7
420
 16777215
176
     1
 90
        1
176
     1
 90
        4
176
     1
 62
     7
176
     1
 62
   257
176
     1
 90
        1
176
     1
 90
        1
176
     1
 40
1.0
176
     1
 90
        8
176
     1
 62
     7
176
     1
 40
1.0
176
     1
 90
        1
176
     1
 90
        6
176
     1
 90
        2
176
     1
 62
     7
176
     1
 90
        5
176
     1
 90
        0
176
     1
 90
        0
176
     1
290
     0
176
     1
 90
        1
176
     1
 40
50.0
176
     1
 90
        0
176
     1
290
     0
176
     1
290
     1
176
     1
290
     1
176
     1
290
     0
176
     1
290
     0
176
     1
290
     0
176
     1
290
     0
176
     1
290
     0
176
     1
290
     0
176
     1
 90
       50
176
     1
 40
0.0
176
     1
 40
1.0
176
     1
 90
        0
176
     1
 62
    18
420
        0
176
     1
 90
       50
176
     1
 90
        3
176
     1
 62
     5
420
      255
176
     1
290
     0
176
     1
 90
       50
176
     1
 90
       50
176
     1
 90
       50
176
     1
290
     0
176
     1
 90
       50
176
     1
 62
   256
176
     0
 40
1.0
176
     0
 90
        2
176
     1
  1
strokes_ogs.tif
176
     1
290
     0
176
     1
 40
1.0
176
     1
 40
1.0
176
     1
  0
VISUALSTYLE
  5
2CF
102
{ACAD_REACTORS
330
2BF
102
}
330
2BF
100
AcDbVisualStyle
  2
ColorChange
 70
    16
177
     3
291
     1
 70
    58
 90
        2
176
     1
 90
        2
176
     1
 90
        3
176
     1
 90
        0
176
     1
 40
0.6
176
     1
 40
30.0
176
     1
 62
     8
420
  8421504
176
     1
 90
        1
176
     1
 90
        4
176
     1
 62
     7
176
     1
 62
   257
176
     1
 90
        1
176
     1
 90
        1
176
     1
 40
1.0
176
     1
 90
        8
176
     1
 62
     8
420
  8421504
176
     1
 40
1.0
176
     1
 90
        1
176
     1
 90
        6
176
     1
 90
        2
176
     1
 62
     7
176
     1
 90
        5
176
     1
 90
        0
176
     1
 90
        0
176
     1
290
     0
176
     1
 90
        1
176
     1
 40
0.0
176
     1
 90
        0
176
     1
290
     0
176
     1
290
     1
176
     1
290
     1
176
     1
290
     0
176
     1
290
     0
176
     1
290
     0
176
     1
290
     0
176
     1
290
     0
176
     1
290
     0
176
     1
 90
       50
176
     1
 40
0.0
176
     1
 40
1.0
176
     1
 90
        0
176
     1
 62
    18
420
        0
176
     1
 90
       50
176
     1
 90
        3
176
     1
 62
     5
420
      255
176
     1
290
     0
176
     1
 90
       50
176
     1
 90
       50
176
     1
 90
       50
176
     1
290
     0
176
     1
 90
       50
176
     1
 62
   256
176
     0
 40
1.0
176
     0
 90
        2
176
     1
  1
strokes_ogs.tif
176
     1
290
     0
176
     1
 40
1.0
176
     1
 40
1.0
176
     1
  0
VISUALSTYLE
  5
2C9
102
{ACAD_REACTORS
330
2BF
102
}
330
2BF
100
AcDbVisualStyle
  2
Conceptual
 70
     9
177
     3
291
     0
 70
    58
 90
        3
176
     1
 90
        2
176
     1
 90
        0
176
     1
 90
        0
176
     1
 40
0.6
176
     1
 40
30.0
176
     1
 62
     7
420
 16777215
176
     1
 90
        2
176
     1
 90
        2
176
     1
 62
     7
176
     1
 62
   257
176
     1
 90
        1
176
     1
 90
        1
176
     1
 40
179.0
176
     1
 90
        8
176
     1
 62
     7
176
     1
 40
1.0
176
     1
 90
        1
176
     1
 90
        6
176
     1
 90
        2
176
     1
 62
     7
176
     1
 90
        3
176
     1
 90
        0
176
     1
 90
        0
176
     1
290
     0
176
     1
 90
        1
176
     1
 40
0.0
176
     1
 90
        0
176
     1
290
     0
176
     1
290
     1
176
     1
290
     1
176
     1
290
     0
176
     1
290
     0
176
     1
290
     0
176
     1
290
     0
176
     1
290
     0
176
     1
290
     0
176
     1
 90
       50
176
     1
 40
0.0
176
     1
 40
1.0
176
     1
 90
        0
176
     1
 62
    18
420
        0
176
     1
 90
       50
176
     1
 90
        3
176
     1
 62
     5
420
      255
176
     1
290
     0
176
     1
 90
       50
176
     1
 90
       50
176
     1
 90
       50
176
     1
290
     0
176
     1
 90
       50
176
     1
 62
   256
176
     0
 40
1.0
176
     0
 90
        2
176
     1
  1
strokes_ogs.tif
176
     1
290
     0
176
     1
 40
1.0
176
     1
 40
1.0
176
     1
  0
VISUALSTYLE
  5
2CA
102
{ACAD_REACTORS
330
2BF
102
}
330
2BF
100
AcDbVisualStyle
  2
Dim
 70
    11
177
     3
291
     1
 70
    58
 90
        2
176
     1
 90
        2
176
     1
 90
        0
176
     1
 90
        0
176
     1
 40
0.6
176
     1
 40
30.0
176
     1
 62
     7
420
 16777215
176
     1
 90
        1
176
     1
 90
        4
176
     1
 62
     7
176
     1
 62
   257
176
     1
 90
        1
176
     1
 90
        1
176
     1
 40
1.0
176
     1
 90
        8
176
     1
 62
     7
176
     1
 40
1.0
176
     1
 90
        1
176
     1
 90
        6
176
     1
 90
        2
176
     1
 62
     7
176
     1
 90
        5
176
     1
 90
        0
176
     1
 90
        0
176
     1
290
     0
176
     1
 90
        1
176
     1
 40
-50.0
176
     1
 90
        0
176
     1
290
     0
176
     1
290
     1
176
     1
290
     1
176
     1
290
     0
176
     1
290
     0
176
     1
290
     0
176
     1
290
     0
176
     1
290
     0
176
     1
290
     0
176
     1
 90
       50
176
     1
 40
0.0
176
     1
 40
1.0
176
     1
 90
        0
176
     1
 62
    18
420
        0
176
     1
 90
       50
176
     1
 90
        3
176
     1
 62
     5
420
      255
176
     1
290
     0
176
     1
 90
       50
176
     1
 90
       50
176
     1
 90
       50
176
     1
290
     0
176
     1
 90
       50
176
     1
 62
   256
176
     0
 40
1.0
176
     0
 90
        2
176
     1
  1
strokes_ogs.tif
176
     1
290
     0
176
     1
 40
1.0
176
     1
 40
1.0
176
     1
  0
VISUALSTYLE
  5
2D2
102
{ACAD_REACTORS
330
2BF
102
}
330
2BF
100
AcDbVisualStyle
  2
EdgeColorOff
 70
    22
177
     3
291
     1
 70
    58
 90
        2
176
     0
 90
        2
176
     0
 90
        0
176
     0
 90
        0
176
     0
 40
0.6
176
     0
 40
30.0
176
     0
 62
     7
420
 16777215
176
     0
 90
        1
176
     0
 90
        4
176
     0
 62
     7
176
     0
 62
   257
176
     0
 90
        1
176
     0
 90
        1
176
     0
 40
1.0
176
     0
 90
        8
176
     2
 62
     7
176
     0
 40
1.0
176
     0
 90
        1
176
     0
 90
        6
176
     0
 90
        2
176
     0
 62
     7
176
     0
 90
        5
176
     0
 90
        0
176
     0
 90
        0
176
     0
290
     0
176
     0
 90
        1
176
     0
 40
0.0
176
     0
 90
        0
176
     0
290
     0
176
     0
290
     1
176
     0
290
     1
176
     0
290
     0
176
     0
290
     0
176
     0
290
     0
176
     0
290
     0
176
     0
290
     0
176
     0
290
     0
176
     0
 90
       50
176
     0
 40
0.0
176
     0
 40
1.0
176
     0
 90
        0
176
     0
 62
    18
420
        0
176
     0
 90
       50
176
     0
 90
        3
176
     0
 62
     5
420
      255
176
     0
290
     0
176
     0
 90
       50
176
     0
 90
       50
176
     0
 90
       50
176
     0
290
     0
176
     0
 90
       50
176
     0
 62
   256
176
     0
 40
1.0
176
     0
 90
        2
176
     0
  1
strokes_ogs.tif
176
     0
290
     0
176
     0
 40
1.0
176
     0
 40
1.0
176
     0
  0
VISUALSTYLE
  5
2CE
102
{ACAD_REACTORS
330
2BF
102
}
330
2BF
100
AcDbVisualStyle
  2
Facepattern
 70
    15
177
     3
291
     1
 70
    58
 90
        2
176
     1
 90
        2
176
     1
 90
        0
176
     1
 90
        0
176
     1
 40
0.6
176
     1
 40
30.0
176
     1
 62
     7
420
 16777215
176
     1
 90
        1
176
     1
 90
        4
176
     1
 62
     7
176
     1
 62
   257
176
     1
 90
        1
176
     1
 90
        1
176
     1
 40
1.0
176
     1
 90
        8
176
     1
 62
     7
176
     1
 40
1.0
176
     1
 90
        1
176
     1
 90
        6
176
     1
 90
        2
176
     1
 62
     7
176
     1
 90
        5
176
     1
 90
        0
176
     1
 90
        0
176
     1
290
     0
176
     1
 90
        1
176
     1
 40
0.0
176
     1
 90
        0
176
     1
290
     0
176
     1
290
     1
176
     1
290
     1
176
     1
290
     0
176
     1
290
     0
176
     1
290
     0
176
     1
290
     0
176
     1
290
     0
176
     1
290
     0
176
     1
 90
       50
176
     1
 40
0.0
176
     1
 40
1.0
176
     1
 90
        0
176
     1
 62
    18
420
        0
176
     1
 90
       50
176
     1
 90
        3
176
     1
 62
     5
420
      255
176
     1
290
     0
176
     1
 90
       50
176
     1
 90
       50
176
     1
 90
       50
176
     1
290
     0
176
     1
 90
       50
176
     1
 62
   256
176
     0
 40
1.0
176
     0
 90
        2
176
     1
  1
strokes_ogs.tif
176
     1
290
     0
176
     1
 40
1.0
176
     1
 40
1.0
176
     1
  0
VISUALSTYLE
  5
2C0
102
{ACAD_REACTORS
330
2BF
102
}
330
2BF
100
AcDbVisualStyle
  2
Flat
 70
     0
177
     3
291
     1
 70
    58
 90
        2
176
     1
 90
        1
176
     1
 90
        1
176
     1
 90
        2
176
     1
 40
0.6
176
     1
 40
30.0
176
     1
 62
     7
420
 16777215
176
     1
 90
        0
176
     1
 90
        0
176
     1
 62
     7
176
     1
 62
   257
176
     1
 90
        1
176
     1
 90
        1
176
     1
 40
1.0
176
     1
 90
        8
176
     1
 62
     7
176
     1
 40
1.0
176
     1
 90
        1
176
     1
 90
        6
176
     1
 90
        2
176
     1
 62
     7
176
     1
 90
        5
176
     1
 90
        0
176
     1
 90
        0
176
     1
290
     0
176
     1
 90
       13
176
     1
 40
0.0
176
     1
 90
        0
176
     1
290
     0
176
     1
290
     1
176
     1
290
     1
176
     1
290
     0
176
     1
290
     0
176
     1
290
     0
176
     1
290
     0
176
     1
290
     0
176
     1
290
     0
176
     1
 90
       50
176
     1
 40
0.0
176
     1
 40
1.0
176
     1
 90
        0
176
     1
 62
    18
420
        0
176
     1
 90
       50
176
     1
 90
        3
176
     1
 62
     5
420
      255
176
     1
290
     0
176
     1
 90
       50
176
     1
 90
       50
176
     1
 90
       50
176
     1
290
     0
176
     1
 90
       50
176
     1
 62
   256
176
     0
 40
1.0
176
     0
 90
        2
176
     1
  1
strokes_ogs.tif
176
     1
290
     0
176
     1
 40
1.0
176
     1
 40
1.0
176
     1
  0
VISUALSTYLE
  5
2C1
102
{ACAD_REACTORS
330
2BF
102
}
330
2BF
100
AcDbVisualStyle
  2
FlatWithEdges
 70
     1
177
     3
291
     1
 70
    58
 90
        2
176
     1
 90
        1
176
     1
 90
        1
176
     1
 90
        2
176
     1
 40
0.6
176
     1
 40
30.0
176
     1
 62
     7
420
 16777215
176
     1
 90
        1
176
     1
 90
        0
176
     1
 62
     7
176
     1
 62
   257
176
     1
 90
        1
176
     1
 90
        1
176
     1
 40
1.0
176
     1
 90
        0
176
     1
 62
   257
176
     1
 40
1.0
176
     1
 90
        1
176
     1
 90
        6
176
     1
 90
        2
176
     1
 62
     7
176
     1
 90
        5
176
     1
 90
        0
176
     1
 90
        0
176
     1
290
     0
176
     1
 90
       13
176
     1
 40
0.0
176
     1
 90
        0
176
     1
290
     0
176
     1
290
     1
176
     1
290
     1
176
     1
290
     0
176
     1
290
     0
176
     1
290
     0
176
     1
290
     0
176
     1
290
     0
176
     1
290
     0
176
     1
 90
       50
176
     1
 40
0.0
176
     1
 40
1.0
176
     1
 90
        0
176
     1
 62
    18
420
        0
176
     1
 90
       50
176
     1
 90
        3
176
     1
 62
     5
420
      255
176
     1
290
     0
176
     1
 90
       50
176
     1
 90
       50
176
     1
 90
       50
176
     1
290
     0
176
     1
 90
       50
176
     1
 62
   256
176
     0
 40
1.0
176
     0
 90
        2
176
     1
  1
strokes_ogs.tif
176
     1
290
     0
176
     1
 40
1.0
176
     1
 40
1.0
176
     1
  0
VISUALSTYLE
  5
2C2
102
{ACAD_REACTORS
330
2BF
102
}
330
2BF
100
AcDbVisualStyle
  2
Gouraud
 70
     2
177
     3
291
     1
 70
    58
 90
        2
176
     1
 90
        2
176
     1
 90
        1
176
     1
 90
        2
176
     1
 40
0.6
176
     1
 40
30.0
176
     1
 62
     7
420
 16777215
176
     1
 90
        0
176
     1
 90
        0
176
     1
 62
     7
176
     1
 62
   257
176
     1
 90
        1
176
     1
 90
        1
176
     1
 40
1.0
176
     1
 90
        0
176
     1
 62
     7
176
     1
 40
1.0
176
     1
 90
        1
176
     1
 90
        6
176
     1
 90
        2
176
     1
 62
     7
176
     1
 90
        5
176
     1
 90
        0
176
     1
 90
        0
176
     1
290
     0
176
     1
 90
       13
176
     1
 40
0.0
176
     1
 90
        0
176
     1
290
     0
176
     1
290
     1
176
     1
290
     1
176
     1
290
     0
176
     1
290
     0
176
     1
290
     0
176
     1
290
     0
176
     1
290
     0
176
     1
290
     0
176
     1
 90
       50
176
     1
 40
0.0
176
     1
 40
1.0
176
     1
 90
        0
176
     1
 62
    18
420
        0
176
     1
 90
       50
176
     1
 90
        3
176
     1
 62
     5
420
      255
176
     1
290
     0
176
     1
 90
       50
176
     1
 90
       50
176
     1
 90
       50
176
     1
290
     0
176
     1
 90
       50
176
     1
 62
   256
176
     0
 40
1.0
176
     0
 90
        2
176
     1
  1
strokes_ogs.tif
176
     1
290
     0
176
     1
 40
1.0
176
     1
 40
1.0
176
     1
  0
VISUALSTYLE
  5
2C3
102
{ACAD_REACTORS
330
2BF
102
}
330
2BF
100
AcDbVisualStyle
  2
GouraudWithEdges
 70
     3
177
     3
291
     1
 70
    58
 90
        2
176
     1
 90
        2
176
     1
 90
        1
176
     1
 90
        2
176
     1
 40
0.6
176
     1
 40
30.0
176
     1
 62
     7
420
 16777215
176
     1
 90
        1
176
     1
 90
        0
176
     1
 62
     7
176
     1
 62
   257
176
     1
 90
        1
176
     1
 90
        1
176
     1
 40
1.0
176
     1
 90
        0
176
     1
 62
   257
176
     1
 40
1.0
176
     1
 90
        1
176
     1
 90
        6
176
     1
 90
        2
176
     1
 62
     7
176
     1
 90
        5
176
     1
 90
        0
176
     1
 90
        0
176
     1
290
     0
176
     1
 90
       13
176
     1
 40
0.0
176
     1
 90
        0
176
     1
290
     0
176
     1
290
     1
176
     1
290
     1
176
     1
290
     0
176
     1
290
     0
176
     1
290
     0
176
     1
290
     0
176
     1
290
     0
176
     1
290
     0
176
     1
 90
       50
176
     1
 40
0.0
176
     1
 40
1.0
176
     1
 90
        0
176
     1
 62
    18
420
        0
176
     1
 90
       50
176
     1
 90
        3
176
     1
 62
     5
420
      255
176
     1
290
     0
176
     1
 90
       50
176
     1
 90
       50
176
     1
 90
       50
176
     1
290
     0
176
     1
 90
       50
176
     1
 62
   256
176
     0
 40
1.0
176
     0
 90
        2
176
     1
  1
strokes_ogs.tif
176
     1
290
     0
176
     1
 40
1.0
176
     1
 40
1.0
176
     1
  0
VISUALSTYLE
  5
2C6
102
{ACAD_REACTORS
330
2BF
102
}
330
2BF
100
AcDbVisualStyle
  2
Hidden
 70
     6
177
     3
291
     0
 70
    58
 90
        1
176
     1
 90
        2
176
     1
 90
        2
176
     1
 90
        0
176
     1
 40
0.6
176
     1
 40
30.0
176
     1
 62
     7
420
 16777215
176
     1
 90
        2
176
     1
 90
        2
176
     1
 62
     7
176
     1
 62
   257
176
     1
 90
        2
176
     1
 90
        1
176
     1
 40
40.0
176
     1
 90
        0
176
     1
 62
   257
176
     1
 40
1.0
176
     1
 90
        1
176
     1
 90
        6
176
     1
 90
        2
176
     1
 62
     7
176
     1
 90
        3
176
     1
 90
        0
176
     1
 90
        0
176
     1
290
     0
176
     1
 90
        1
176
     1
 40
0.0
176
     1
 90
        0
176
     1
290
     0
176
     1
290
     1
176
     1
290
     1
176
     1
290
     0
176
     1
290
     0
176
     1
290
     0
176
     1
290
     0
176
     1
290
     0
176
     1
290
     0
176
     1
 90
       50
176
     1
 40
0.0
176
     1
 40
1.0
176
     1
 90
        0
176
     1
 62
    18
420
        0
176
     1
 90
       50
176
     1
 90
        3
176
     1
 62
     5
420
      255
176
     1
290
     0
176
     1
 90
       50
176
     1
 90
       50
176
     1
 90
       50
176
     1
290
     0
176
     1
 90
       50
176
     1
 62
   256
176
     0
 40
1.0
176
     0
 90
        2
176
     1
  1
strokes_ogs.tif
176
     1
290
     0
176
     1
 40
1.0
176
     1
 40
1.0
176
     1
  0
VISUALSTYLE
  5
2D0
102
{ACAD_REACTORS
330
2BF
102
}
330
2BF
100
AcDbVisualStyle
  2
JitterOff
 70
    20
177
     3
291
     1
 70
    58
 90
        2
176
     0
 90
        2
176
     0
 90
        0
176
     0
 90
        0
176
     0
 40
0.6
176
     0
 40
30.0
176
     0
 62
     7
420
 16777215
176
     0
 90
        1
176
     0
 90
        4
176
     0
 62
     7
176
     0
 62
   257
176
     0
 90
        1
176
     0
 90
        1
176
     0
 40
1.0
176
     0
 90
       10
176
     2
 62
     7
176
     0
 40
1.0
176
     0
 90
        1
176
     0
 90
        6
176
     0
 90
        2
176
     0
 62
     7
176
     0
 90
        5
176
     0
 90
        0
176
     0
 90
        0
176
     0
290
     0
176
     0
 90
        1
176
     0
 40
0.0
176
     0
 90
        0
176
     0
290
     0
176
     0
290
     1
176
     0
290
     1
176
     0
290
     0
176
     0
290
     0
176
     0
290
     0
176
     0
290
     0
176
     0
290
     0
176
     0
290
     0
176
     0
 90
       50
176
     0
 40
0.0
176
     0
 40
1.0
176
     0
 90
        0
176
     0
 62
    18
420
        0
176
     0
 90
       50
176
     0
 90
        3
176
     0
 62
     5
420
      255
176
     0
290
     0
176
     0
 90
       50
176
     0
 90
       50
176
     0
 90
       50
176
     0
290
     0
176
     0
 90
       50
176
     0
 62
   256
176
     0
 40
1.0
176
     0
 90
        2
176
     0
  1
strokes_ogs.tif
176
     0
290
     0
176
     0
 40
1.0
176
     0
 40
1.0
176
     0
  0
VISUALSTYLE
  5
2CD
102
{ACAD_REACTORS
330
2BF
102
}
330
2BF
100
AcDbVisualStyle
  2
Linepattern
 70
    14
177
     3
291
     1
 70
    58
 90
        2
176
     1
 90
        2
176
     1
 90
        0
176
     1
 90
        0
176
     1
 40
0.6
176
     1
 40
30.0
176
     1
 62
     7
420
 16777215
176
     1
 90
        1
176
     1
 90
        4
176
     1
 62
     7
176
     1
 62
   257
176
     1
 90
        7
176
     1
 90
        7
176
     1
 40
1.0
176
     1
 90
        8
176
     1
 62
     7
176
     1
 40
1.0
176
     1
 90
        1
176
     1
 90
        6
176
     1
 90
        2
176
     1
 62
     7
176
     1
 90
        5
176
     1
 90
        0
176
     1
 90
        0
176
     1
290
     0
176
     1
 90
        1
176
     1
 40
0.0
176
     1
 90
        0
176
     1
290
     0
176
     1
290
     1
176
     1
290
     1
176
     1
290
     0
176
     1
290
     0
176
     1
290
     0
176
     1
290
     0
176
     1
290
     0
176
     1
290
     0
176
     1
 90
       50
176
     1
 40
0.0
176
     1
 40
1.0
176
     1
 90
        0
176
     1
 62
    18
420
        0
176
     1
 90
       50
176
     1
 90
        3
176
     1
 62
     5
420
      255
176
     1
290
     0
176
     1
 90
       50
176
     1
 90
       50
176
     1
 90
       50
176
     1
290
     0
176
     1
 90
       50
176
     1
 62
   256
176
     0
 40
1.0
176
     0
 90
        2
176
     1
  1
strokes_ogs.tif
176
     1
290
     0
176
     1
 40
1.0
176
     1
 40
1.0
176
     1
  0
VISUALSTYLE
  5
2D1
102
{ACAD_REACTORS
330
2BF
102
}
330
2BF
100
AcDbVisualStyle
  2
OverhangOff
 70
    21
177
     3
291
     1
 70
    58
 90
        2
176
     0
 90
        2
176
     0
 90
        0
176
     0
 90
        0
176
     0
 40
0.6
176
     0
 40
30.0
176
     0
 62
     7
420
 16777215
176
     0
 90
        1
176
     0
 90
        4
176
     0
 62
     7
176
     0
 62
   257
176
     0
 90
        1
176
     0
 90
        1
176
     0
 40
1.0
176
     0
 90
        9
176
     2
 62
     7
176
     0
 40
1.0
176
     0
 90
        1
176
     0
 90
        6
176
     0
 90
        2
176
     0
 62
     7
176
     0
 90
        5
176
     0
 90
        0
176
     0
 90
        0
176
     0
290
     0
176
     0
 90
        1
176
     0
 40
0.0
176
     0
 90
        0
176
     0
290
     0
176
     0
290
     1
176
     0
290
     1
176
     0
290
     0
176
     0
290
     0
176
     0
290
     0
176
     0
290
     0
176
     0
290
     0
176
     0
290
     0
176
     0
 90
       50
176
     0
 40
0.0
176
     0
 40
1.0
176
     0
 90
        0
176
     0
 62
    18
420
        0
176
     0
 90
       50
176
     0
 90
        3
176
     0
 62
     5
420
      255
176
     0
290
     0
176
     0
 90
       50
176
     0
 90
       50
176
     0
 90
       50
176
     0
290
     0
176
     0
 90
       50
176
     0
 62
   256
176
     0
 40
1.0
176
     0
 90
        2
176
     0
  1
strokes_ogs.tif
176
     0
290
     0
176
     0
 40
1.0
176
     0
 40
1.0
176
     0
  0
VISUALSTYLE
  5
2C8
102
{ACAD_REACTORS
330
2BF
102
}
330
2BF
100
AcDbVisualStyle
  2
Realistic
 70
     8
177
     3
291
     0
 70
    58
 90
        2
176
     1
 90
        3
176
     1
 90
        0
176
     1
 90
        2
176
     1
 40
0.6
176
     1
 40
30.0
176
     1
 62
     7
420
 16777215
176
     1
 90
        0
176
     1
 90
        0
176
     1
 62
     7
176
     1
 62
   257
176
     1
 90
        1
176
     1
 90
        1
176
     1
 40
1.0
176
     1
 90
        8
176
     1
 62
   257
176
     1
 40
1.0
176
     1
 90
        1
176
     1
 90
        6
176
     1
 90
        2
176
     1
 62
     7
176
     1
 90
        3
176
     1
 90
        0
176
     1
 90
        0
176
     1
290
     0
176
     1
 90
       13
176
     1
 40
0.0
176
     1
 90
        0
176
     1
290
     0
176
     1
290
     1
176
     1
290
     1
176
     1
290
     0
176
     1
290
     0
176
     1
290
     0
176
     1
290
     0
176
     1
290
     0
176
     1
290
     0
176
     1
 90
       50
176
     1
 40
0.0
176
     1
 40
1.0
176
     1
 90
        0
176
     1
 62
    18
420
        0
176
     1
 90
       50
176
     1
 90
        3
176
     1
 62
     5
420
      255
176
     1
290
     0
176
     1
 90
       50
176
     1
 90
       50
176
     1
 90
       50
176
     1
290
     0
176
     1
 90
       50
176
     1
 62
   256
176
     0
 40
1.0
176
     0
 90
        2
176
     1
  1
strokes_ogs.tif
176
     1
290
     0
176
     1
 40
1.0
176
     1
 40
1.0
176
     1
  0
VISUALSTYLE
  5
2D7
102
{ACAD_REACTORS
330
2BF
102
}
330
2BF
100
AcDbVisualStyle
  2
Shaded
 70
    27
177
     3
291
     0
 70
    58
 90
        2
176
     1
 90
        2
176
     1
 90
        1
176
     1
 90
        2
176
     1
 40
0.6
176
     1
 40
30.0
176
     1
 62
     7
420
 16777215
176
     1
 90
        0
176
     1
 90
        4
176
     1
 62
     7
176
     1
 62
   257
176
     1
 90
        1
176
     1
 90
        1
176
     1
 40
1.0
176
     1
 90
        8
176
     1
 62
   257
176
     1
 40
1.0
176
     1
 90
        1
176
     1
 90
        6
176
     1
 90
        2
176
     1
 62
     8
420
  7895160
176
     1
 90
        3
176
     1
 90
        0
176
     1
 90
        0
176
     1
290
     0
176
     1
 90
        5
176
     1
 40
0.0
176
     1
 90
        0
176
     1
290
     0
176
     1
290
     1
176
     1
290
     1
176
     1
290
     0
176
     1
290
     0
176
     1
290
     0
176
     1
290
     0
176
     1
290
     0
176
     1
290
     0
176
     1
 90
       50
176
     1
 40
0.0
176
     1
 40
1.0
176
     1
 90
        0
176
     1
 62
    18
420
        0
176
     1
 90
       50
176
     1
 90
        3
176
     1
 62
     5
420
      255
176
     1
290
     0
176
     1
 90
       50
176
     1
 90
       50
176
     1
 90
       50
176
     1
290
     0
176
     1
 90
       50
176
     1
 62
   256
176
     0
 40
1.0
176
     0
 90
        2
176
     1
  1
strokes_ogs.tif
176
     1
290
     0
176
     1
 40
1.0
176
     1
 40
1.0
176
     1
  0
VISUALSTYLE
  5
2D6
102
{ACAD_REACTORS
330
2BF
102
}
330
2BF
100
AcDbVisualStyle
  2
Shaded with edges
 70
    26
177
     3
291
     0
 70
    58
 90
        2
176
     1
 90
        2
176
     1
 90
        1
176
     1
 90
        2
176
     1
 40
0.6
176
     1
 40
30.0
176
     1
 62
     7
420
 16777215
176
     1
 90
        1
176
     1
 90
       10
176
     1
 62
     7
176
     1
 62
   257
176
     1
 90
        2
176
     1
 90
        1
176
     1
 40
1.0
176
     1
 90
        8
176
     1
 62
   257
176
     1
 40
1.0
176
     1
 90
        1
176
     1
 90
        6
176
     1
 90
        2
176
     1
 62
     7
176
     1
 90
        3
176
     1
 90
        0
176
     1
 90
        0
176
     1
290
     0
176
     1
 90
        5
176
     1
 40
0.0
176
     1
 90
        0
176
     1
290
     0
176
     1
290
     1
176
     1
290
     1
176
     1
290
     0
176
     1
290
     0
176
     1
290
     0
176
     1
290
     0
176
     1
290
     0
176
     1
290
     0
176
     1
 90
       50
176
     1
 40
0.0
176
     1
 40
1.0
176
     1
 90
        0
176
     1
 62
    18
420
        0
176
     1
 90
       50
176
     1
 90
        3
176
     1
 62
     5
420
      255
176
     1
290
     0
176
     1
 90
       50
176
     1
 90
       50
176
     1
 90
       50
176
     1
290
     0
176
     1
 90
       50
176
     1
 62
   256
176
     0
 40
1.0
176
     0
 90
        2
176
     1
  1
strokes_ogs.tif
176
     1
290
     0
176
     1
 40
1.0
176
     1
 40
1.0
176
     1
  0
VISUALSTYLE
  5
2D3
102
{ACAD_REACTORS
330
2BF
102
}
330
2BF
100
AcDbVisualStyle
  2
Shades of Gray
 70
    23
177
     3
291
     0
 70
    58
 90
        2
176
     1
 90
        2
176
     1
 90
        3
176
     1
 90
        0
176
     1
 40
0.6
176
     1
 40
30.0
176
     1
 62
     7
420
 16777215
176
     1
 90
        2
176
     1
 90
        2
176
     1
 62
     7
176
     1
 62
     7
176
     1
 90
        1
176
     1
 90
        1
176
     1
 40
40.0
176
     1
 90
        8
176
     1
 62
     7
176
     1
 40
1.0
176
     1
 90
        1
176
     1
 90
        6
176
     1
 90
        2
176
     1
 62
     7
176
     1
 90
        3
176
     1
 90
        0
176
     1
 90
        0
176
     1
290
     0
176
     1
 90
        1
176
     1
 40
0.0
176
     1
 90
        0
176
     1
290
     0
176
     1
290
     1
176
     1
290
     1
176
     1
290
     0
176
     1
290
     0
176
     1
290
     0
176
     1
290
     0
176
     1
290
     0
176
     1
290
     0
176
     1
 90
       50
176
     1
 40
0.0
176
     1
 40
1.0
176
     1
 90
        0
176
     1
 62
    18
420
        0
176
     1
 90
       50
176
     1
 90
        3
176
     1
 62
     5
420
      255
176
     1
290
     0
176
     1
 90
       50
176
     1
 90
       50
176
     1
 90
       50
176
     1
290
     0
176
     1
 90
       50
176
     1
 62
   256
176
     0
 40
1.0
176
     0
 90
        2
176
     1
  1
strokes_ogs.tif
176
     1
290
     0
176
     1
 40
1.0
176
     1
 40
1.0
176
     1
  0
VISUALSTYLE
  5
2D4
102
{ACAD_REACTORS
330
2BF
102
}
330
2BF
100
AcDbVisualStyle
  2
Sketchy
 70
    24
177
     3
291
     0
 70
    58
 90
        1
176
     1
 90
        2
176
     1
 90
        2
176
     1
 90
        0
176
     1
 40
0.6
176
     1
 40
30.0
176
     1
 62
     7
420
 16777215
176
     1
 90
        2
176
     1
 90
        2
176
     1
 62
     7
176
     1
 62
     7
176
     1
 90
        1
176
     1
 90
        1
176
     1
 40
40.0
176
     1
 90
       11
176
     1
 62
     7
176
     1
 40
1.0
176
     1
 90
        1
176
     1
 90
        6
176
     1
 90
        2
176
     1
 62
     7
176
     1
 90
        6
176
     1
 90
        0
176
     1
 90
        0
176
     1
290
     0
176
     1
 90
        1
176
     1
 40
0.0
176
     1
 90
        0
176
     1
290
     0
176
     1
290
     1
176
     1
290
     1
176
     1
290
     0
176
     1
290
     0
176
     1
290
     0
176
     1
290
     0
176
     1
290
     0
176
     1
290
     0
176
     1
 90
       50
176
     1
 40
0.0
176
     1
 40
1.0
176
     1
 90
        0
176
     1
 62
    18
420
        0
176
     1
 90
       50
176
     1
 90
        3
176
     1
 62
     5
420
      255
176
     1
290
     0
176
     1
 90
       50
176
     1
 90
       50
176
     1
 90
       50
176
     1
290
     0
176
     1
 90
       50
176
     1
 62
   256
176
     0
 40
1.0
176
     0
 90
        2
176
     1
  1
strokes_ogs.tif
176
     1
290
     0
176
     1
 40
1.0
176
     1
 40
1.0
176
     1
  0
VISUALSTYLE
  5
2CC
102
{ACAD_REACTORS
330
2BF
102
}
330
2BF
100
AcDbVisualStyle
  2
Thicken
 70
    13
177
     3
291
     1
 70
    58
 90
        2
176
     1
 90
        2
176
     1
 90
        0
176
     1
 90
        0
176
     1
 40
0.6
176
     1
 40
30.0
176
     1
 62
     7
420
 16777215
176
     1
 90
        1
176
     1
 90
        4
176
     1
 62
     7
176
     1
 62
   257
176
     1
 90
        1
176
     1
 90
        1
176
     1
 40
1.0
176
     1
 90
       12
176
     1
 62
     7
176
     1
 40
1.0
176
     1
 90
        1
176
     1
 90
        6
176
     1
 90
        2
176
     1
 62
     7
176
     1
 90
        5
176
     1
 90
        0
176
     1
 90
        0
176
     1
290
     0
176
     1
 90
        1
176
     1
 40
0.0
176
     1
 90
        0
176
     1
290
     0
176
     1
290
     1
176
     1
290
     1
176
     1
290
     0
176
     1
290
     0
176
     1
290
     0
176
     1
290
     0
176
     1
290
     0
176
     1
290
     0
176
     1
 90
       50
176
     1
 40
0.0
176
     1
 40
1.0
176
     1
 90
        0
176
     1
 62
    18
420
        0
176
     1
 90
       50
176
     1
 90
        3
176
     1
 62
     5
420
      255
176
     1
290
     0
176
     1
 90
       50
176
     1
 90
       50
176
     1
 90
       50
176
     1
290
     0
176
     1
 90
       50
176
     1
 62
   256
176
     0
 40
1.0
176
     0
 90
        2
176
     1
  1
strokes_ogs.tif
176
     1
290
     0
176
     1
 40
1.0
176
     1
 40
1.0
176
     1
  0
VISUALSTYLE
  5
2C5
102
{ACAD_REACTORS
330
2BF
102
}
330
2BF
100
AcDbVisualStyle
  2
Wireframe
 70
     5
177
     3
291
     0
 70
    58
 90
        0
176
     1
 90
        2
176
     1
 90
        0
176
     1
 90
        0
176
     1
 40
0.6
176
     1
 40
30.0
176
     1
 62
     7
420
 16777215
176
     1
 90
        1
176
     1
 90
        4
176
     1
 62
     7
176
     1
 62
   257
176
     1
 90
        1
176
     1
 90
        1
176
     1
 40
1.0
176
     1
 90
        0
176
     1
 62
   257
176
     1
 40
1.0
176
     1
 90
        1
176
     1
 90
        6
176
     1
 90
        2
176
     1
 62
     7
176
     1
 90
        3
176
     1
 90
        0
176
     1
 90
        0
176
     1
290
     0
176
     1
 90
        1
176
     1
 40
0.0
176
     1
 90
        0
176
     1
290
     0
176
     1
290
     1
176
     1
290
     1
176
     1
290
     0
176
     1
290
     0
176
     1
290
     0
176
     1
290
     0
176
     1
290
     0
176
     1
290
     0
176
     1
 90
       50
176
     1
 40
0.0
176
     1
 40
1.0
176
     1
 90
        0
176
     1
 62
    18
420
        0
176
     1
 90
       50
176
     1
 90
        3
176
     1
 62
     5
420
      255
176
     1
290
     0
176
     1
 90
       50
176
     1
 90
       50
176
     1
 90
       50
176
     1
290
     0
176
     1
 90
       50
176
     1
 62
   256
176
     0
 40
1.0
176
     0
 90
        2
176
     1
  1
strokes_ogs.tif
176
     1
290
     0
176
     1
 40
1.0
176
     1
 40
1.0
176
     1
  0
VISUALSTYLE
  5
2D5
102
{ACAD_REACTORS
330
2BF
102
}
330
2BF
100
AcDbVisualStyle
  2
X-Ray
 70
    25
177
     3
291
     0
 70
    58
 90
        2
176
     1
 90
        2
176
     1
 90
        1
176
     1
 90
        1
176
     1
 40
0.5
176
     1
 40
30.0
176
     1
 62
     7
420
 16777215
176
     1
 90
        1
176
     1
 90
        0
176
     1
 62
     7
176
     1
 62
   257
176
     1
 90
        1
176
     1
 90
        1
176
     1
 40
1.0
176
     1
 90
        8
176
     1
 62
     7
176
     1
 40
1.0
176
     1
 90
        1
176
     1
 90
        6
176
     1
 90
        2
176
     1
 62
     7
176
     1
 90
        3
176
     1
 90
        0
176
     1
 90
        0
176
     1
290
     0
176
     1
 90
       13
176
     1
 40
0.0
176
     1
 90
        0
176
     1
290
     0
176
     1
290
     1
176
     1
290
     1
176
     1
290
     0
176
     1
290
     0
176
     1
290
     0
176
     1
290
     0
176
     1
290
     0
176
     1
290
     0
176
     1
 90
       50
176
     1
 40
0.0
176
     1
 40
1.0
176
     1
 90
        0
176
     1
 62
    18
420
        0
176
     1
 90
       50
176
     1
 90
        3
176
     1
 62
     5
420
      255
176
     1
290
     0
176
     1
 90
       50
176
     1
 90
       50
176
     1
 90
       50
176
     1
290
     0
176
     1
 90
       50
176
     1
 62
   256
176
     0
 40
1.0
176
     0
 90
        2
176
     1
  1
strokes_ogs.tif
176
     1
290
     0
176
     1
 40
1.0
176
     1
 40
1.0
176
     1
  0
DICTIONARYVAR
  5
2E8
102
{ACAD_REACTORS
330
2E7
102
}
330
2E7
100
DictionaryVariables
280
     0
  1
1:1
  0
DICTIONARYVAR
  5
2EA
102
{ACAD_REACTORS
330
2E7
102
}
330
2E7
100
DictionaryVariables
280
     0
  1
Standard
  0
DICTIONARYVAR
  5
2E9
102
{ACAD_REACTORS
330
2E7
102
}
330
2E7
100
DictionaryVariables
280
     0
  1
Standard
  0
DICTIONARYVAR
  5
2EB
102
{ACAD_REACTORS
330
2E7
102
}
330
2E7
100
DictionaryVariables
280
     0
  1
0
  0
DICTIONARY
  5
31B
330
2DD
100
AcDbDictionary
280
     1
281
     1
  3
ACAD_ROUNDTRIP_2008_TABLESTYLE_CELLSTYLEMAP
360
31C
  0
CELLSTYLEMAP
  5
31C
102
{ACAD_REACTORS
330
31B
102
}
330
31B
100
AcDbCellStyleMap
 90
        3
300
CELLSTYLE
  1
TABLEFORMAT_BEGIN
 90
        5
170
     1
 91
        0
 92
    32768
 62
   257
 93
        1
300
CONTENTFORMAT
  1
CONTENTFORMAT_BEGIN
 90
        0
 91
        0
 92
        4
 93
        0
300

 40
0.0
140
1.0
 94
        5
 62
     0
340
11
144
6.0
309
CONTENTFORMAT_END
171
     1
301
MARGIN
  1
CELLMARGIN_BEGIN
 40
1.5
 40
1.5
 40
1.5
 40
1.5
 40
1.5
 40
1.5
309
CELLMARGIN_END
 94
        6
 95
        1
302
GRIDFORMAT
  1
GRIDFORMAT_BEGIN
 90
        0
 91
        1
 62
     0
 92
       -2
340
14
 93
        0
 40
0.045
309
GRIDFORMAT_END
 95
        2
302
GRIDFORMAT
  1
GRIDFORMAT_BEGIN
 90
        0
 91
        1
 62
     0
 92
       -2
340
14
 93
        0
 40
0.045
309
GRIDFORMAT_END
 95
        4
302
GRIDFORMAT
  1
GRIDFORMAT_BEGIN
 90
        0
 91
        1
 62
     0
 92
       -2
340
14
 93
        0
 40
0.045
309
GRIDFORMAT_END
 95
        8
302
GRIDFORMAT
  1
GRIDFORMAT_BEGIN
 90
        0
 91
        1
 62
     0
 92
       -2
340
14
 93
        0
 40
0.045
309
GRIDFORMAT_END
 95
       16
302
GRIDFORMAT
  1
GRIDFORMAT_BEGIN
 90
        0
 91
        1
 62
     0
 92
       -2
340
14
 93
        0
 40
0.045
309
GRIDFORMAT_END
 95
       32
302
GRIDFORMAT
  1
GRIDFORMAT_BEGIN
 90
        0
 91
        1
 62
     0
 92
       -2
340
14
 93
        0
 40
0.045
309
GRIDFORMAT_END
309
TABLEFORMAT_END
  1
CELLSTYLE_BEGIN
 90
        1
 91
        1
300
_TITLE
309
CELLSTYLE_END
300
CELLSTYLE
  1
TABLEFORMAT_BEGIN
 90
        5
170
     1
 91
        0
 92
        0
 62
   257
 93
        1
300
CONTENTFORMAT
  1
CONTENTFORMAT_BEGIN
 90
        0
 91
        0
 92
        4
 93
        0
300

 40
0.0
140
1.0
 94
        5
 62
     0
340
11
144
4.5
309
CONTENTFORMAT_END
171
     1
301
MARGIN
  1
CELLMARGIN_BEGIN
 40
1.5
 40
1.5
 40
1.5
 40
1.5
 40
1.5
 40
1.5
309
CELLMARGIN_END
 94
        6
 95
        1
302
GRIDFORMAT
  1
GRIDFORMAT_BEGIN
 90
        0
 91
        1
 62
     0
 92
       -2
340
14
 93
        0
 40
0.045
309
GRIDFORMAT_END
 95
        2
302
GRIDFORMAT
  1
GRIDFORMAT_BEGIN
 90
        0
 91
        1
 62
     0
 92
       -2
340
14
 93
        0
 40
0.045
309
GRIDFORMAT_END
 95
        4
302
GRIDFORMAT
  1
GRIDFORMAT_BEGIN
 90
        0
 91
        1
 62
     0
 92
       -2
340
14
 93
        0
 40
0.045
309
GRIDFORMAT_END
 95
        8
302
GRIDFORMAT
  1
GRIDFORMAT_BEGIN
 90
        0
 91
        1
 62
     0
 92
       -2
340
14
 93
        0
 40
0.045
309
GRIDFORMAT_END
 95
       16
302
GRIDFORMAT
  1
GRIDFORMAT_BEGIN
 90
        0
 91
        1
 62
     0
 92
       -2
340
14
 93
        0
 40
0.045
309
GRIDFORMAT_END
 95
       32
302
GRIDFORMAT
  1
GRIDFORMAT_BEGIN
 90
        0
 91
        1
 62
     0
 92
       -2
340
14
 93
        0
 40
0.045
309
GRIDFORMAT_END
309
TABLEFORMAT_END
  1
CELLSTYLE_BEGIN
 90
        2
 91
        1
300
_HEADER
309
CELLSTYLE_END
300
CELLSTYLE
  1
TABLEFORMAT_BEGIN
 90
        5
170
     1
 91
        0
 92
        0
 62
   257
 93
        1
300
CONTENTFORMAT
  1
CONTENTFORMAT_BEGIN
 90
        0
 91
        0
 92
        4
 93
        0
300

 40
0.0
140
1.0
 94
        2
 62
     0
340
11
144
4.5
309
CONTENTFORMAT_END
171
     1
301
MARGIN
  1
CELLMARGIN_BEGIN
 40
1.5
 40
1.5
 40
1.5
 40
1.5
 40
1.5
 40
1.5
309
CELLMARGIN_END
 94
        6
 95
        1
302
GRIDFORMAT
  1
GRIDFORMAT_BEGIN
 90
        0
 91
        1
 62
     0
 92
       -2
340
14
 93
        0
 40
0.045
309
GRIDFORMAT_END
 95
        2
302
GRIDFORMAT
  1
GRIDFORMAT_BEGIN
 90
        0
 91
        1
 62
     0
 92
       -2
340
14
 93
        0
 40
0.045
309
GRIDFORMAT_END
 95
        4
302
GRIDFORMAT
  1
GRIDFORMAT_BEGIN
 90
        0
 91
        1
 62
     0
 92
       -2
340
14
 93
        0
 40
0.045
309
GRIDFORMAT_END
 95
        8
302
GRIDFORMAT
  1
GRIDFORMAT_BEGIN
 90
        0
 91
        1
 62
     0
 92
       -2
340
14
 93
        0
 40
0.045
309
GRIDFORMAT_END
 95
       16
302
GRIDFORMAT
  1
GRIDFORMAT_BEGIN
 90
        0
 91
        1
 62
     0
 92
       -2
340
14
 93
        0
 40
0.045
309
GRIDFORMAT_END
 95
       32
302
GRIDFORMAT
  1
GRIDFORMAT_BEGIN
 90
        0
 91
        1
 62
     0
 92
       -2
340
14
 93
        0
 40
0.045
309
GRIDFORMAT_END
309
TABLEFORMAT_END
  1
CELLSTYLE_BEGIN
 90
        3
 91
        2
300
_DATA
309
CELLSTYLE_END
  0
ENDSEC
  0
EOF
