  0
SECTION
  2
HEADER
  9
$ACADVER
  1
AC1015
  9
$ACADMAINTVER
 70
     6
  9
$DWGCODEPAGE
  3
ANSI_1252
  9
$INSBASE
 10
0.0
 20
0.0
 30
0.0
  9
$EXTMIN
 10
25.88556755549999
 20
90.4630623702
 30
0.0
  9
$EXTMAX
 10
567.9398420238
 20
409.4566739538
 30
0.0
  9
$LIMMIN
 10
0.0
 20
0.0
  9
$LIMMAX
 10
420.0
 20
297.0
  9
$ORTHOMODE
 70
     1
  9
$REGENMODE
 70
     1
  9
$FILLMODE
 70
     1
  9
$QTEXTMODE
 70
     0
  9
$MIRRTEXT
 70
     1
  9
$LTSCALE
 40
1.0
  9
$ATTMODE
 70
     1
  9
$TEXTSIZE
 40
2.8
  9
$TRACEWID
 40
1.0
  9
$TEXTSTYLE
  7
Standard
  9
$CLAYER
  8
0
  9
$CELTYPE
  6
ByLayer
  9
$CECOLOR
 62
   256
  9
$CELTSCALE
 40
1.0
  9
$DISPSILH
 70
     0
  9
$DIMSCALE
 40
1.0
  9
$DIMASZ
 40
3.2
  9
$DIMEXO
 40
0.1
  9
$DIMDLI
 40
3.75
  9
$DIMRND
 40
0.0
  9
$DIMDLE
 40
0.0
  9
$DIMEXE
 40
1.0
  9
$DIMTP
 40
0.0
  9
$DIMTM
 40
0.0
  9
$DIMTXT
 40
3.2
  9
$DIMCEN
 40
2.5
  9
$DIMTSZ
 40
0.0
  9
$DIMTOL
 70
     0
  9
$DIMLIM
 70
     0
  9
$DIMTIH
 70
     1
  9
$DIMTOH
 70
     1
  9
$DIMSE1
 70
     0
  9
$DIMSE2
 70
     0
  9
$DIMTAD
 70
     1
  9
$DIMZIN
 70
     0
  9
$DIMBLK
  1

  9
$DIMASO
 70
     1
  9
$DIMSHO
 70
     1
  9
$DIMPOST
  1

  9
$DIMAPOST
  1

  9
$DIMALT
 70
     0
  9
$DIMALTD
 70
     3
  9
$DIMALTF
 40
0.0393700787
  9
$DIMLFAC
 40
1.0
  9
$DIMTOFL
 70
     1
  9
$DIMTVP
 40
0.0
  9
$DIMTIX
 70
     0
  9
$DIMSOXD
 70
     0
  9
$DIMSAH
 70
     0
  9
$DIMBLK1
  1

  9
$DIMBLK2
  1

  9
$DIMSTYLE
  2
ISO-25
  9
$DIMCLRD
 70
     0
  9
$DIMCLRE
 70
     0
  9
$DIMCLRT
 70
     0
  9
$DIMTFAC
 40
1.0
  9
$DIMGAP
 40
2.0
  9
$DIMJUST
 70
     0
  9
$DIMSD1
 70
     0
  9
$DIMSD2
 70
     0
  9
$DIMTOLJ
 70
     0
  9
$DIMTZIN
 70
     0
  9
$DIMALTZ
 70
     0
  9
$DIMALTTZ
 70
     0
  9
$DIMUPT
 70
     0
  9
$DIMDEC
 70
     2
  9
$DIMTDEC
 70
     2
  9
$DIMALTU
 70
     2
  9
$DIMALTTD
 70
     3
  9
$DIMTXSTY
  7
Standard
  9
$DIMAUNIT
 70
     0
  9
$DIMADEC
 70
     2
  9
$DIMALTRND
 40
0.0
  9
$DIMAZIN
 70
     0
  9
$DIMDSEP
 70
    44
  9
$DIMATFIT
 70
     3
  9
$DIMFRAC
 70
     0
  9
$DIMLDRBLK
  1

  9
$DIMLUNIT
 70
     2
  9
$DIMLWD
 70
    -2
  9
$DIMLWE
 70
    -2
  9
$DIMTMOVE
 70
     0
  9
$LUNITS
 70
     2
  9
$LUPREC
 70
     2
  9
$SKETCHINC
 40
1.0
  9
$FILLETRAD
 40
9.0
  9
$AUNITS
 70
     0
  9
$AUPREC
 70
     2
  9
$MENU
  1
.
  9
$ELEVATION
 40
0.0
  9
$PELEVATION
 40
0.0
  9
$THICKNESS
 40
0.0
  9
$LIMCHECK
 70
     0
  9
$CHAMFERA
 40
0.0
  9
$CHAMFERB
 40
0.0
  9
$CHAMFERC
 40
0.0
  9
$CHAMFERD
 40
0.0
  9
$SKPOLY
 70
     0
  9
$TDCREATE
 40
2458829.40276559
  9
$TDUCREATE
 40
2458829.361098924
  9
$TDUPDATE
 40
2458829.405148588
  9
$TDUUPDATE
 40
2458829.363481921
  9
$TDINDWG
 40
0.0021248727
  9
$TDUSRTIMER
 40
0.0021248611
  9
$USRTIMER
 70
     1
  9
$ANGBASE
 50
0.0
  9
$ANGDIR
 70
     0
  9
$PDMODE
 70
     0
  9
$PDSIZE
 40
-1.0
  9
$PLINEWID
 40
0.0
  9
$SPLFRAME
 70
     0
  9
$SPLINETYPE
 70
     6
  9
$SPLINESEGS
 70
     8
  9
$HANDSEED
  5
486
  9
$SURFTAB1
 70
     6
  9
$SURFTAB2
 70
     6
  9
$SURFTYPE
 70
     6
  9
$SURFU
 70
     6
  9
$SURFV
 70
     6
  9
$UCSBASE
  2

  9
$UCSNAME
  2

  9
$UCSORG
 10
0.0
 20
0.0
 30
0.0
  9
$UCSXDIR
 10
1.0
 20
0.0
 30
0.0
  9
$UCSYDIR
 10
0.0
 20
1.0
 30
0.0
  9
$UCSORTHOREF
  2

  9
$UCSORTHOVIEW
 70
     0
  9
$UCSORGTOP
 10
0.0
 20
0.0
 30
0.0
  9
$UCSORGBOTTOM
 10
0.0
 20
0.0
 30
0.0
  9
$UCSORGLEFT
 10
0.0
 20
0.0
 30
0.0
  9
$UCSORGRIGHT
 10
0.0
 20
0.0
 30
0.0
  9
$UCSORGFRONT
 10
0.0
 20
0.0
 30
0.0
  9
$UCSORGBACK
 10
0.0
 20
0.0
 30
0.0
  9
$PUCSBASE
  2

  9
$PUCSNAME
  2

  9
$PUCSORG
 10
0.0
 20
0.0
 30
0.0
  9
$PUCSXDIR
 10
1.0
 20
0.0
 30
0.0
  9
$PUCSYDIR
 10
0.0
 20
1.0
 30
0.0
  9
$PUCSORTHOREF
  2

  9
$PUCSORTHOVIEW
 70
     0
  9
$PUCSORGTOP
 10
0.0
 20
0.0
 30
0.0
  9
$PUCSORGBOTTOM
 10
0.0
 20
0.0
 30
0.0
  9
$PUCSORGLEFT
 10
0.0
 20
0.0
 30
0.0
  9
$PUCSORGRIGHT
 10
0.0
 20
0.0
 30
0.0
  9
$PUCSORGFRONT
 10
0.0
 20
0.0
 30
0.0
  9
$PUCSORGBACK
 10
0.0
 20
0.0
 30
0.0
  9
$USERI1
 70
     0
  9
$USERI2
 70
     0
  9
$USERI3
 70
     0
  9
$USERI4
 70
     0
  9
$USERI5
 70
     0
  9
$USERR1
 40
0.0
  9
$USERR2
 40
0.0
  9
$USERR3
 40
0.0
  9
$USERR4
 40
0.0
  9
$USERR5
 40
0.0
  9
$WORLDVIEW
 70
     1
  9
$SHADEDGE
 70
     3
  9
$SHADEDIF
 70
    70
  9
$TILEMODE
 70
     1
  9
$MAXACTVP
 70
    64
  9
$PINSBASE
 10
0.0
 20
0.0
 30
0.0
  9
$PLIMCHECK
 70
     0
  9
$PEXTMIN
 10
1.000000000000000E+20
 20
1.000000000000000E+20
 30
1.000000000000000E+20
  9
$PEXTMAX
 10
-1.000000000000000E+20
 20
-1.000000000000000E+20
 30
-1.000000000000000E+20
  9
$PLIMMIN
 10
0.0
 20
0.0
  9
$PLIMMAX
 10
0.0
 20
0.0
  9
$UNITMODE
 70
     0
  9
$VISRETAIN
 70
     1
  9
$PLINEGEN
 70
     0
  9
$PSLTSCALE
 70
     1
  9
$TREEDEPTH
 70
  3020
  9
$CMLSTYLE
  2
Standard
  9
$CMLJUST
 70
     0
  9
$CMLSCALE
 40
20.0
  9
$PROXYGRAPHICS
 70
     1
  9
$MEASUREMENT
 70
     1
  9
$CELWEIGHT
370
    -1
  9
$ENDCAPS
280
     0
  9
$JOINSTYLE
280
     0
  9
$LWDISPLAY
290
     1
  9
$INSUNITS
 70
     4
  9
$HYPERLINKBASE
  1

  9
$STYLESHEET
  1

  9
$XEDIT
290
     1
  9
$CEPSNTYPE
380
     0
  9
$PSTYLEMODE
290
     1
  9
$FINGERPRINTGUID
  2
{BFFE7C4A-2F3D-446B-9E1F-A66458EA000F}
  9
$VERSIONGUID
  2
{FAEB1C32-E019-11D5-929B-00C0DF256EC4}
  9
$EXTNAMES
290
     1
  9
$PSVPSCALE
 40
0.0
  9
$OLESTARTUP
290
     0
  0
ENDSEC
  0
SECTION
  2
CLASSES
  0
CLASS
  1
ACDBDICTIONARYWDFLT
  2
AcDbDictionaryWithDefault
  3
ObjectDBX Classes
 90
        0
280
     0
281
     0
  0
CLASS
  1
VISUALSTYLE
  2
AcDbVisualStyle
  3
ObjectDBX Classes
 90
     4095
280
     0
281
     0
  0
CLASS
  1
MATERIAL
  2
AcDbMaterial
  3
ObjectDBX Classes
 90
     1153
280
     0
281
     0
  0
CLASS
  1
SCALE
  2
AcDbScale
  3
ObjectDBX Classes
 90
     1153
280
     0
281
     0
  0
CLASS
  1
TABLESTYLE
  2
AcDbTableStyle
  3
ObjectDBX Classes
 90
     4095
280
     0
281
     0
  0
CLASS
  1
MLEADERSTYLE
  2
AcDbMLeaderStyle
  3
ACDB_MLEADERSTYLE_CLASS
 90
     4095
280
     0
281
     0
  0
CLASS
  1
SUN
  2
AcDbSun
  3
SCENEOE
 90
     1153
280
     0
281
     0
  0
CLASS
  1
ACDBPLACEHOLDER
  2
AcDbPlaceHolder
  3
ObjectDBX Classes
 90
        0
280
     0
281
     0
  0
CLASS
  1
LAYOUT
  2
AcDbLayout
  3
ObjectDBX Classes
 90
        0
280
     0
281
     0
  0
CLASS
  1
DIMASSOC
  2
AcDbDimAssoc
  3
"AcDbDimAssoc|Product Desc:     AcDim ARX App For Dimension|Company:          Autodesk, Inc.|WEB Address:      www.autodesk.com"
 90
        0
280
     0
281
     0
  0
ENDSEC
  0
SECTION
  2
TABLES
  0
TABLE
  2
VPORT
  5
8
330
0
100
AcDbSymbolTable
 70
     1
  0
VPORT
  5
29
330
8
100
AcDbSymbolTableRecord
100
AcDbViewportTableRecord
  2
*Active
 70
     0
 10
0.0
 20
0.0
 11
1.0
 21
1.0
 12
296.91270478965
 22
249.959868162
 13
0.0
 23
0.0
 14
10.0
 24
10.0
 15
10.0
 25
10.0
 16
0.0
 26
0.0
 36
1.0
 17
0.0
 27
0.0
 37
0.0
 40
325.373483815272
 41
2.020304568527919
 42
50.0
 43
0.0
 44
0.0
 50
0.0
 51
0.0
 71
    16
 72
  2000
 73
     1
 74
     3
 75
     0
 76
     0
 77
     0
 78
     0
281
     0
 65
     1
110
0.0
120
0.0
130
0.0
111
1.0
121
0.0
131
0.0
112
0.0
122
1.0
132
0.0
 79
     0
146
0.0
  0
ENDTAB
  0
TABLE
  2
LTYPE
  5
5
330
0
100
AcDbSymbolTable
 70
     6
  0
LTYPE
  5
14
330
5
100
AcDbSymbolTableRecord
100
AcDbLinetypeTableRecord
  2
ByBlock
 70
     0
  3

 72
    65
 73
     0
 40
0.0
  0
LTYPE
  5
15
330
5
100
AcDbSymbolTableRecord
100
AcDbLinetypeTableRecord
  2
ByLayer
 70
     0
  3

 72
    65
 73
     0
 40
0.0
  0
LTYPE
  5
16
330
5
100
AcDbSymbolTableRecord
100
AcDbLinetypeTableRecord
  2
Continuous
 70
     0
  3
Solid line
 72
    65
 73
     0
 40
0.0
  0
LTYPE
  5
6E
330
5
100
AcDbSymbolTableRecord
100
AcDbLinetypeTableRecord
  2
HIDDEN
 70
     0
  3
Hidden __ __ __ __ __ __ __ __ __ __ __ __ __ __
 72
    65
 73
     2
 40
1.905
 49
1.27
 74
     0
 49
-0.635
 74
     0
  0
LTYPE
  5
6F
330
5
100
AcDbSymbolTableRecord
100
AcDbLinetypeTableRecord
  2
PHANTOM
 70
     0
  3
Phantom ______  __  __  ______  __  __  ______
 72
    65
 73
     6
 40
12.7
 49
6.35
 74
     0
 49
-1.27
 74
     0
 49
1.27
 74
     0
 49
-1.27
 74
     0
 49
1.27
 74
     0
 49
-1.27
 74
     0
  0
LTYPE
  5
70
330
5
100
AcDbSymbolTableRecord
100
AcDbLinetypeTableRecord
  2
CENTER
 70
     0
  3
Center ____ _ ____ _ ____ _ ____ _ ____ _ ____
 72
    65
 73
     4
 40
10.16
 49
6.35
 74
     0
 49
-1.27
 74
     0
 49
1.27
 74
     0
 49
-1.27
 74
     0
  0
LTYPE
  5
71
330
5
100
AcDbSymbolTableRecord
100
AcDbLinetypeTableRecord
  2
CENTERX2
 70
     0
  3
Center (2x) ________  __  ________  __  _____
 72
    65
 73
     4
 40
20.32
 49
12.7
 74
     0
 49
-2.54
 74
     0
 49
2.54
 74
     0
 49
-2.54
 74
     0
  0
LTYPE
  5
72
330
5
100
AcDbSymbolTableRecord
100
AcDbLinetypeTableRecord
  2
DOT2
 70
     0
  3
Dot (.5x) ........................................
 72
    65
 73
     2
 40
0.635
 49
0.0
 74
     0
 49
-0.635
 74
     0
  0
ENDTAB
  0
TABLE
  2
LAYER
  5
2
330
0
100
AcDbSymbolTable
 70
     3
  0
LAYER
  5
10
330
2
100
AcDbSymbolTableRecord
100
AcDbLayerTableRecord
  2
0
 70
     0
 62
     7
  6
Continuous
370
    -3
390
F
  0
LAYER
  5
73
330
2
100
AcDbSymbolTableRecord
100
AcDbLayerTableRecord
  2
FORMAT
 70
     0
 62
     7
  6
Continuous
370
    -3
390
F
  0
LAYER
  5
463
330
2
100
AcDbSymbolTableRecord
100
AcDbLayerTableRecord
  2
Defpoints
 70
     0
 62
     7
  6
Continuous
290
     0
370
    -3
390
F
  0
ENDTAB
  0
TABLE
  2
STYLE
  5
3
330
0
100
AcDbSymbolTable
 70
     5
  0
STYLE
  5
11
330
3
100
AcDbSymbolTableRecord
100
AcDbTextStyleTableRecord
  2
Standard
 70
     0
 40
0.0
 41
1.0
 50
0.0
 71
     0
 42
2.8
  3
txt
  4

  0
STYLE
  5
ED
330
3
100
AcDbSymbolTableRecord
100
AcDbTextStyleTableRecord
  2
SLDTEXTSTYLE0
 70
     0
 40
0.0
 41
0.605
 50
0.0
 71
     0
 42
2.8
  3
TXT
  4

  0
STYLE
  5
EF
330
3
100
AcDbSymbolTableRecord
100
AcDbTextStyleTableRecord
  2
SLDTEXTSTYLE1
 70
     0
 40
0.0
 41
0.75
 50
0.0
 71
     0
 42
2.8
  3
TXT
  4

  0
STYLE
  5
FE
330
3
100
AcDbSymbolTableRecord
100
AcDbTextStyleTableRecord
  2
SLDTEXTSTYLE2
 70
     0
 40
0.0
 41
0.7
 50
0.0
 71
     0
 42
2.8
  3
TXT
  4

  0
STYLE
  5
104
330
3
100
AcDbSymbolTableRecord
100
AcDbTextStyleTableRecord
  2
SLDTEXTSTYLE3
 70
     0
 40
0.0
 41
0.57
 50
0.0
 71
     0
 42
2.8
  3
TXT
  4

  0
ENDTAB
  0
TABLE
  2
VIEW
  5
6
330
0
100
AcDbSymbolTable
 70
     0
  0
ENDTAB
  0
TABLE
  2
UCS
  5
7
330
0
100
AcDbSymbolTable
 70
     0
  0
ENDTAB
  0
TABLE
  2
APPID
  5
9
330
0
100
AcDbSymbolTable
 70
     2
  0
APPID
  5
12
330
9
100
AcDbSymbolTableRecord
100
AcDbRegAppTableRecord
  2
ACAD
 70
     0
  0
APPID
  5
484
330
9
100
AcDbSymbolTableRecord
100
AcDbRegAppTableRecord
  2
ACAD_DSTYLE_DIMRADIAL_EXTENSION
 70
     0
  0
ENDTAB
  0
TABLE
  2
DIMSTYLE
  5
A
330
0
100
AcDbSymbolTable
 70
     1
100
AcDbDimStyleTable
  0
DIMSTYLE
105
27
330
A
100
AcDbSymbolTableRecord
100
AcDbDimStyleTableRecord
  2
ISO-25
 70
     0
 41
2.5
 42
0.625
 43
3.75
 44
1.25
 73
     0
 74
     0
 77
     1
 78
     8
140
2.5
141
2.5
143
0.0393700787
147
0.625
171
     3
172
     1
178
     0
271
     2
272
     2
274
     3
278
    44
283
     0
284
     8
340
11
  0
ENDTAB
  0
TABLE
  2
BLOCK_RECORD
  5
1
330
0
100
AcDbSymbolTable
 70
     9
  0
BLOCK_RECORD
  5
1F
330
1
100
AcDbSymbolTableRecord
100
AcDbBlockTableRecord
  2
*Model_Space
340
22
  0
BLOCK_RECORD
  5
1B
330
1
100
AcDbSymbolTableRecord
100
AcDbBlockTableRecord
  2
*Paper_Space
340
1E
  0
BLOCK_RECORD
  5
23
330
1
100
AcDbSymbolTableRecord
100
AcDbBlockTableRecord
  2
*Paper_Space0
340
26
  0
BLOCK_RECORD
  5
74
330
1
100
AcDbSymbolTableRecord
100
AcDbBlockTableRecord
  2
Blocco2
340
0
  0
BLOCK_RECORD
  5
D5
330
1
100
AcDbSymbolTableRecord
100
AcDbBlockTableRecord
  2
Blocco6
340
0
  0
BLOCK_RECORD
  5
112
330
1
100
AcDbSymbolTableRecord
100
AcDbBlockTableRecord
  2
Blocco7
340
0
  0
BLOCK_RECORD
  5
12D
330
1
100
AcDbSymbolTableRecord
100
AcDbBlockTableRecord
  2
Blocco8
340
0
  0
BLOCK_RECORD
  5
134
330
1
100
AcDbSymbolTableRecord
100
AcDbBlockTableRecord
  2
Blocco9
340
0
  0
BLOCK_RECORD
  5
13B
330
1
100
AcDbSymbolTableRecord
100
AcDbBlockTableRecord
  2
Blocco10
340
0
  0
BLOCK_RECORD
  5
467
330
1
100
AcDbSymbolTableRecord
100
AcDbBlockTableRecord
  2
*D7
340
0
  0
BLOCK_RECORD
  5
477
330
1
100
AcDbSymbolTableRecord
100
AcDbBlockTableRecord
  2
*D8
340
0
  0
ENDTAB
  0
ENDSEC
  0
SECTION
  2
BLOCKS
  0
BLOCK
  5
20
330
1F
100
AcDbEntity
  8
0
100
AcDbBlockBegin
  2
*Model_Space
 70
     0
 10
0.0
 20
0.0
 30
0.0
  3
*Model_Space
  1

  0
ENDBLK
  5
21
330
1F
100
AcDbEntity
  8
0
100
AcDbBlockEnd
  0
BLOCK
  5
1C
330
1B
100
AcDbEntity
 67
     1
  8
0
100
AcDbBlockBegin
  2
*Paper_Space
 70
     0
 10
0.0
 20
0.0
 30
0.0
  3
*Paper_Space
  1

  0
ENDBLK
  5
1D
330
1B
100
AcDbEntity
 67
     1
  8
0
100
AcDbBlockEnd
  0
BLOCK
  5
24
330
23
100
AcDbEntity
  8
0
100
AcDbBlockBegin
  2
*Paper_Space0
 70
     0
 10
0.0
 20
0.0
 30
0.0
  3
*Paper_Space0
  1

  0
ENDBLK
  5
25
330
23
100
AcDbEntity
  8
0
100
AcDbBlockEnd
  0
BLOCK
  5
75
330
74
100
AcDbEntity
  8
0
100
AcDbBlockBegin
  2
Blocco2
 70
     0
 10
0.0
 20
0.0
 30
0.0
  3
Blocco2
  1

  0
ARC
  5
77
330
74
100
AcDbEntity
  8
0
  6
Continuous
 62
     7
370
    18
100
AcDbCircle
 10
11.3524413081
 20
-35.7276460737
 30
0.0
 40
45.03700271094024
100
AcDbArc
 50
87.2552811745
 51
90.41914511600001
  0
ARC
  5
78
330
74
100
AcDbEntity
  8
0
  6
Continuous
 62
     7
370
    18
100
AcDbCircle
 10
10.4347115851
 20
-19.2097711598
 30
0.0
 40
28.63299050090509
100
AcDbArc
 50
83.8361693523
 51
88.82277263
  0
ARC
  5
79
330
74
100
AcDbEntity
  8
0
  6
Continuous
 62
     7
370
    18
100
AcDbCircle
 10
18.9257055051
 20
4.4740823861
 30
0.0
 40
3.039520156586148
100
AcDbArc
 50
5.4668529803
 51
51.9385129077
  0
ARC
  5
7A
330
74
100
AcDbEntity
  8
0
  6
Continuous
 62
     7
370
    18
100
AcDbCircle
 10
19.0336324459
 20
4.4009796263
 30
0.0
 40
3.033328806475756
100
AcDbArc
 50
6.8669507428
 51
54.39564514540001
  0
ARC
  5
7B
330
74
100
AcDbEntity
  8
0
  6
Continuous
 62
     7
370
    18
100
AcDbCircle
 10
4.4336709389
 20
4.7774371901
 30
0.0
 40
1.278491932774483
100
AcDbArc
 50
87.5206960647
 51
180.6175688017
  0
ARC
  5
7C
330
74
100
AcDbEntity
  8
0
  6
Continuous
 62
     7
370
    18
100
AcDbCircle
 10
4.5421591382
 20
4.7864300438
 30
0.0
 40
1.052925839423084
100
AcDbArc
 50
137.9952467217
 51
181.2393045225
  0
ARC
  5
7D
330
74
100
AcDbEntity
  8
0
  6
Continuous
 62
     7
370
    18
100
AcDbCircle
 10
4.450459014
 20
4.7349059722
 30
0.0
 40
1.024123798923566
100
AcDbArc
 50
87.8453134185
 51
132.4112659359
  0
ARC
  5
7E
330
74
100
AcDbEntity
  8
0
  6
Continuous
 62
     7
370
    18
100
AcDbCircle
 10
4.4093379267
 20
4.590434379
 30
0.0
 40
1.230414064591743
100
AcDbArc
 50
219.6881491102
 51
269.4792649485
  0
ARC
  5
7F
330
74
100
AcDbEntity
  8
0
  6
Continuous
 62
     7
370
    18
100
AcDbCircle
 10
4.7415027104
 20
4.7431627677
 30
0.0
 40
1.586381826113275
100
AcDbArc
 50
179.259780368
 51
216.2696450905
  0
ARC
  5
80
330
74
100
AcDbEntity
  8
0
  6
Continuous
 62
     7
370
    18
100
AcDbCircle
 10
4.4473096097
 20
4.6391672705
 30
0.0
 40
0.9845699341548244
100
AcDbArc
 50
216.6836460146
 51
272.6640485798999
  0
ARC
  5
81
330
74
100
AcDbEntity
  8
0
  6
Continuous
 62
     7
370
    18
100
AcDbCircle
 10
4.8490698161
 20
4.7084538956
 30
0.0
 40
1.360710460064298
100
AcDbArc
 50
177.6749069314
 51
208.8931530518
  0
ARC
  5
82
330
74
100
AcDbEntity
  8
0
  6
Continuous
 62
     7
370
    18
100
AcDbCircle
 10
11.3760465249
 20
4.7864300438
 30
0.0
 40
1.052925839423081
100
AcDbArc
 50
137.9952467217
 51
181.2393045225
  0
ARC
  5
83
330
74
100
AcDbEntity
  8
0
  6
Continuous
 62
     7
370
    18
100
AcDbCircle
 10
11.2843464007
 20
4.7349059722
 30
0.0
 40
1.024123798923566
100
AcDbArc
 50
87.8453134185
 51
132.4112659359
  0
ARC
  5
84
330
74
100
AcDbEntity
  8
0
  6
Continuous
 62
     7
370
    18
100
AcDbCircle
 10
11.2432253134
 20
4.590434379
 30
0.0
 40
1.230414064591707
100
AcDbArc
 50
219.6881491102
 51
269.4792649485
  0
ARC
  5
85
330
74
100
AcDbEntity
  8
0
  6
Continuous
 62
     7
370
    18
100
AcDbCircle
 10
11.2811969964
 20
4.6391672705
 30
0.0
 40
0.9845699341548168
100
AcDbArc
 50
216.6836460146
 51
272.6640485798999
  0
ARC
  5
86
330
74
100
AcDbEntity
  8
0
  6
Continuous
 62
     7
370
    18
100
AcDbCircle
 10
11.6829572028
 20
4.7084538956
 30
0.0
 40
1.360710460064293
100
AcDbArc
 50
177.6749069314
 51
208.8931530518
  0
ARC
  5
87
330
74
100
AcDbEntity
  8
0
  6
Continuous
 62
     7
370
    18
100
AcDbCircle
 10
11.2675583256
 20
4.7774371901
 30
0.0
 40
1.278491932774481
100
AcDbArc
 50
87.5206960647
 51
180.6175688017
  0
ARC
  5
88
330
74
100
AcDbEntity
  8
0
  6
Continuous
 62
     7
370
    18
100
AcDbCircle
 10
11.5753900971
 20
4.7431627677
 30
0.0
 40
1.586381826113274
100
AcDbArc
 50
179.259780368
 51
216.2696450905
  0
ARC
  5
89
330
74
100
AcDbEntity
  8
0
  6
Continuous
 62
     7
370
    18
100
AcDbCircle
 10
6.7952630952
 20
4.7864300438
 30
0.0
 40
1.052925839423083
100
AcDbArc
 50
137.9952467217
 51
181.2393045225
  0
ARC
  5
8A
330
74
100
AcDbEntity
  8
0
  6
Continuous
 62
     7
370
    18
100
AcDbCircle
 10
6.7040760647
 20
4.7340610777
 30
0.0
 40
1.025093676329177
100
AcDbArc
 50
89.1052832126
 51
132.4005898678
  0
ARC
  5
8B
330
74
100
AcDbEntity
  8
0
  6
Continuous
 62
     7
370
    18
100
AcDbCircle
 10
6.6624418837
 20
4.590434379
 30
0.0
 40
1.230414064591694
100
AcDbArc
 50
219.6881491102
 51
269.4792649485
  0
ARC
  5
8C
330
74
100
AcDbEntity
  8
0
  6
Continuous
 62
     7
370
    18
100
AcDbCircle
 10
6.9946066674
 20
4.7431627677
 30
0.0
 40
1.586381826113264
100
AcDbArc
 50
179.259780368
 51
216.2696450905
  0
ARC
  5
8D
330
74
100
AcDbEntity
  8
0
  6
Continuous
 62
     7
370
    18
100
AcDbCircle
 10
6.7010082073
 20
4.6398932297
 30
0.0
 40
0.985480515391083
100
AcDbArc
 50
216.6968405364
 51
271.1090780217
  0
ARC
  5
8E
330
74
100
AcDbEntity
  8
0
  6
Continuous
 62
     7
370
    18
100
AcDbCircle
 10
7.1021737731
 20
4.7084538956
 30
0.0
 40
1.360710460064326
100
AcDbArc
 50
177.6749069314
 51
208.8931530518
  0
ARC
  5
8F
330
74
100
AcDbEntity
  8
0
  6
Continuous
 62
     7
370
    18
100
AcDbCircle
 10
6.6867748959
 20
4.7774371901
 30
0.0
 40
1.278491932774489
100
AcDbArc
 50
90.0
 51
180.6175688017
  0
ARC
  5
90
330
74
100
AcDbEntity
  8
0
  6
Continuous
 62
     7
370
    18
100
AcDbCircle
 10
6.644902954
 20
4.7864300438
 30
0.0
 40
1.052925839423077
100
AcDbArc
 50
358.7606954775
 51
42.0047532783
  0
ARC
  5
91
330
74
100
AcDbEntity
  8
0
  6
Continuous
 62
     7
370
    18
100
AcDbCircle
 10
6.7360899846
 20
4.7340610777
 30
0.0
 40
1.025093676329159
100
AcDbArc
 50
47.59941013219999
 51
90.8947167874
  0
ARC
  5
92
330
74
100
AcDbEntity
  8
0
  6
Continuous
 62
     7
370
    18
100
AcDbCircle
 10
6.7777241656
 20
4.590434379
 30
0.0
 40
1.230414064591705
100
AcDbArc
 50
270.5207350515
 51
320.3118508898
  0
ARC
  5
93
330
74
100
AcDbEntity
  8
0
  6
Continuous
 62
     7
370
    18
100
AcDbCircle
 10
6.4455593819
 20
4.7431627677
 30
0.0
 40
1.586381826113264
100
AcDbArc
 50
323.7303549095001
 51
0.740219632
  0
ARC
  5
94
330
74
100
AcDbEntity
  8
0
  6
Continuous
 62
     7
370
    18
100
AcDbCircle
 10
6.7391578419
 20
4.6398932297
 30
0.0
 40
0.9854805153910923
100
AcDbArc
 50
268.8909219783
 51
323.3031594636
  0
ARC
  5
95
330
74
100
AcDbEntity
  8
0
  6
Continuous
 62
     7
370
    18
100
AcDbCircle
 10
6.3379922762
 20
4.7084538956
 30
0.0
 40
1.360710460064302
100
AcDbArc
 50
331.1068469482
 51
2.3250930686
  0
ARC
  5
96
330
74
100
AcDbEntity
  8
0
  6
Continuous
 62
     7
370
    18
100
AcDbCircle
 10
6.7533911534
 20
4.7774371901
 30
0.0
 40
1.278491932774497
100
AcDbArc
 50
359.3824311983
 51
90.0
  0
ARC
  5
97
330
74
100
AcDbEntity
  8
0
  6
Continuous
 62
     7
370
    18
100
AcDbCircle
 10
13.6289707726
 20
4.7864300438
 30
0.0
 40
1.052925839423084
100
AcDbArc
 50
137.9952467217
 51
181.2393045225
  0
ARC
  5
98
330
74
100
AcDbEntity
  8
0
  6
Continuous
 62
     7
370
    18
100
AcDbCircle
 10
13.5377837421
 20
4.7340610777
 30
0.0
 40
1.025093676329182
100
AcDbArc
 50
89.1052832126
 51
132.4005898678
  0
ARC
  5
99
330
74
100
AcDbEntity
  8
0
  6
Continuous
 62
     7
370
    18
100
AcDbCircle
 10
13.4961495611
 20
4.590434379
 30
0.0
 40
1.230414064591706
100
AcDbArc
 50
219.6881491102
 51
269.4792649484
  0
ARC
  5
9A
330
74
100
AcDbEntity
  8
0
  6
Continuous
 62
     7
370
    18
100
AcDbCircle
 10
13.8283143447
 20
4.7431627677
 30
0.0
 40
1.586381826113258
100
AcDbArc
 50
179.259780368
 51
216.2696450905
  0
ARC
  5
9B
330
74
100
AcDbEntity
  8
0
  6
Continuous
 62
     7
370
    18
100
AcDbCircle
 10
13.5347158847
 20
4.6398932297
 30
0.0
 40
0.9854805153910695
100
AcDbArc
 50
216.6968405364
 51
271.1090780217
  0
ARC
  5
9C
330
74
100
AcDbEntity
  8
0
  6
Continuous
 62
     7
370
    18
100
AcDbCircle
 10
13.9358814504
 20
4.7084538956
 30
0.0
 40
1.36071046006428
100
AcDbArc
 50
177.6749069313
 51
208.8931530518
  0
ARC
  5
9D
330
74
100
AcDbEntity
  8
0
  6
Continuous
 62
     7
370
    18
100
AcDbCircle
 10
13.5204825732
 20
4.7774371901
 30
0.0
 40
1.278491932774489
100
AcDbArc
 50
90.0
 51
180.6175688017
  0
ARC
  5
9E
330
74
100
AcDbEntity
  8
0
  6
Continuous
 62
     7
370
    18
100
AcDbCircle
 10
13.4786106314
 20
4.7864300438
 30
0.0
 40
1.05292583942309
100
AcDbArc
 50
358.7606954775
 51
42.0047532783
  0
ARC
  5
9F
330
74
100
AcDbEntity
  8
0
  6
Continuous
 62
     7
370
    18
100
AcDbCircle
 10
13.5697976619
 20
4.7340610777
 30
0.0
 40
1.02509367632917
100
AcDbArc
 50
47.59941013209999
 51
90.8947167874
  0
ARC
  5
A0
330
74
100
AcDbEntity
  8
0
  6
Continuous
 62
     7
370
    18
100
AcDbCircle
 10
13.6114318429
 20
4.590434379
 30
0.0
 40
1.230414064591706
100
AcDbArc
 50
270.5207350515
 51
320.3118508898
  0
ARC
  5
A1
330
74
100
AcDbEntity
  8
0
  6
Continuous
 62
     7
370
    18
100
AcDbCircle
 10
13.2792670592
 20
4.7431627677
 30
0.0
 40
1.586381826113269
100
AcDbArc
 50
323.7303549095001
 51
0.740219632
  0
ARC
  5
A2
330
74
100
AcDbEntity
  8
0
  6
Continuous
 62
     7
370
    18
100
AcDbCircle
 10
13.5728655193
 20
4.6398932297
 30
0.0
 40
0.9854805153910822
100
AcDbArc
 50
268.8909219783
 51
323.3031594636
  0
ARC
  5
A3
330
74
100
AcDbEntity
  8
0
  6
Continuous
 62
     7
370
    18
100
AcDbCircle
 10
13.1716999535
 20
4.7084538956
 30
0.0
 40
1.360710460064319
100
AcDbArc
 50
331.1068469482
 51
2.3250930686
  0
ARC
  5
A4
330
74
100
AcDbEntity
  8
0
  6
Continuous
 62
     7
370
    18
100
AcDbCircle
 10
13.5870988307
 20
4.7774371901
 30
0.0
 40
1.278491932774489
100
AcDbArc
 50
359.3824311983
 51
90.0
  0
ELLIPSE
  5
A5
330
74
100
AcDbEntity
  8
0
  6
Continuous
 62
     7
370
    18
100
AcDbEllipse
 10
11.0229777503
 20
4.7085878625
 30
0.0
 11
11.02297775031299
 21
0.0
 31
0.0
210
0.0
220
0.0
230
1.0
 40
0.4271611509
 41
1.570796326794897
 42
6.294881061196232
  0
ELLIPSE
  5
A6
330
74
100
AcDbEntity
  8
0
  6
Continuous
 62
     7
370
    18
100
AcDbEllipse
 10
11.1194542455
 20
4.7636570924
 30
0.0
 11
10.83194610074352
 21
0.0
 31
0.0
210
0.0
220
0.0
230
1.0
 40
0.4195621611
 41
1.579703107693041
 42
6.283185307179586
  0
LINE
  5
A7
330
74
100
AcDbEntity
  8
0
  6
Continuous
 62
     7
370
    18
100
AcDbLine
 10
5.0719208813
 20
6.0560191968
 30
0.0
 11
5.0719208813
 21
5.7583056783
 31
0.0
  0
LINE
  5
A8
330
74
100
AcDbEntity
  8
0
  6
Continuous
 62
     7
370
    18
100
AcDbLine
 10
5.0719208813
 20
5.7583056783
 30
0.0
 11
4.4889635206
 21
5.7583056783
 31
0.0
  0
LINE
  5
A9
330
74
100
AcDbEntity
  8
0
  6
Continuous
 62
     7
370
    18
100
AcDbLine
 10
5.0719208813
 20
6.0560191968
 30
0.0
 11
4.4889765998
 21
6.0547323424
 31
0.0
  0
LINE
  5
AA
330
74
100
AcDbEntity
  8
0
  6
Continuous
 62
     7
370
    18
100
AcDbLine
 10
5.212963293
 20
3.6556614239
 30
0.0
 11
5.212963293
 21
3.3600711311
 31
0.0
  0
LINE
  5
AB
330
74
100
AcDbEntity
  8
0
  6
Continuous
 62
     7
370
    18
100
AcDbLine
 10
5.212963293
 20
3.3600711311
 30
0.0
 11
4.3981554117
 21
3.3600711311
 31
0.0
  0
LINE
  5
AC
330
74
100
AcDbEntity
  8
0
  6
Continuous
 62
     7
370
    18
100
AcDbLine
 10
5.212963293
 20
3.6556614239
 30
0.0
 11
4.4930720928
 21
3.6556614239
 31
0.0
  0
LINE
  5
AD
330
74
100
AcDbEntity
  8
0
  6
Continuous
 62
     7
370
    18
100
AcDbLine
 10
11.905808268
 20
6.0560191968
 30
0.0
 11
11.905808268
 21
5.7583056783
 31
0.0
  0
LINE
  5
AE
330
74
100
AcDbEntity
  8
0
  6
Continuous
 62
     7
370
    18
100
AcDbLine
 10
11.905808268
 20
5.7583056783
 30
0.0
 11
11.3228509073
 21
5.7583056783
 31
0.0
  0
LINE
  5
AF
330
74
100
AcDbEntity
  8
0
  6
Continuous
 62
     7
370
    18
100
AcDbLine
 10
11.905808268
 20
6.0560191968
 30
0.0
 11
11.3228639865
 21
6.0547323424
 31
0.0
  0
LINE
  5
B0
330
74
100
AcDbEntity
  8
0
  6
Continuous
 62
     7
370
    18
100
AcDbLine
 10
12.0468506797
 20
3.6556614239
 30
0.0
 11
12.0468506797
 21
3.3600711311
 31
0.0
  0
LINE
  5
B1
330
74
100
AcDbEntity
  8
0
  6
Continuous
 62
     7
370
    18
100
AcDbLine
 10
12.0468506797
 20
3.3600711311
 30
0.0
 11
11.2320427984
 21
3.3600711311
 31
0.0
  0
LINE
  5
B2
330
74
100
AcDbEntity
  8
0
  6
Continuous
 62
     7
370
    18
100
AcDbLine
 10
12.0468506797
 20
3.6556614239
 30
0.0
 11
11.3269594795
 21
3.6556614239
 31
0.0
  0
LINE
  5
B3
330
74
100
AcDbEntity
  8
0
  6
Continuous
 62
     7
370
    18
100
AcDbLine
 10
6.6867748959
 20
6.0559291229
 30
0.0
 11
6.7200830246
 21
6.0559291229
 31
0.0
  0
LINE
  5
B4
330
74
100
AcDbEntity
  8
0
  6
Continuous
 62
     7
370
    18
100
AcDbLine
 10
6.6512593688
 20
3.3600711311
 30
0.0
 11
6.7200830246
 21
3.3600711311
 31
0.0
  0
LINE
  5
B5
330
74
100
AcDbEntity
  8
0
  6
Continuous
 62
     7
370
    18
100
AcDbLine
 10
6.7533911534
 20
6.0559291229
 30
0.0
 11
6.7200830246
 21
6.0559291229
 31
0.0
  0
LINE
  5
B6
330
74
100
AcDbEntity
  8
0
  6
Continuous
 62
     7
370
    18
100
AcDbLine
 10
6.7889066805
 20
3.3600711311
 30
0.0
 11
6.7200830246
 21
3.3600711311
 31
0.0
  0
LINE
  5
B7
330
74
100
AcDbEntity
  8
0
  6
Continuous
 62
     7
370
    18
100
AcDbLine
 10
13.5204825732
 20
6.0559291229
 30
0.0
 11
13.553790702
 21
6.0559291229
 31
0.0
  0
LINE
  5
B8
330
74
100
AcDbEntity
  8
0
  6
Continuous
 62
     7
370
    18
100
AcDbLine
 10
13.4849670461
 20
3.3600711311
 30
0.0
 11
13.553790702
 21
3.3600711311
 31
0.0
  0
LINE
  5
B9
330
74
100
AcDbEntity
  8
0
  6
Continuous
 62
     7
370
    18
100
AcDbLine
 10
13.5870988307
 20
6.0559291229
 30
0.0
 11
13.553790702
 21
6.0559291229
 31
0.0
  0
LINE
  5
BA
330
74
100
AcDbEntity
  8
0
  6
Continuous
 62
     7
370
    18
100
AcDbLine
 10
13.6226143578
 20
3.3600711311
 30
0.0
 11
13.553790702
 21
3.3600711311
 31
0.0
  0
LINE
  5
BB
330
74
100
AcDbEntity
  8
0
  6
Continuous
 62
     7
370
    18
100
AcDbLine
 10
8.6640321741
 20
6.0547603044
 30
0.0
 11
8.6640321741
 21
3.656644754
 31
0.0
  0
LINE
  5
BC
330
74
100
AcDbEntity
  8
0
  6
Continuous
 62
     7
370
    18
100
AcDbLine
 10
8.6640321741
 20
3.656644754
 30
0.0
 11
9.7937655882
 21
3.656644754
 31
0.0
  0
LINE
  5
BD
330
74
100
AcDbEntity
  8
0
  6
Continuous
 62
     7
370
    18
100
AcDbLine
 10
9.7937655882
 20
3.656644754
 30
0.0
 11
9.7937655882
 21
3.3597898205
 31
0.0
  0
LINE
  5
BE
330
74
100
AcDbEntity
  8
0
  6
Continuous
 62
     7
370
    18
100
AcDbLine
 10
9.7937655882
 20
3.3597898205
 30
0.0
 11
8.3684585854
 21
3.3597898205
 31
0.0
  0
LINE
  5
BF
330
74
100
AcDbEntity
  8
0
  6
Continuous
 62
     7
370
    18
100
AcDbLine
 10
8.3684585854
 20
3.3597898205
 30
0.0
 11
8.3684585854
 21
6.0547603044
 31
0.0
  0
LINE
  5
C0
330
74
100
AcDbEntity
  8
0
  6
Continuous
 62
     7
370
    18
100
AcDbLine
 10
8.3684585854
 20
6.0547603044
 30
0.0
 11
8.6640321741
 21
6.0547603044
 31
0.0
  0
LINE
  5
C1
330
74
100
AcDbEntity
  8
0
  6
Continuous
 62
     7
370
    18
100
AcDbLine
 10
15.9455124972
 20
6.0540605676
 30
0.0
 11
16.166651415
 21
6.0540605676
 31
0.0
  0
LINE
  5
C2
330
74
100
AcDbEntity
  8
0
  6
Continuous
 62
     7
370
    18
100
AcDbLine
 10
16.166651415
 20
6.0540605676
 30
0.0
 11
16.8443180552
 21
4.4818105659
 31
0.0
  0
LINE
  5
C3
330
74
100
AcDbEntity
  8
0
  6
Continuous
 62
     7
370
    18
100
AcDbLine
 10
16.0504080522
 20
5.5491087439
 30
0.0
 11
16.6982555549
 21
4.0531230646
 31
0.0
  0
LINE
  5
C4
330
74
100
AcDbEntity
  8
0
  6
Continuous
 62
     7
370
    18
100
AcDbLine
 10
17.7431236131
 20
6.0540605676
 30
0.0
 11
17.5219846953
 21
6.0540605676
 31
0.0
  0
LINE
  5
C5
330
74
100
AcDbEntity
  8
0
  6
Continuous
 62
     7
370
    18
100
AcDbLine
 10
17.5219846953
 20
6.0540605676
 30
0.0
 11
16.8443180552
 21
4.4818105659
 31
0.0
  0
LINE
  5
C6
330
74
100
AcDbEntity
  8
0
  6
Continuous
 62
     7
370
    18
100
AcDbLine
 10
18.5488444404
 20
3.3605126922
 30
0.0
 11
17.6382280581
 21
5.5491087439
 31
0.0
  0
LINE
  5
C7
330
74
100
AcDbEntity
  8
0
  6
Continuous
 62
     7
370
    18
100
AcDbLine
 10
17.6382280581
 20
5.5491087439
 30
0.0
 11
16.9903805554
 21
4.0531230646
 31
0.0
  0
LINE
  5
C8
330
74
100
AcDbEntity
  8
0
  6
Continuous
 62
     7
370
    18
100
AcDbLine
 10
18.8743513718
 20
3.3605126922
 30
0.0
 11
17.7431236131
 21
6.0540605676
 31
0.0
  0
LINE
  5
C9
330
74
100
AcDbEntity
  8
0
  6
Continuous
 62
     7
370
    18
100
AcDbLine
 10
18.5488444404
 20
3.3605126922
 30
0.0
 11
18.8743513718
 21
3.3605126922
 31
0.0
  0
LINE
  5
CA
330
74
100
AcDbEntity
  8
0
  6
Continuous
 62
     7
370
    18
100
AcDbLine
 10
16.6982555549
 20
4.0531230646
 30
0.0
 11
16.9903805554
 21
4.0531230646
 31
0.0
  0
LINE
  5
CB
330
74
100
AcDbEntity
  8
0
  6
Continuous
 62
     7
370
    18
100
AcDbLine
 10
15.1397916699
 20
3.3605126922
 30
0.0
 11
14.8142847385
 21
3.3605126922
 31
0.0
  0
LINE
  5
CC
330
74
100
AcDbEntity
  8
0
  6
Continuous
 62
     7
370
    18
100
AcDbLine
 10
14.8142847385
 20
3.3605126922
 30
0.0
 11
15.9455124972
 21
6.0540605676
 31
0.0
  0
LINE
  5
CD
330
74
100
AcDbEntity
  8
0
  6
Continuous
 62
     7
370
    18
100
AcDbLine
 10
15.1397916699
 20
3.3605126922
 30
0.0
 11
16.0504080522
 21
5.5491087439
 31
0.0
  0
HATCH
  5
CE
330
74
100
AcDbEntity
  8
0
  6
Continuous
 62
     7
100
AcDbHatch
 10
0.0
 20
0.0
 30
0.0
210
0.0
220
0.0
230
1.0
  2
SOLID
 70
     1
 71
     0
 91
        1
 92
        0
 93
        6
 72
     3
 10
11.11945424547252
 20
4.763657092365897
 11
10.83194610074352
 21
0.0
 40
0.4195621611426649
 50
0.0
 51
268.7838326447011
 73
     0
 72
     2
 10
11.35244130809684
 20
-35.7276460736966
 40
45.03700271094024
 50
269.5808548839851
 51
272.7447188255457
 73
     0
 72
     2
 10
10.43471158507635
 20
-19.20977115982869
 40
28.63299050090508
 50
83.83616935229334
 51
88.8227726300255
 73
     1
 72
     3
 10
11.02297775031299
 20
4.708587862473411
 11
11.02297775031299
 21
0.0
 40
0.4271611509276351
 50
90.0
 51
360.2862587665418
 73
     1
 72
     2
 10
19.03363244588236
 20
4.400979626332637
 40
3.033328806475749
 50
6.866950742808937
 51
54.39564514541159
 73
     1
 72
     2
 10
18.92570550506284
 20
4.474082386094188
 40
3.039520156586144
 50
308.0614870922973
 51
354.5331470197357
 73
     0
 97
        0
 75
     0
 76
     1
 98
        1
 10
0.0
 20
0.0
  0
HATCH
  5
CF
330
74
100
AcDbEntity
  8
0
  6
Continuous
 62
     7
100
AcDbHatch
 10
0.0
 20
0.0
 30
0.0
210
0.0
220
0.0
230
1.0
  2
SOLID
 70
     1
 71
     0
 91
        2
 92
        0
 93
       10
 72
     2
 10
6.753391153375309
 20
4.777437190123967
 40
1.278491932774493
 50
359.3824311982546
 51
450.0000000000008
 73
     1
 72
     1
 10
6.753391153375309
 20
6.055929122898457
 11
6.720083024639653
 21
6.055929122898457
 72
     1
 10
6.720083024639653
 20
6.055929122898457
 11
6.68677489590401
 21
6.055929122898453
 72
     2
 10
6.68677489590401
 20
4.777437190123967
 40
1.278491932774486
 50
90.0
 51
180.6175688017436
 73
     1
 72
     2
 10
6.994606667408545
 20
4.743162767722506
 40
1.586381826113261
 50
179.2597803679926
 51
216.2696450904569
 73
     1
 72
     2
 10
6.662441883722753
 20
4.590434378979241
 40
1.230414064591694
 50
219.688149110216
 51
269.4792649485132
 73
     1
 72
     1
 10
6.651259368779875
 20
3.360071131111114
 11
6.720083024639653
 21
3.360071131111114
 72
     1
 10
6.720083024639653
 20
3.360071131111114
 11
6.788906680500487
 21
3.360071131111114
 72
     2
 10
6.777724165556553
 20
4.590434378979241
 40
1.230414064591705
 50
270.5207350515374
 51
320.3118508897865
 73
     1
 72
     2
 10
6.445559381870789
 20
4.743162767722533
 40
1.586381826113264
 50
323.730354909544
 51
360.7402196320045
 73
     1
 97
        0
 92
        0
 93
        8
 72
     2
 10
6.337992276176097
 20
4.708453895610268
 40
1.360710460064296
 50
357.6749069313887
 51
388.89315305182
 73
     0
 72
     2
 10
6.739157841937418
 20
4.63989322974813
 40
0.9854805153910855
 50
36.6968405364094
 51
91.10907802165805
 73
     0
 72
     2
 10
6.701008207341888
 20
4.63989322974813
 40
0.9854805153910808
 50
88.89092197834036
 51
143.3031594635947
 73
     0
 72
     2
 10
7.102173773103422
 20
4.708453895609933
 40
1.360710460064311
 50
151.1068469482003
 51
182.3250930686284
 73
     0
 72
     2
 10
6.795263095235807
 20
4.786430043844462
 40
1.052925839423083
 50
178.7606954775337
 51
222.0047532782973
 73
     0
 72
     2
 10
6.704076064728134
 20
4.734061077673188
 40
1.02509367632917
 50
227.5994101321587
 51
270.8947167873762
 73
     0
 72
     2
 10
6.736089984551274
 20
4.734061077673241
 40
1.025093676329141
 50
269.1052832126313
 51
312.4005898678502
 73
     0
 72
     2
 10
6.644902954043727
 20
4.786430043844422
 40
1.052925839423068
 50
317.9952467217032
 51
361.2393045224668
 73
     0
 97
        0
 75
     0
 76
     1
 98
        1
 10
0.0
 20
0.0
  0
HATCH
  5
D0
330
74
100
AcDbEntity
  8
0
  6
Continuous
 62
     7
100
AcDbHatch
 10
0.0
 20
0.0
 30
0.0
210
0.0
220
0.0
230
1.0
  2
SOLID
 70
     1
 71
     0
 91
        1
 92
        0
 93
       13
 72
     2
 10
4.84906981605844
 20
4.708453895610226
 40
1.360710460064296
 50
177.6749069313867
 51
208.8931530518081
 73
     1
 72
     2
 10
4.447309609708183
 20
4.639167270498082
 40
0.984569934154821
 50
216.6836460145909
 51
272.6640485798765
 73
     1
 72
     1
 10
4.493072092776148
 20
3.655661423852985
 11
5.212963293010094
 21
3.655661423852989
 72
     1
 10
5.212963293010094
 20
3.655661423852989
 11
5.212963293010094
 21
3.360071131111074
 72
     1
 10
5.212963293010094
 20
3.360071131111074
 11
4.398155411734124
 21
3.360071131111087
 72
     2
 10
4.409337926677984
 20
4.590434378979241
 40
1.23041406459173
 50
90.52073505153331
 51
140.3118508897912
 73
     0
 72
     2
 10
4.741502710363749
 20
4.74316276772252
 40
1.586381826113268
 50
143.7303549095478
 51
180.740219632004
 73
     0
 72
     2
 10
4.433670938859214
 20
4.777437190123967
 40
1.278491932774482
 50
179.3824311982526
 51
272.4793039352954
 73
     0
 72
     1
 10
4.488976599843278
 20
6.054732342401836
 11
5.07192088133332
 21
6.056019196759688
 72
     1
 10
5.07192088133332
 20
6.056019196759688
 11
5.07192088133332
 21
5.75830567829097
 72
     1
 10
5.07192088133332
 20
5.75830567829097
 11
4.488963520562065
 21
5.75830567829097
 72
     2
 10
4.450459013996391
 20
4.734905972166442
 40
1.024123798923566
 50
87.84531341852427
 51
132.4112659358824
 73
     1
 72
     2
 10
4.54215913819081
 20
4.786430043844464
 40
1.052925839423083
 50
137.9952467217038
 51
181.2393045224698
 73
     1
 97
        0
 75
     0
 76
     1
 98
        1
 10
0.0
 20
0.0
  0
HATCH
  5
D1
330
74
100
AcDbEntity
  8
0
  6
Continuous
 62
     7
100
AcDbHatch
 10
0.0
 20
0.0
 30
0.0
210
0.0
220
0.0
230
1.0
  2
SOLID
 70
     1
 71
     0
 91
        1
 92
        0
 93
        6
 72
     1
 10
8.36845858540783
 20
6.054760304382095
 11
8.664032174086497
 21
6.054760304382095
 72
     1
 10
8.664032174086497
 20
6.054760304382095
 11
8.664032174086497
 21
3.656644753951499
 72
     1
 10
8.664032174086497
 20
3.656644753951499
 11
9.793765588229004
 21
3.656644753951499
 72
     1
 10
9.793765588229004
 20
3.656644753951499
 11
9.793765588229004
 21
3.359789820517809
 72
     1
 10
9.793765588229004
 20
3.359789820517809
 11
8.36845858540783
 21
3.359789820517809
 72
     1
 10
8.36845858540783
 20
3.359789820517809
 11
8.36845858540783
 21
6.054760304382095
 97
        0
 75
     0
 76
     1
 98
        1
 10
0.0
 20
0.0
  0
HATCH
  5
D2
330
74
100
AcDbEntity
  8
0
  6
Continuous
 62
     7
100
AcDbHatch
 10
0.0
 20
0.0
 30
0.0
210
0.0
220
0.0
230
1.0
  2
SOLID
 70
     1
 71
     0
 91
        1
 92
        0
 93
       13
 72
     2
 10
11.57539009707022
 20
4.743162767722548
 40
1.586381826113269
 50
179.259780367954
 51
216.2696450904577
 73
     1
 72
     2
 10
11.24322531338445
 20
4.590434378979241
 40
1.230414064591705
 50
219.6881491102147
 51
269.479264948464
 73
     1
 72
     1
 10
11.23204279844052
 20
3.360071131111114
 11
12.04685067971649
 21
3.360071131111114
 72
     1
 10
12.04685067971649
 20
3.360071131111114
 11
12.04685067971649
 21
3.655661423852985
 72
     1
 10
12.04685067971649
 20
3.655661423852985
 11
11.32695947948246
 21
3.655661423853029
 72
     2
 10
11.28119699641464
 20
4.639167270498096
 40
0.9845699341547881
 50
87.33595142013252
 51
143.3163539853954
 73
     0
 72
     2
 10
11.68295720276491
 20
4.70845389561024
 40
1.36071046006428
 50
151.1068469481826
 51
182.3250930686136
 73
     0
 72
     2
 10
11.37604652489728
 20
4.786430043844464
 40
1.052925839423079
 50
178.760695477531
 51
222.0047532782974
 73
     0
 72
     2
 10
11.28434640070286
 20
4.734905972166442
 40
1.024123798923566
 50
227.588734064119
 51
272.1546865814765
 73
     0
 72
     1
 10
11.32285090726853
 20
5.75830567829097
 11
11.90580826803979
 21
5.75830567829097
 72
     1
 10
11.90580826803979
 20
5.75830567829097
 11
11.90580826803979
 21
6.056019196759688
 72
     1
 10
11.90580826803979
 20
6.056019196759688
 11
11.32286398654975
 21
6.054732342401845
 72
     2
 10
11.2675583255657
 20
4.777437190123981
 40
1.278491932774475
 50
87.52069606470603
 51
180.6175688016945
 73
     1
 97
        0
 75
     0
 76
     1
 98
        1
 10
0.0
 20
0.0
  0
HATCH
  5
D3
330
74
100
AcDbEntity
  8
0
  6
Continuous
 62
     7
100
AcDbHatch
 10
0.0
 20
0.0
 30
0.0
210
0.0
220
0.0
230
1.0
  2
SOLID
 70
     1
 71
     0
 91
        2
 92
        0
 93
       10
 72
     2
 10
13.58709883070869
 20
4.777437190123967
 40
1.278491932774489
 50
359.3824311982546
 51
450.0000000000008
 73
     1
 72
     1
 10
13.58709883070869
 20
6.055929122898457
 11
13.55379070197305
 21
6.055929122898457
 72
     1
 10
13.55379070197305
 20
6.055929122898457
 11
13.52048257323738
 21
6.05592912289845
 72
     2
 10
13.52048257323738
 20
4.777437190123967
 40
1.278491932774482
 50
90.0
 51
180.6175688017483
 73
     1
 72
     2
 10
13.82831434474191
 20
4.74316276772252
 40
1.586381826113257
 50
179.2597803679969
 51
216.2696450904569
 73
     1
 72
     2
 10
13.49614956105614
 20
4.590434378979241
 40
1.230414064591707
 50
219.6881491102147
 51
269.4792649484489
 73
     1
 72
     1
 10
13.48496704611189
 20
3.360071131111114
 11
13.55379070197303
 21
3.360071131111114
 72
     1
 10
13.55379070197303
 20
3.360071131111114
 11
13.62261435783386
 21
3.360071131111114
 72
     2
 10
13.61143184288993
 20
4.590434378979241
 40
1.230414064591705
 50
270.5207350515374
 51
320.3118508897865
 73
     1
 72
     2
 10
13.27926705920415
 20
4.74316276772252
 40
1.586381826113269
 50
323.7303549095446
 51
360.7402196320049
 73
     1
 97
        0
 92
        0
 93
        8
 72
     2
 10
13.17169995350949
 20
4.708453895610268
 40
1.360710460064312
 50
357.6749069313887
 51
388.8931530518118
 73
     0
 72
     2
 10
13.57286551927081
 20
4.63989322974813
 40
0.9854805153910735
 50
36.69684053639779
 51
91.10907802165963
 73
     0
 72
     2
 10
13.53471588467527
 20
4.63989322974813
 40
0.9854805153910671
 50
88.89092197834113
 51
143.3031594635951
 73
     0
 72
     2
 10
13.93588145043703
 20
4.708453895609445
 40
1.360710460064278
 50
151.1068469482233
 51
182.3250930686561
 73
     0
 72
     2
 10
13.62897077256946
 20
4.786430043844573
 40
1.052925839423083
 50
178.7606954775368
 51
222.0047532782968
 73
     0
 72
     2
 10
13.53778374206174
 20
4.734061077673234
 40
1.025093676329182
 50
227.5994101321623
 51
270.8947167873769
 73
     0
 72
     2
 10
13.56979766188467
 20
4.734061077673241
 40
1.02509367632917
 50
269.1052832126441
 51
312.4005898678537
 73
     0
 72
     2
 10
13.47861063137712
 20
4.786430043844422
 40
1.052925839423084
 50
317.9952467217066
 51
361.2393045224668
 73
     0
 97
        0
 75
     0
 76
     1
 98
        1
 10
0.0
 20
0.0
  0
HATCH
  5
D4
330
74
100
AcDbEntity
  8
0
  6
Continuous
 62
     7
100
AcDbHatch
 10
0.0
 20
0.0
 30
0.0
210
0.0
220
0.0
230
1.0
  2
SOLID
 70
     1
 71
     0
 91
        1
 92
        0
 93
       13
 72
     1
 10
15.13979166991031
 20
3.360512692167569
 11
16.05040805223391
 21
5.549108743910444
 72
     1
 10
16.05040805223391
 20
5.549108743910444
 11
16.69825555488172
 21
4.053123064563263
 72
     1
 10
16.69825555488172
 20
4.053123064563263
 11
16.9903805554222
 21
4.053123064563263
 72
     1
 10
16.9903805554222
 20
4.053123064563263
 11
17.63822805807
 21
5.549108743910444
 72
     1
 10
17.63822805807
 20
5.549108743910444
 11
18.54884444039362
 21
3.360512692167569
 72
     1
 10
18.54884444039362
 20
3.360512692167569
 11
18.87435137179303
 21
3.360512692167569
 72
     1
 10
18.87435137179303
 20
3.360512692167569
 11
17.74312361306835
 21
6.054060567612665
 72
     1
 10
17.74312361306835
 20
6.054060567612665
 11
17.52198469529627
 21
6.054060567612665
 72
     1
 10
17.52198469529627
 20
6.054060567612665
 11
16.84431805515196
 21
4.481810565908906
 72
     1
 10
16.84431805515196
 20
4.481810565908906
 11
16.16665141500766
 21
6.054060567612665
 72
     1
 10
16.16665141500766
 20
6.054060567612665
 11
15.94551249723557
 21
6.054060567612665
 72
     1
 10
15.94551249723557
 20
6.054060567612665
 11
14.81428473851088
 21
3.360512692167569
 72
     1
 10
14.81428473851088
 20
3.360512692167569
 11
15.13979166991031
 21
3.360512692167569
 97
        0
 75
     0
 76
     1
 98
        1
 10
0.0
 20
0.0
  0
ENDBLK
  5
76
330
74
100
AcDbEntity
  8
0
100
AcDbBlockEnd
  0
BLOCK
  5
D6
330
D5
100
AcDbEntity
  8
0
100
AcDbBlockBegin
  2
Blocco6
 70
     0
 10
0.0
 20
0.0
 30
0.0
  3
Blocco6
  1

  0
LINE
  5
D8
330
D5
100
AcDbEntity
  8
0
  6
Continuous
 62
     7
370
    18
100
AcDbLine
 10
261.7483897306
 20
45.3393712312
 30
0.0
 11
261.7483897306
 21
34.621197788
 31
0.0
  0
LINE
  5
D9
330
D5
100
AcDbEntity
  8
0
  6
Continuous
 62
     7
370
    18
100
AcDbLine
 10
217.7886799447
 20
45.3393712312
 30
0.0
 11
275.7483897306
 21
45.3393712312
 31
0.0
  0
LINE
  5
DA
330
D5
100
AcDbEntity
  8
0
  6
Continuous
 62
     7
370
    18
100
AcDbLine
 10
254.7483897306
 20
45.3393712312
 30
0.0
 11
254.7483897306
 21
34.621197788
 31
0.0
  0
LINE
  5
DB
330
D5
100
AcDbEntity
  8
0
  6
Continuous
 62
     7
370
    18
100
AcDbLine
 10
247.7483897306
 20
45.3393712312
 30
0.0
 11
247.7483897306
 21
34.621197788
 31
0.0
  0
LINE
  5
DC
330
D5
100
AcDbEntity
  8
0
  6
Continuous
 62
     7
370
    18
100
AcDbLine
 10
240.7483897306
 20
45.3393712312
 30
0.0
 11
240.7483897306
 21
34.6231715189
 31
0.0
  0
LINE
  5
DD
330
D5
100
AcDbEntity
  8
0
  6
Continuous
 62
     7
370
    18
100
AcDbLine
 10
225.3934785013
 20
41.2930718328
 30
0.0
 11
225.3934785013
 21
34.621197788
 31
0.0
  0
LINE
  5
DE
330
D5
100
AcDbEntity
  8
0
  6
Continuous
 62
     7
370
    18
100
AcDbLine
 10
217.7886799447
 20
37.7200141529
 30
0.0
 11
275.7483897306
 21
37.7200141529
 31
0.0
  0
LINE
  5
DF
330
D5
100
AcDbEntity
  8
0
  6
Continuous
 62
     7
370
    18
100
AcDbLine
 10
268.7483897306
 20
45.3391156419
 30
0.0
 11
268.7483897306
 21
34.621197788
 31
0.0
  0
LINE
  5
E0
330
D5
100
AcDbEntity
  8
0
  6
Continuous
 62
     7
370
    18
100
AcDbLine
 10
217.7886799447
 20
47.6283816013
 30
0.0
 11
275.7483897306
 21
47.6283816013
 31
0.0
  0
LINE
  5
E1
330
D5
100
AcDbEntity
  8
0
  6
Continuous
 62
     7
370
    18
100
AcDbLine
 10
217.7886799447
 20
47.6283816013
 30
0.0
 11
217.7886799447
 21
34.621197788
 31
0.0
  0
LINE
  5
E2
330
D5
100
AcDbEntity
  8
0
  6
Continuous
 62
     7
370
    18
100
AcDbLine
 10
217.7886799447
 20
34.621197788
 30
0.0
 11
275.7483897306
 21
34.621197788
 31
0.0
  0
LINE
  5
E3
330
D5
100
AcDbEntity
  8
0
  6
Continuous
 62
     7
370
    18
100
AcDbLine
 10
275.7483897306
 20
47.6283816013
 30
0.0
 11
275.7483897306
 21
34.621197788
 31
0.0
  0
LINE
  5
E4
330
D5
100
AcDbEntity
  8
0
  6
Continuous
 62
     7
370
    18
100
AcDbLine
 10
297.327828823
 20
45.3393191679
 30
0.0
 11
297.327828823
 21
34.6211457247
 31
0.0
  0
LINE
  5
E5
330
D5
100
AcDbEntity
  8
0
  6
Continuous
 62
     7
370
    18
100
AcDbLine
 10
276.327828823
 20
45.3393191679
 30
0.0
 11
304.327828823
 21
45.3393191679
 31
0.0
  0
LINE
  5
E6
330
D5
100
AcDbEntity
  8
0
  6
Continuous
 62
     7
370
    18
100
AcDbLine
 10
290.327828823
 20
45.3393191679
 30
0.0
 11
290.327828823
 21
34.6211457247
 31
0.0
  0
LINE
  5
E7
330
D5
100
AcDbEntity
  8
0
  6
Continuous
 62
     7
370
    18
100
AcDbLine
 10
283.327828823
 20
45.3393191679
 30
0.0
 11
283.327828823
 21
34.6211457247
 31
0.0
  0
LINE
  5
E8
330
D5
100
AcDbEntity
  8
0
  6
Continuous
 62
     7
370
    18
100
AcDbLine
 10
276.327828823
 20
37.7199620895
 30
0.0
 11
304.327828823
 21
37.7199620895
 31
0.0
  0
LINE
  5
E9
330
D5
100
AcDbEntity
  8
0
  6
Continuous
 62
     7
370
    18
100
AcDbLine
 10
276.327828823
 20
47.628329538
 30
0.0
 11
304.327828823
 21
47.628329538
 31
0.0
  0
LINE
  5
EA
330
D5
100
AcDbEntity
  8
0
  6
Continuous
 62
     7
370
    18
100
AcDbLine
 10
276.327828823
 20
47.628329538
 30
0.0
 11
276.327828823
 21
34.6211457247
 31
0.0
  0
LINE
  5
EB
330
D5
100
AcDbEntity
  8
0
  6
Continuous
 62
     7
370
    18
100
AcDbLine
 10
276.327828823
 20
34.6211457247
 30
0.0
 11
304.327828823
 21
34.6211457247
 31
0.0
  0
LINE
  5
EC
330
D5
100
AcDbEntity
  8
0
  6
Continuous
 62
     7
370
    18
100
AcDbLine
 10
304.327828823
 20
47.628329538
 30
0.0
 11
304.327828823
 21
34.6211457247
 31
0.0
  0
MTEXT
  5
EE
330
D5
100
AcDbEntity
  8
0
  6
Continuous
 62
     7
370
     0
100
AcDbMText
 10
276.7575986504
 20
44.7598933458
 30
0.0
 40
1.8520833333
 41
0.0
 71
     1
 72
     1
  1
fino
  7
SLDTEXTSTYLE0
 73
     1
 44
1.0
  0
MTEXT
  5
F0
330
D5
100
AcDbEntity
  8
0
  6
Continuous
 62
     7
370
     0
100
AcDbMText
 10
283.9875463317
 20
37.1797283958
 30
0.0
 40
1.5875
 41
0.0
 71
     1
 72
     1
  1
±0°30'
  7
SLDTEXTSTYLE1
 73
     1
 44
1.0
  0
MTEXT
  5
F1
330
D5
100
AcDbEntity
  8
0
  6
Continuous
 62
     7
370
     0
100
AcDbMText
 10
276.7575986504
 20
41.0192950261
 30
0.0
 40
1.8520833333
 41
0.0
 71
     1
 72
     1
  1
a 10
  7
SLDTEXTSTYLE0
 73
     1
 44
1.0
  0
MTEXT
  5
F2
330
D5
100
AcDbEntity
  8
0
  6
Continuous
 62
     7
370
     0
100
AcDbMText
 10
278.8536055826
 20
37.1797283958
 30
0.0
 40
1.5875
 41
0.0
 71
     1
 72
     1
  1
±1°
  7
SLDTEXTSTYLE1
 73
     1
 44
1.0
  0
MTEXT
  5
F3
330
D5
100
AcDbEntity
  8
0
  6
Continuous
 62
     7
370
     0
100
AcDbMText
 10
290.9462692632
 20
40.986723928
 30
0.0
 40
1.8520833333
 41
0.0
 71
     1
 72
     1
  1
a 120
  7
SLDTEXTSTYLE0
 73
     1
 44
1.0
  0
MTEXT
  5
F4
330
D5
100
AcDbEntity
  8
0
  6
Continuous
 62
     7
370
     0
100
AcDbMText
 10
290.9462692632
 20
44.7598933458
 30
0.0
 40
1.8520833333
 41
0.0
 71
     1
 72
     1
  1
> 50
  7
SLDTEXTSTYLE0
 73
     1
 44
1.0
  0
MTEXT
  5
F5
330
D5
100
AcDbEntity
  8
0
  6
Continuous
 62
     7
370
     0
100
AcDbMText
 10
290.9462692632
 20
37.1797283958
 30
0.0
 40
1.5875
 41
0.0
 71
     1
 72
     1
  1
±0°20'
  7
SLDTEXTSTYLE1
 73
     1
 44
1.0
  0
MTEXT
  5
F6
330
D5
100
AcDbEntity
  8
0
  6
Continuous
 62
     7
370
     0
100
AcDbMText
 10
297.9758587209
 20
37.1797283958
 30
0.0
 40
1.5875
 41
0.0
 71
     1
 72
     1
  1
±0°10'
  7
SLDTEXTSTYLE1
 73
     1
 44
1.0
  0
MTEXT
  5
F7
330
D5
100
AcDbEntity
  8
0
  6
Continuous
 62
     7
370
     0
100
AcDbMText
 10
277.2836998764
 20
47.3712231176
 30
0.0
 40
1.3229166667
 41
0.0
 71
     1
 72
     1
  1
Dim. Angolari UNI EN 22768-mK
  7
SLDTEXTSTYLE0
 73
     1
 44
1.0
  0
MTEXT
  5
F8
330
D5
100
AcDbEntity
  8
0
  6
Continuous
 62
     7
370
     0
100
AcDbMText
 10
297.6720780609
 20
44.7598933458
 30
0.0
 40
1.8520833333
 41
0.0
 71
     1
 72
     1
  1
> 120
  7
SLDTEXTSTYLE0
 73
     1
 44
1.0
  0
MTEXT
  5
F9
330
D5
100
AcDbEntity
  8
0
  6
Continuous
 62
     7
370
     0
100
AcDbMText
 10
283.731633204
 20
44.7598933458
 30
0.0
 40
1.8520833333
 41
0.0
 71
     1
 72
     1
  1
> 10
  7
SLDTEXTSTYLE0
 73
     1
 44
1.0
  0
MTEXT
  5
FA
330
D5
100
AcDbEntity
  8
0
  6
Continuous
 62
     7
370
     0
100
AcDbMText
 10
283.800228837
 20
41.0192950261
 30
0.0
 40
1.8520833333
 41
0.0
 71
     1
 72
     1
  1
a 50
  7
SLDTEXTSTYLE0
 73
     1
 44
1.0
  0
MTEXT
  5
FB
330
D5
100
AcDbEntity
  8
0
  6
Continuous
 62
     7
370
     0
100
AcDbMText
 10
262.4580279424
 20
44.7559342004
 30
0.0
 40
1.8520833333
 41
0.0
 71
     1
 72
     1
  1
> 30
  7
SLDTEXTSTYLE0
 73
     1
 44
1.0
  0
MTEXT
  5
FC
330
D5
100
AcDbEntity
  8
0
  6
Continuous
 62
     7
370
     0
100
AcDbMText
 10
262.4580279424
 20
41.0646840457
 30
0.0
 40
1.8520833333
 41
0.0
 71
     1
 72
     1
  1
a 120
  7
SLDTEXTSTYLE0
 73
     1
 44
1.0
  0
MTEXT
  5
FD
330
D5
100
AcDbEntity
  8
0
  6
Continuous
 62
     7
370
     0
100
AcDbMText
 10
226.6372296524
 20
47.1255299041
 30
0.0
 40
1.3229166667
 41
0.0
 71
     1
 72
     1
  1
Tolleranze generali Norma UNI EN 22768-mK
  7
SLDTEXTSTYLE0
 73
     1
 44
1.0
  0
MTEXT
  5
FF
330
D5
100
AcDbEntity
  8
0
  6
Continuous
 62
     7
370
     0
100
AcDbMText
 10
262.6510757453
 20
37.1797283958
 30
0.0
 40
1.5875
 41
0.0
 71
     1
 72
     1
  1
± 0.3
  7
SLDTEXTSTYLE2
 73
     1
 44
1.0
  0
MTEXT
  5
100
330
D5
100
AcDbEntity
  8
0
  6
Continuous
 62
     7
370
     0
100
AcDbMText
 10
270.0197742617
 20
37.1797283958
 30
0.0
 40
1.5875
 41
0.0
 71
     1
 72
     1
  1
± 0.5
  7
SLDTEXTSTYLE2
 73
     1
 44
1.0
  0
MTEXT
  5
101
330
D5
100
AcDbEntity
  8
0
  6
Continuous
 62
     7
370
     0
100
AcDbMText
 10
269.271591382
 20
40.890421819
 30
0.0
 40
1.8520833333
 41
0.0
 71
     1
 72
     1
  1
a 400
  7
SLDTEXTSTYLE0
 73
     1
 44
1.0
  0
MTEXT
  5
102
330
D5
100
AcDbEntity
  8
0
  6
Continuous
 62
     7
370
     0
100
AcDbMText
 10
269.2372935655
 20
44.5816719737
 30
0.0
 40
1.8520833333
 41
0.0
 71
     1
 72
     1
  1
> 120
  7
SLDTEXTSTYLE0
 73
     1
 44
1.0
  0
MTEXT
  5
103
330
D5
100
AcDbEntity
  8
0
  6
Continuous
 62
     7
370
     0
100
AcDbMText
 10
255.7986785478
 20
37.1797283958
 30
0.0
 40
1.5875
 41
0.0
 71
     1
 72
     1
  1
± 0.2
  7
SLDTEXTSTYLE2
 73
     1
 44
1.0
  0
MTEXT
  5
105
330
D5
100
AcDbEntity
  8
0
  6
Continuous
 62
     7
370
     0
100
AcDbMText
 10
255.7021546464
 20
44.5235845648
 30
0.0
 40
1.8520833333
 41
0.0
 71
     1
 72
     1
  1
> 6
  7
SLDTEXTSTYLE3
 73
     1
 44
1.0
  0
MTEXT
  5
106
330
D5
100
AcDbEntity
  8
0
  6
Continuous
 62
     7
370
     0
100
AcDbMText
 10
255.7364524628
 20
40.8323344101
 30
0.0
 40
1.8520833333
 41
0.0
 71
     1
 72
     1
  1
a 30
  7
SLDTEXTSTYLE0
 73
     1
 44
1.0
  0
MTEXT
  5
107
330
D5
100
AcDbEntity
  8
0
  6
Continuous
 62
     7
370
     0
100
AcDbMText
 10
242.2617924305
 20
37.1797283958
 30
0.0
 40
1.5875
 41
0.0
 71
     1
 72
     1
  1
± 0.1
  7
SLDTEXTSTYLE2
 73
     1
 44
1.0
  0
MTEXT
  5
108
330
D5
100
AcDbEntity
  8
0
  6
Continuous
 62
     7
370
     0
100
AcDbMText
 10
242.2617924305
 20
40.9612596805
 30
0.0
 40
1.8520833333
 41
0.0
 71
     1
 72
     1
  1
a 3
  7
SLDTEXTSTYLE3
 73
     1
 44
1.0
  0
MTEXT
  5
109
330
D5
100
AcDbEntity
  8
0
  6
Continuous
 62
     7
370
     0
100
AcDbMText
 10
242.2617924305
 20
44.7018580003
 30
0.0
 40
1.8520833333
 41
0.0
 71
     1
 72
     1
  1
fino
  7
SLDTEXTSTYLE0
 73
     1
 44
1.0
  0
MTEXT
  5
10A
330
D5
100
AcDbEntity
  8
0
  6
Continuous
 62
     7
370
     0
100
AcDbMText
 10
218.9375325504
 20
37.1797283958
 30
0.0
 40
1.5875
 41
0.0
 71
     1
 72
     1
  1
m
  7
SLDTEXTSTYLE1
 73
     1
 44
1.0
  0
MTEXT
  5
10B
330
D5
100
AcDbEntity
  8
0
  6
Continuous
 62
     7
370
     0
100
AcDbMText
 10
218.9818635148
 20
40.8941299255
 30
0.0
 40
1.8520833333
 41
0.0
 71
     1
 72
     1
  1
Des.
  7
SLDTEXTSTYLE0
 73
     1
 44
1.0
  0
MTEXT
  5
10C
330
D5
100
AcDbEntity
  8
0
  6
Continuous
 62
     7
370
     0
100
AcDbMText
 10
218.9475656984
 20
44.6347282452
 30
0.0
 40
1.8520833333
 41
0.0
 71
     1
 72
     1
  1
Classe di tolleranza
  7
SLDTEXTSTYLE0
 73
     1
 44
1.0
  0
MTEXT
  5
10D
330
D5
100
AcDbEntity
  8
0
  6
Continuous
 62
     7
370
     0
100
AcDbMText
 10
226.377456033
 20
37.1797283958
 30
0.0
 40
1.5875
 41
0.0
 71
     1
 72
     1
  1
media
  7
SLDTEXTSTYLE1
 73
     1
 44
1.0
  0
MTEXT
  5
10E
330
D5
100
AcDbEntity
  8
0
  6
Continuous
 62
     7
370
     0
100
AcDbMText
 10
226.6372296524
 20
40.8059637714
 30
0.0
 40
1.8520833333
 41
0.0
 71
     1
 72
     1
  1
Denom.
  7
SLDTEXTSTYLE0
 73
     1
 44
1.0
  0
MTEXT
  5
10F
330
D5
100
AcDbEntity
  8
0
  6
Continuous
 62
     7
370
     0
100
AcDbMText
 10
248.1321662153
 20
44.7599454092
 30
0.0
 40
1.8520833333
 41
0.0
 71
     1
 72
     1
  1
> 3
  7
SLDTEXTSTYLE3
 73
     1
 44
1.0
  0
MTEXT
  5
110
330
D5
100
AcDbEntity
  8
0
  6
Continuous
 62
     7
370
     0
100
AcDbMText
 10
248.2007618482
 20
41.0193470894
 30
0.0
 40
1.8520833333
 41
0.0
 71
     1
 72
     1
  1
a 6
  7
SLDTEXTSTYLE3
 73
     1
 44
1.0
  0
MTEXT
  5
111
330
D5
100
AcDbEntity
  8
0
  6
Continuous
 62
     7
370
     0
100
AcDbMText
 10
248.8812171991
 20
37.1797283958
 30
0.0
 40
1.5875
 41
0.0
 71
     1
 72
     1
  1
± 0.1
  7
SLDTEXTSTYLE2
 73
     1
 44
1.0
  0
ENDBLK
  5
D7
330
D5
100
AcDbEntity
  8
0
100
AcDbBlockEnd
  0
BLOCK
  5
113
330
112
100
AcDbEntity
  8
0
100
AcDbBlockBegin
  2
Blocco7
 70
     2
 10
0.0
 20
0.0
 30
0.0
  3
Blocco7
  1

  0
CIRCLE
  5
115
330
112
100
AcDbEntity
  8
0
  6
Continuous
 62
     7
370
    18
100
AcDbCircle
 10
141.220739784
 20
94.4928820379
 30
0.0
 40
0.6204217685777303
  0
CIRCLE
  5
116
330
112
100
AcDbEntity
  8
0
  6
Continuous
 62
     7
370
    18
100
AcDbCircle
 10
141.220739784
 20
94.4928820379
 30
0.0
 40
1.244321201621169
  0
LINE
  5
117
330
112
100
AcDbEntity
  8
0
  6
Continuous
 62
     7
370
    18
100
AcDbLine
 10
155.5253654063
 20
97.1935387595
 30
0.0
 11
195.7823113695
 21
97.1935387595
 31
0.0
  0
LINE
  5
118
330
112
100
AcDbEntity
  8
0
  6
Continuous
 62
     7
370
    18
100
AcDbLine
 10
155.5253654063
 20
97.1935387595
 30
0.0
 11
155.5253654063
 21
91.9352178004
 31
0.0
  0
LINE
  5
119
330
112
100
AcDbEntity
  8
0
  6
Continuous
 62
     7
370
    18
100
AcDbLine
 10
155.5253654063
 20
91.9352178004
 30
0.0
 11
195.7823113695
 21
91.9352178004
 31
0.0
  0
LINE
  5
11A
330
112
100
AcDbEntity
  8
0
  6
Continuous
 62
     7
370
    18
100
AcDbLine
 10
195.7823113695
 20
97.1935387595
 30
0.0
 11
195.7823113695
 21
91.9352178004
 31
0.0
  0
LINE
  5
11B
330
112
100
AcDbEntity
  8
0
  6
Continuous
 62
     7
370
    18
100
AcDbLine
 10
143.6718591174
 20
95.7372032395
 30
0.0
 11
143.6718591174
 21
93.2485608363
 31
0.0
  0
LINE
  5
11C
330
112
100
AcDbEntity
  8
0
  6
Continuous
 62
     7
370
    18
100
AcDbLine
 10
143.6718591174
 20
93.2485608363
 30
0.0
 11
146.4718699966
 21
93.8724602693
 31
0.0
  0
LINE
  5
11D
330
112
100
AcDbEntity
  8
0
  6
Continuous
 62
     7
370
    18
100
AcDbLine
 10
146.4718699966
 20
93.8724602693
 30
0.0
 11
146.4718699966
 21
95.1133038065
 31
0.0
  0
LINE
  5
11E
330
112
100
AcDbEntity
  8
0
  6
Continuous
 62
     7
370
    18
100
AcDbLine
 10
146.4718699966
 20
95.1133038065
 30
0.0
 11
143.6718591174
 21
95.7372032395
 31
0.0
  0
LINE
  5
11F
330
112
100
AcDbEntity
  8
0
  6
CENTER
 62
     7
370
    18
100
AcDbLine
 10
139.1729652328
 20
94.4928820379
 30
0.0
 11
147.1640075173
 21
94.4928820379
 31
0.0
  0
LINE
  5
120
330
112
100
AcDbEntity
  8
0
  6
CENTER
 62
     7
370
    18
100
AcDbLine
 10
141.220739784
 20
96.7572369554
 30
0.0
 11
141.220739784
 21
92.3999166546
 31
0.0
  0
LINE
  5
121
330
112
100
AcDbEntity
  8
0
  6
Continuous
 62
     7
370
    18
100
AcDbLine
 10
137.8166031054
 20
97.1220425174
 30
0.0
 11
137.8166031054
 21
91.8637215584
 31
0.0
  0
LINE
  5
122
330
112
100
AcDbEntity
  8
0
  6
Continuous
 62
     7
370
    18
100
AcDbLine
 10
115.6410399146
 20
97.1220425174
 30
0.0
 11
135.997715226
 21
97.1220425174
 31
0.0
  0
LINE
  5
123
330
112
100
AcDbEntity
  8
0
  6
Continuous
 62
     7
370
    18
100
AcDbLine
 10
115.6410399146
 20
97.1220425174
 30
0.0
 11
115.6410399146
 21
91.8637215584
 31
0.0
  0
LINE
  5
124
330
112
100
AcDbEntity
  8
0
  6
Continuous
 62
     7
370
    18
100
AcDbLine
 10
115.6410399146
 20
91.8637215584
 30
0.0
 11
135.997715226
 21
91.8637215584
 31
0.0
  0
LINE
  5
125
330
112
100
AcDbEntity
  8
0
  6
Continuous
 62
     7
370
    18
100
AcDbLine
 10
135.997715226
 20
97.1220425174
 30
0.0
 11
135.997715226
 21
91.8637215584
 31
0.0
  0
LINE
  5
126
330
112
100
AcDbEntity
  8
0
  6
Continuous
 62
     7
370
    18
100
AcDbLine
 10
154.8368848639
 20
97.1220425174
 30
0.0
 11
154.8368848639
 21
91.8637215584
 31
0.0
  0
LINE
  5
127
330
112
100
AcDbEntity
  8
0
  6
Continuous
 62
     7
370
    18
100
AcDbLine
 10
137.8166031054
 20
91.8637215584
 30
0.0
 11
154.8368848639
 21
91.8637215584
 31
0.0
  0
LINE
  5
128
330
112
100
AcDbEntity
  8
0
  6
Continuous
 62
     7
370
    18
100
AcDbLine
 10
137.8166031054
 20
97.1220425174
 30
0.0
 11
154.8368848639
 21
97.1220425174
 31
0.0
  0
MTEXT
  5
129
330
112
100
AcDbEntity
  8
0
  6
Continuous
 62
     7
370
     0
100
AcDbMText
 10
150.3646502861
 20
95.093365234
 30
0.0
 40
1.8520833333
 41
0.0
 71
     1
 72
     1
  1
A4
  7
SLDTEXTSTYLE2
 73
     1
 44
1.0
  0
MTEXT
  5
12A
330
112
100
AcDbEntity
  8
0
  6
Continuous
 62
     7
370
     0
100
AcDbMText
 10
116.3677201753
 20
95.3738407728
 30
0.0
 40
2.1166666667
 41
0.0
 71
     1
 72
     1
  1
SCALA
  7
SLDTEXTSTYLE0
 73
     1
 44
1.0
  0
MTEXT
  5
12B
330
112
100
AcDbEntity
  8
0
  6
Continuous
 62
     7
370
     0
100
AcDbMText
 10
156.0787234776
 20
95.6162224481
 30
0.0
 40
1.8520833333
 41
0.0
 71
     1
 72
     1
  1
Tolleranze non valide per assiemi
  7
SLDTEXTSTYLE0
 73
     1
 44
1.0
  0
ATTDEF
  5
12C
330
112
100
AcDbEntity
  8
0
  6
Continuous
 62
     7
370
     0
100
AcDbText
 10
128.1688045866
 20
93.76097370149999
 30
0.0
 40
2.38125
  1
1:1
 41
0.605
  7
SLDTEXTSTYLE0
 11
128.1688045866
 21
92.5703487015
 31
0.0
100
AcDbAttributeDefinition
  3

  2
AUTOATTR0
 70
     0
 74
     1
  0
ENDBLK
  5
114
330
112
100
AcDbEntity
  8
0
100
AcDbBlockEnd
  0
BLOCK
  5
12E
330
12D
100
AcDbEntity
  8
0
100
AcDbBlockBegin
  2
Blocco8
 70
     0
 10
0.0
 20
0.0
 30
0.0
  3
Blocco8
  1

  0
LINE
  5
130
330
12D
100
AcDbEntity
  8
0
  6
Continuous
 62
     7
370
    18
100
AcDbLine
 10
376.7736001643
 20
94.8376657103
 30
0.0
 11
370.8591882035
 21
84.8886161328
 31
0.0
  0
LINE
  5
131
330
12D
100
AcDbEntity
  8
0
  6
Continuous
 62
     7
370
    18
100
AcDbLine
 10
370.8591882035
 20
84.8886161328
 30
0.0
 11
368.0166026099
 21
89.8631409216
 31
0.0
  0
LINE
  5
132
330
12D
100
AcDbEntity
  8
0
  6
Continuous
 62
     7
370
    18
100
AcDbLine
 10
368.0166026099
 20
89.8631409216
 30
0.0
 11
373.8163941839
 21
89.8631409216
 31
0.0
  0
MTEXT
  5
133
330
12D
100
AcDbEntity
  8
0
  6
Continuous
 62
     7
370
     0
100
AcDbMText
 10
368.3978980579
 20
94.0289245373
 30
0.0
 40
2.8
 41
0.0
 71
     1
 72
     1
  1
1.6
  7
SLDTEXTSTYLE1
 73
     1
 44
1.0
  0
ENDBLK
  5
12F
330
12D
100
AcDbEntity
  8
0
100
AcDbBlockEnd
  0
BLOCK
  5
135
330
134
100
AcDbEntity
  8
0
100
AcDbBlockBegin
  2
Blocco9
 70
     0
 10
0.0
 20
0.0
 30
0.0
  3
Blocco9
  1

  0
LINE
  5
137
330
134
100
AcDbEntity
  8
0
  6
Continuous
 62
     7
370
    18
100
AcDbLine
 10
392.1785801552
 20
94.8376657103
 30
0.0
 11
386.1724718849
 21
84.6135272044
 31
0.0
  0
LINE
  5
138
330
134
100
AcDbEntity
  8
0
  6
Continuous
 62
     7
370
    18
100
AcDbLine
 10
386.1724718849
 20
84.6135272044
 30
0.0
 11
383.2381899819
 21
89.7255964573
 31
0.0
  0
LINE
  5
139
330
134
100
AcDbEntity
  8
0
  6
Continuous
 62
     7
370
    18
100
AcDbLine
 10
383.2381899819
 20
89.7255964573
 30
0.0
 11
389.1755260201
 21
89.7255964573
 31
0.0
  0
MTEXT
  5
13A
330
134
100
AcDbEntity
  8
0
  6
Continuous
 62
     7
370
     0
100
AcDbMText
 10
383.9249563492
 20
94.0289245373
 30
0.0
 40
2.8
 41
0.0
 71
     1
 72
     1
  1
0.8
  7
SLDTEXTSTYLE1
 73
     1
 44
1.0
  0
ENDBLK
  5
136
330
134
100
AcDbEntity
  8
0
100
AcDbBlockEnd
  0
BLOCK
  5
13C
330
13B
100
AcDbEntity
  8
0
100
AcDbBlockBegin
  2
Blocco10
 70
     0
 10
0.0
 20
0.0
 30
0.0
  3
Blocco10
  1

  0
CIRCLE
  5
13E
330
13B
100
AcDbEntity
  8
0
  6
Continuous
 62
     7
370
    18
100
AcDbCircle
 10
2.9508630839
 20
3.5546149695
 30
0.0
 40
1.759240622001875
  0
LINE
  5
13F
330
13B
100
AcDbEntity
  8
0
  6
Continuous
 62
     7
370
    18
100
AcDbLine
 10
8.8945420186
 20
10.1182213113
 30
0.0
 11
2.9508630839
 21
0.0
 31
0.0
  0
LINE
  5
140
330
13B
100
AcDbEntity
  8
0
  6
Continuous
 62
     7
370
    18
100
AcDbLine
 10
2.9508630839
 20
0.0
 30
0.0
 11
0.0
 21
5.0061520583
 31
0.0
  0
ENDBLK
  5
13D
330
13B
100
AcDbEntity
  8
0
100
AcDbBlockEnd
  0
BLOCK
  5
468
330
467
100
AcDbEntity
  8
0
100
AcDbBlockBegin
  2
*D7
 70
     1
 10
0.0
 20
0.0
 30
0.0
  3
*D7
  1

  0
LINE
  5
46A
330
467
100
AcDbEntity
  8
0
 62
     0
370
    -2
100
AcDbLine
 10
284.3896682189
 20
227.3745576251
 30
0.0
 11
284.3896682189
 21
239.0786976649746
 31
0.0
  0
LINE
  5
46B
330
467
100
AcDbEntity
  8
0
 62
     0
370
    -2
100
AcDbLine
 10
418.3896682189
 20
205.8745576251
 30
0.0
 11
418.3896682189
 21
239.0786976649746
 31
0.0
  0
LINE
  5
46C
330
467
100
AcDbEntity
  8
0
 62
     0
370
    -2
100
AcDbLine
 10
287.5896682189
 20
238.0786976649746
 30
0.0
 11
415.1896682189
 21
238.0786976649746
 31
0.0
  0
LINE
  5
46D
330
467
100
AcDbEntity
  8
0
 62
     0
370
    -2
100
AcDbLine
 10
415.1896682189
 20
238.0786976649746
 30
0.0
 11
287.5896682189
 21
238.0786976649746
 31
0.0
  0
SOLID
  5
46E
330
467
100
AcDbEntity
  8
0
 62
     0
100
AcDbTrace
 10
287.5896682189
 20
238.612030998308
 30
0.0
 11
287.5896682189
 21
237.5453643316413
 31
0.0
 12
284.3896682189
 22
238.0786976649746
 32
0.0
 13
284.3896682189
 23
238.0786976649746
 33
0.0
  0
SOLID
  5
46F
330
467
100
AcDbEntity
  8
0
 62
     0
100
AcDbTrace
 10
415.1896682189
 20
237.5453643316413
 30
0.0
 11
415.1896682189
 21
238.612030998308
 31
0.0
 12
418.3896682189
 22
238.0786976649746
 32
0.0
 13
418.3896682189
 23
238.0786976649746
 33
0.0
  0
MTEXT
  5
470
330
467
100
AcDbEntity
  8
0
 62
     0
100
AcDbMText
 10
351.3896682189
 20
241.9453643316413
 30
0.0
 40
3.2
 41
0.0
 71
     5
 72
     1
  1
134,00
 73
     1
 44
1.0
  0
POINT
  5
471
330
467
100
AcDbEntity
  8
Defpoints
 62
     0
100
AcDbPoint
 10
284.3896682189
 20
227.2745576251
 30
0.0
  0
POINT
  5
472
330
467
100
AcDbEntity
  8
Defpoints
 62
     0
100
AcDbPoint
 10
418.3896682189
 20
205.7745576251
 30
0.0
  0
POINT
  5
473
330
467
100
AcDbEntity
  8
Defpoints
 62
     0
100
AcDbPoint
 10
418.3896682189
 20
238.0786976649746
 30
0.0
  0
ENDBLK
  5
469
330
467
100
AcDbEntity
  8
0
100
AcDbBlockEnd
  0
BLOCK
  5
478
330
477
100
AcDbEntity
  8
0
100
AcDbBlockBegin
  2
*D8
 70
     1
 10
0.0
 20
0.0
 30
0.0
  3
*D8
  1

  0
LINE
  5
47A
330
477
100
AcDbEntity
  8
0
 62
     0
370
    -2
100
AcDbLine
 10
436.0416783201
 20
189.7745576251
 30
0.0
 11
452.0609997969543
 21
189.7745576251
 31
0.0
  0
LINE
  5
47B
330
477
100
AcDbEntity
  8
0
 62
     0
370
    -2
100
AcDbLine
 10
409.4896682189
 20
214.7745576251
 30
0.0
 11
452.0609997969543
 21
214.7745576251
 31
0.0
  0
LINE
  5
47C
330
477
100
AcDbEntity
  8
0
 62
     0
370
    -2
100
AcDbLine
 10
451.0609997969543
 20
192.9745576251
 30
0.0
 11
451.0609997969543
 21
198.4078909584333
 31
0.0
  0
LINE
  5
47D
330
477
100
AcDbEntity
  8
0
 62
     0
370
    -2
100
AcDbLine
 10
451.0609997969543
 20
211.5745576251
 30
0.0
 11
451.0609997969543
 21
206.1412242917667
 31
0.0
  0
SOLID
  5
47E
330
477
100
AcDbEntity
  8
0
 62
     0
100
AcDbTrace
 10
450.5276664636209
 20
192.9745576251
 30
0.0
 11
451.5943331302876
 21
192.9745576251
 31
0.0
 12
451.0609997969543
 22
189.7745576251
 32
0.0
 13
451.0609997969543
 23
189.7745576251
 33
0.0
  0
SOLID
  5
47F
330
477
100
AcDbEntity
  8
0
 62
     0
100
AcDbTrace
 10
451.5943331302876
 20
211.5745576251
 30
0.0
 11
450.5276664636209
 21
211.5745576251
 31
0.0
 12
451.0609997969543
 22
214.7745576251
 32
0.0
 13
451.0609997969543
 23
214.7745576251
 33
0.0
  0
MTEXT
  5
480
330
477
100
AcDbEntity
  8
0
 62
     0
100
AcDbMText
 10
451.0609997969543
 20
202.2745576251
 30
0.0
 40
3.2
 41
0.0
 71
     5
 72
     1
  1
25,00
 73
     1
 44
1.0
  0
POINT
  5
481
330
477
100
AcDbEntity
  8
Defpoints
 62
     0
100
AcDbPoint
 10
435.9416783201
 20
189.7745576251
 30
0.0
  0
POINT
  5
482
330
477
100
AcDbEntity
  8
Defpoints
 62
     0
100
AcDbPoint
 10
409.3896682189
 20
214.7745576251
 30
0.0
  0
POINT
  5
483
330
477
100
AcDbEntity
  8
Defpoints
 62
     0
100
AcDbPoint
 10
451.0609997969543
 20
214.7745576251
 30
0.0
  0
ENDBLK
  5
479
330
477
100
AcDbEntity
  8
0
100
AcDbBlockEnd
  0
ENDSEC
  0
SECTION
  2
ENTITIES
  0
MTEXT
  5
141
330
1F
100
AcDbEntity
  8
0
  6
Continuous
 62
     7
370
     0
100
AcDbMText
 10
66.1502605035
 20
325.4014438941
 30
0.0
 40
19.05
 41
0.0
 71
     1
 72
     1
  1
1040
  7
SLDTEXTSTYLE1
 73
     1
 44
1.0
  0
LINE
  5
142
330
1F
100
AcDbEntity
  8
0
  6
Continuous
 62
     7
370
    25
100
AcDbLine
 10
112.1355704007
 20
189.7745575197
 30
0.0
 11
112.1355704007
 21
169.8245578818
 31
0.0
  0
LINE
  5
143
330
1F
100
AcDbEntity
  8
0
  6
Continuous
 62
     7
370
    25
100
AcDbLine
 10
124.1355701558
 20
169.8245578818
 30
0.0
 11
124.1355701558
 21
189.7745575197
 31
0.0
  0
LINE
  5
144
330
1F
100
AcDbEntity
  8
0
  6
Continuous
 62
     7
370
    25
100
AcDbLine
 10
112.1355704007
 20
169.8245578818
 30
0.0
 11
113.1355704482
 21
168.8245577178
 31
0.0
  0
LINE
  5
145
330
1F
100
AcDbEntity
  8
0
  6
Continuous
 62
     7
370
    25
100
AcDbLine
 10
123.1355699919
 20
168.8245577178
 30
0.0
 11
124.1355701558
 21
169.8245578818
 31
0.0
  0
LINE
  5
146
330
1F
100
AcDbEntity
  8
0
  6
Continuous
 62
     7
370
    25
100
AcDbLine
 10
101.7855708695
 20
225.7745569013
 30
0.0
 11
101.7855708695
 21
226.0909458063
 31
0.0
  0
LINE
  5
147
330
1F
100
AcDbEntity
  8
0
  6
Continuous
 62
     7
370
    25
100
AcDbLine
 10
98.985570038
 20
226.0909458063
 30
0.0
 11
98.985570038
 21
225.7745569013
 31
0.0
  0
LWPOLYLINE
  5
148
330
1F
100
AcDbEntity
  8
0
  6
Continuous
 62
     7
370
    25
100
AcDbPolyline
 90
        9
 70
   128
 43
0.0
 10
26.8855695821
 20
224.5765668712
 10
26.8894140817
 20
224.5765296183
 10
26.9007911182
 20
224.5764141343
 10
26.9192760087
 20
224.5762278698
 10
26.9441460467
 20
224.5759782753
 10
26.9744550086
 20
224.5756728015
 10
27.0090331531
 20
224.5753263495
 10
27.046554277
 20
224.5749500952
 10
27.0855729676
 20
224.5745589397
  0
LWPOLYLINE
  5
149
330
1F
100
AcDbEntity
  8
0
  6
Continuous
 62
     7
370
    25
100
AcDbPolyline
 90
        9
 70
   128
 43
0.0
 10
25.8855675555
 20
224.5765668712
 10
25.9086271025
 20
224.5765296183
 10
25.9769116736
 20
224.5764141343
 10
26.0878061152
 20
224.5762278698
 10
26.2370412446
 20
224.5759782753
 10
26.4188875652
 20
224.5756728015
 10
26.6263489819
 20
224.5753263495
 10
26.8514608241
 20
224.5749500952
 10
27.0855729676
 20
224.5745589397
  0
LINE
  5
14A
330
1F
100
AcDbEntity
  8
0
  6
Continuous
 62
     7
370
    25
100
AcDbLine
 10
26.8855695821
 20
224.5765668712
 30
0.0
 11
25.8855675555
 21
224.5765668712
 31
0.0
  0
LWPOLYLINE
  5
14B
330
1F
100
AcDbEntity
  8
0
  6
Continuous
 62
     7
370
    25
100
AcDbPolyline
 90
       10
 70
   128
 43
0.0
 10
173.8855694629
 20
224.5765668712
 10
173.882529626
 20
224.5765370689
 10
173.8735069729
 20
224.5764476619
 10
173.858777175
 20
224.5762986503
 10
173.8387798167
 20
224.5760974846
 10
173.8141258455
 20
224.5758478902
 10
173.7855677701
 20
224.5755610428
 10
173.7539773084
 20
224.5752443932
 10
173.7203006841
 20
224.5749053917
 10
173.6855735279
 20
224.5745589397
  0
LINE
  5
14C
330
1F
100
AcDbEntity
  8
0
  6
Continuous
 62
     7
370
    25
100
AcDbLine
 10
173.8855694629
 20
224.5765668712
 30
0.0
 11
174.8855714894
 21
224.5765668712
 31
0.0
  0
LWPOLYLINE
  5
14D
330
1F
100
AcDbEntity
  8
0
  6
Continuous
 62
     7
370
    25
100
AcDbPolyline
 90
       10
 70
   128
 43
0.0
 10
174.8855714894
 20
224.5765668712
 10
174.8673399187
 20
224.5765370689
 10
174.8132040001
 20
224.5764476619
 10
174.7248028613
 20
224.5762986503
 10
174.6048261619
 20
224.5760974846
 10
174.4569172359
 20
224.5758478902
 10
174.2855687834
 20
224.5755610428
 10
174.0959962107
 20
224.5752443932
 10
173.893951366
 20
224.5749053917
 10
173.6855735279
 20
224.5745589397
  0
LWPOLYLINE
  5
14E
330
1F
100
AcDbEntity
  8
0
  6
Continuous
 62
     7
370
    25
100
AcDbPolyline
 90
       10
 70
   128
 43
0.0
 10
27.0855729676
 20
224.5745589397
 10
27.0852227903
 20
224.7829367779
 10
27.0848800636
 20
224.9849816225
 10
27.0845671392
 20
225.1745579205
 10
27.0842765666
 20
225.3459026478
 10
27.0840306974
 20
225.4938115738
 10
27.0838295318
 20
225.6137882731
 10
27.0836805201
 20
225.7021894119
 10
27.0835911132
 20
225.7563253305
 10
27.0835613109
 20
225.7745569013
  0
LINE
  5
14F
330
1F
100
AcDbEntity
  8
0
  6
Continuous
 62
     7
370
    25
100
AcDbLine
 10
173.6875777341
 20
225.7745569013
 30
0.0
 11
27.0835613109
 21
225.7745569013
 31
0.0
  0
LWPOLYLINE
  5
150
330
1F
100
AcDbEntity
  8
0
  6
Continuous
 62
     7
370
    25
100
AcDbPolyline
 90
        9
 70
   128
 43
0.0
 10
173.6855735279
 20
224.5745589397
 10
173.6859609581
 20
224.808667358
 10
173.6863409377
 20
225.0337792001
 10
173.6866836644
 20
225.2412406168
 10
173.6869891382
 20
225.4230869375
 10
173.687242458
 20
225.5723220668
 10
173.6874287225
 20
225.6832127831
 10
173.6875404812
 20
225.7515010796
 10
173.6875777341
 20
225.7745569013
  0
LINE
  5
151
330
1F
100
AcDbEntity
  8
0
  6
Continuous
 62
     7
370
    25
100
AcDbLine
 10
27.0855729676
 20
224.5745589397
 30
0.0
 11
173.6855735279
 21
224.5745589397
 31
0.0
  0
LINE
  5
152
330
1F
100
AcDbEntity
  8
0
  6
Continuous
 62
     7
370
    25
100
AcDbLine
 10
27.0855729676
 20
190.9745578095
 30
0.0
 11
27.0855729676
 21
224.5745589397
 31
0.0
  0
LWPOLYLINE
  5
153
330
1F
100
AcDbEntity
  8
0
  6
Continuous
 62
     7
370
    25
100
AcDbPolyline
 90
        9
 70
   128
 43
0.0
 10
25.8855675555
 20
190.9725475497
 10
25.9086271025
 20
190.9725861996
 10
25.9769116736
 20
190.9727007523
 10
26.0878061152
 20
190.9728860855
 10
26.2370412446
 20
190.9731361456
 10
26.4188875652
 20
190.9734406881
 10
26.6263489819
 20
190.973788537
 10
26.8514608241
 20
190.974165257
 10
27.0855729676
 20
190.9745578095
  0
LINE
  5
154
330
1F
100
AcDbEntity
  8
0
  6
Continuous
 62
     7
370
    25
100
AcDbLine
 10
25.8855675555
 20
224.5765668712
 30
0.0
 11
25.8855675555
 21
190.9725475497
 31
0.0
  0
LINE
  5
155
330
1F
100
AcDbEntity
  8
0
  6
Continuous
 62
     7
370
    25
100
AcDbLine
 10
173.6855735279
 20
224.5745589397
 30
0.0
 11
173.6855735279
 21
190.9745578095
 31
0.0
  0
LINE
  5
156
330
1F
100
AcDbEntity
  8
0
  6
Continuous
 62
     7
370
    25
100
AcDbLine
 10
173.6855735279
 20
190.9745578095
 30
0.0
 11
27.0855729676
 21
190.9745578095
 31
0.0
  0
LWPOLYLINE
  5
157
330
1F
100
AcDbEntity
  8
0
  6
Continuous
 62
     7
370
    25
100
AcDbPolyline
 90
        9
 70
   128
 43
0.0
 10
173.6855735279
 20
224.5745589397
 10
173.6859609581
 20
224.613573905
 10
173.6863409377
 20
224.6510950289
 10
173.6866836644
 20
224.6856731735
 10
173.6869891382
 20
224.7159784101
 10
173.687242458
 20
224.7408521734
 10
173.6874287225
 20
224.7593333385
 10
173.6875404812
 20
224.7707141004
 10
173.6875777341
 20
224.7745586
  0
LINE
  5
158
330
1F
100
AcDbEntity
  8
0
  6
Continuous
 62
     7
370
    25
100
AcDbLine
 10
173.6875777341
 20
224.7745586
 30
0.0
 11
173.6875777341
 21
225.7745569013
 31
0.0
  0
LINE
  5
159
330
1F
100
AcDbEntity
  8
0
  6
Continuous
 62
     7
370
    25
100
AcDbLine
 10
27.0835613109
 20
224.7745586
 30
0.0
 11
27.0835613109
 21
225.7745569013
 31
0.0
  0
LWPOLYLINE
  5
15A
330
1F
100
AcDbEntity
  8
0
  6
Continuous
 62
     7
370
    25
100
AcDbPolyline
 90
       10
 70
   128
 43
0.0
 10
27.0855729676
 20
224.5745589397
 10
27.0852227903
 20
224.6092860959
 10
27.0848800636
 20
224.6429627202
 10
27.0845671392
 20
224.6745569072
 10
27.0842765666
 20
224.7031149826
 10
27.0840306974
 20
224.7277652286
 10
27.0838295318
 20
224.7477625869
 10
27.0836805201
 20
224.76249611
 10
27.0835911132
 20
224.7715187631
 10
27.0835613109
 20
224.7745586
  0
LINE
  5
15B
330
1F
100
AcDbEntity
  8
0
  6
Continuous
 62
     7
370
    25
100
AcDbLine
 10
174.8855714894
 20
190.9725475497
 30
0.0
 11
174.8855714894
 21
224.5765668712
 31
0.0
  0
LWPOLYLINE
  5
15C
330
1F
100
AcDbEntity
  8
0
  6
Continuous
 62
     7
370
    25
100
AcDbPolyline
 90
        9
 70
   128
 43
0.0
 10
173.6855735279
 20
190.9745578095
 10
173.9196782208
 20
190.974165257
 10
174.144790063
 20
190.973788537
 10
174.3522514797
 20
190.9734406881
 10
174.5340978003
 20
190.9731361456
 10
174.6833329297
 20
190.9728860855
 10
174.7942273713
 20
190.9727007523
 10
174.8625119425
 20
190.9725861996
 10
174.8855714894
 20
190.9725475497
  0
LWPOLYLINE
  5
15D
330
1F
100
AcDbEntity
  8
0
  6
Continuous
 62
     7
370
    25
100
AcDbPolyline
 90
       10
 70
   128
 43
0.0
 10
173.6875777341
 20
189.7745575197
 10
173.6875479318
 20
189.7927881591
 10
173.6874585248
 20
189.846926406
 10
173.6873095132
 20
189.9353270791
 10
173.6871083475
 20
190.0553042441
 10
173.6868624783
 20
190.2032127045
 10
173.6865719057
 20
190.3745574317
 10
173.6862589813
 20
190.5641332641
 10
173.6859162546
 20
190.7661799714
 10
173.6855735279
 20
190.9745578095
  0
LINE
  5
15E
330
1F
100
AcDbEntity
  8
0
  6
Continuous
 62
     7
370
    25
100
AcDbLine
 10
27.0835613109
 20
189.7745575197
 30
0.0
 11
173.6875777341
 21
189.7745575197
 31
0.0
  0
LWPOLYLINE
  5
15F
330
1F
100
AcDbEntity
  8
0
  6
Continuous
 62
     7
370
    25
100
AcDbPolyline
 90
        9
 70
   128
 43
0.0
 10
27.0855729676
 20
190.9745578095
 10
27.0851780868
 20
190.7404493913
 10
27.0847981072
 20
190.5153375491
 10
27.0844553805
 20
190.3078733384
 10
27.0841499067
 20
190.1260293461
 10
27.083896587
 20
189.9767942167
 10
27.0837103225
 20
189.8659021034
 10
27.0835985638
 20
189.797615204
 10
27.0835613109
 20
189.7745575197
  0
LWPOLYLINE
  5
160
330
1F
100
AcDbEntity
  8
0
  6
Continuous
 62
     7
370
    25
100
AcDbPolyline
 90
        9
 70
   128
 43
0.0
 10
173.6875777341
 20
190.7745576836
 10
173.6875404812
 20
190.7784007862
 10
173.6874287225
 20
190.789781548
 10
173.687242458
 20
190.8082636445
 10
173.6869891382
 20
190.8331364765
 10
173.6866836644
 20
190.8634435758
 10
173.6863409377
 20
190.898020789
 10
173.6859609581
 20
190.9355395846
 10
173.6855735279
 20
190.9745578095
  0
LINE
  5
161
330
1F
100
AcDbEntity
  8
0
  6
Continuous
 62
     7
370
    25
100
AcDbLine
 10
173.6875777341
 20
190.7745576836
 30
0.0
 11
173.6875777341
 21
189.7745575197
 31
0.0
  0
LWPOLYLINE
  5
162
330
1F
100
AcDbEntity
  8
0
  6
Continuous
 62
     7
370
    25
100
AcDbPolyline
 90
        9
 70
   128
 43
0.0
 10
173.6855735279
 20
190.9745578095
 10
173.7245922185
 20
190.974165257
 10
173.7621058918
 20
190.973788537
 10
173.7966840363
 20
190.9734406881
 10
173.8269929982
 20
190.9731361456
 10
173.8518630362
 20
190.9728860855
 10
173.8703479267
 20
190.9727007523
 10
173.8817249633
 20
190.9725861996
 10
173.8855694629
 20
190.9725475497
  0
LINE
  5
163
330
1F
100
AcDbEntity
  8
0
  6
Continuous
 62
     7
370
    25
100
AcDbLine
 10
173.8855694629
 20
190.9725475497
 30
0.0
 11
174.8855714894
 21
190.9725475497
 31
0.0
  0
LWPOLYLINE
  5
164
330
1F
100
AcDbEntity
  8
0
  6
Continuous
 62
     7
370
    25
100
AcDbPolyline
 90
        9
 70
   128
 43
0.0
 10
26.8855695821
 20
190.9725475497
 10
26.8894140817
 20
190.9725861996
 10
26.9007911182
 20
190.9727007523
 10
26.9192760087
 20
190.9728860855
 10
26.9441460467
 20
190.9731361456
 10
26.9744550086
 20
190.9734406881
 10
27.0090331531
 20
190.973788537
 10
27.046554277
 20
190.974165257
 10
27.0855729676
 20
190.9745578095
  0
LINE
  5
165
330
1F
100
AcDbEntity
  8
0
  6
Continuous
 62
     7
370
    25
100
AcDbLine
 10
26.8855695821
 20
190.9725475497
 30
0.0
 11
25.8855675555
 21
190.9725475497
 31
0.0
  0
LWPOLYLINE
  5
166
330
1F
100
AcDbEntity
  8
0
  6
Continuous
 62
     7
370
    25
100
AcDbPolyline
 90
        9
 70
   128
 43
0.0
 10
27.0855729676
 20
190.9745578095
 10
27.0851780868
 20
190.9355395846
 10
27.0847981072
 20
190.898020789
 10
27.0844553805
 20
190.8634435758
 10
27.0841499067
 20
190.8331364765
 10
27.083896587
 20
190.8082636445
 10
27.0837103225
 20
190.789781548
 10
27.0835985638
 20
190.7784007862
 10
27.0835613109
 20
190.7745576836
  0
LINE
  5
167
330
1F
100
AcDbEntity
  8
0
  6
Continuous
 62
     7
370
    25
100
AcDbLine
 10
27.0835613109
 20
190.7745576836
 30
0.0
 11
27.0835613109
 21
189.7745575197
 31
0.0
  0
LINE
  5
168
330
1F
100
AcDbEntity
  8
0
  6
Continuous
 62
     7
370
    25
100
AcDbLine
 10
175.635569284
 20
190.2745576016
 30
0.0
 11
178.6355679131
 21
190.2745576016
 31
0.0
  0
LINE
  5
169
330
1F
100
AcDbEntity
  8
0
  6
Continuous
 62
     7
370
    25
100
AcDbLine
 10
175.635569284
 20
227.2745562158
 30
0.0
 11
178.6355679131
 21
227.2745562158
 31
0.0
  0
LINE
  5
16A
330
1F
100
AcDbEntity
  8
0
  6
Continuous
 62
     7
370
    25
100
AcDbLine
 10
178.6355679131
 20
190.2745576016
 30
0.0
 11
178.6355679131
 21
227.2745562158
 31
0.0
  0
LINE
  5
16B
330
1F
100
AcDbEntity
  8
0
  6
Continuous
 62
     7
370
    25
100
AcDbLine
 10
175.635569284
 20
190.2745576016
 30
0.0
 11
175.635569284
 21
227.2745562158
 31
0.0
  0
LINE
  5
16C
330
1F
100
AcDbEntity
  8
0
  6
Continuous
 62
     7
370
    25
100
AcDbLine
 10
122.6130263157
 20
169.8245578818
 30
0.0
 11
124.1355701558
 21
169.8245578818
 31
0.0
  0
LINE
  5
16D
330
1F
100
AcDbEntity
  8
0
  6
Continuous
 62
     7
370
    25
100
AcDbLine
 10
112.1355704007
 20
169.8245578818
 30
0.0
 11
122.6130263157
 21
169.8245578818
 31
0.0
  0
LINE
  5
16E
330
1F
100
AcDbEntity
  8
0
  6
Continuous
 62
     7
370
    25
100
AcDbLine
 10
121.8667836136
 20
168.8245577178
 30
0.0
 11
113.1355704482
 21
168.8245577178
 31
0.0
  0
LINE
  5
16F
330
1F
100
AcDbEntity
  8
0
  6
Continuous
 62
     7
370
    25
100
AcDbLine
 10
123.1355699919
 20
168.8245577178
 30
0.0
 11
121.8667836136
 21
168.8245577178
 31
0.0
  0
LINE
  5
170
330
1F
100
AcDbEntity
  8
0
  6
Continuous
 62
     7
370
    25
100
AcDbLine
 10
100.0621705524
 20
226.0909458063
 30
0.0
 11
101.7855708695
 21
226.0909458063
 31
0.0
  0
LINE
  5
171
330
1F
100
AcDbEntity
  8
0
  6
Continuous
 62
     7
370
    25
100
AcDbLine
 10
98.985570038
 20
226.0909458063
 30
0.0
 11
100.0621705524
 21
226.0909458063
 31
0.0
  0
LINE
  5
172
330
1F
100
AcDbEntity
  8
0
  6
Continuous
 62
     7
370
    25
100
AcDbLine
 10
175.635569284
 20
214.2745578102
 30
0.0
 11
174.8855714894
 21
214.2745578102
 31
0.0
  0
LINE
  5
173
330
1F
100
AcDbEntity
  8
0
  6
Continuous
 62
     7
370
    25
100
AcDbLine
 10
175.635569284
 20
190.2745576016
 30
0.0
 11
173.6875777341
 21
190.2745576016
 31
0.0
  0
LINE
  5
174
330
1F
100
AcDbEntity
  8
0
  6
Continuous
 62
     7
370
    25
100
AcDbLine
 10
221.5069614461
 20
189.7745575197
 30
0.0
 11
221.5069614461
 21
169.8245578818
 31
0.0
  0
LINE
  5
175
330
1F
100
AcDbEntity
  8
0
  6
Continuous
 62
     7
370
    25
100
AcDbLine
 10
233.5069615505
 20
169.8245578818
 30
0.0
 11
233.5069615505
 21
189.7745575197
 31
0.0
  0
LINE
  5
176
330
1F
100
AcDbEntity
  8
0
  6
Continuous
 62
     7
370
    25
100
AcDbLine
 10
221.5069614461
 20
169.8245578818
 30
0.0
 11
222.5069616101
 21
168.8245577178
 31
0.0
  0
LINE
  5
177
330
1F
100
AcDbEntity
  8
0
  6
Continuous
 62
     7
370
    25
100
AcDbLine
 10
232.5069613865
 20
168.8245577178
 30
0.0
 11
233.5069615505
 21
169.8245578818
 31
0.0
  0
LINE
  5
178
330
1F
100
AcDbEntity
  8
0
  6
Continuous
 62
     7
370
    25
100
AcDbLine
 10
222.5069616101
 20
190.0865966826
 30
0.0
 11
222.5069616101
 21
189.8245574347
 31
0.0
  0
LINE
  5
179
330
1F
100
AcDbEntity
  8
0
  6
Continuous
 62
     7
370
    25
100
AcDbLine
 10
232.5069613865
 20
189.8245574347
 30
0.0
 11
232.5069613865
 21
190.0865966826
 31
0.0
  0
LINE
  5
17A
330
1F
100
AcDbEntity
  8
0
  6
Continuous
 62
     7
370
    25
100
AcDbLine
 10
217.2569612152
 20
224.5909464918
 30
0.0
 11
217.2425815946
 21
224.5765668712
 31
0.0
  0
LINE
  5
17B
330
1F
100
AcDbEntity
  8
0
  6
Continuous
 62
     7
370
    25
100
AcDbLine
 10
220.356961537
 20
224.6671994589
 30
0.0
 11
220.356961537
 21
224.7745586
 31
0.0
  0
LINE
  5
17C
330
1F
100
AcDbEntity
  8
0
  6
Continuous
 62
     7
370
    25
100
AcDbLine
 10
220.356961537
 20
225.7745569013
 30
0.0
 11
220.356961537
 21
226.0909458063
 31
0.0
  0
LINE
  5
17D
330
1F
100
AcDbEntity
  8
0
  6
Continuous
 62
     7
370
    25
100
AcDbLine
 10
217.5569616369
 20
226.0909458063
 30
0.0
 11
217.5569616369
 21
225.7745569013
 31
0.0
  0
LINE
  5
17E
330
1F
100
AcDbEntity
  8
0
  6
Continuous
 62
     7
370
    25
100
AcDbLine
 10
217.5569616369
 20
224.7745586
 30
0.0
 11
217.5569616369
 21
224.5909464918
 31
0.0
  0
LINE
  5
17F
330
1F
100
AcDbEntity
  8
0
  6
Continuous
 62
     7
370
    25
100
AcDbLine
 10
234.5569616294
 20
190.9725475497
 30
0.0
 11
234.5569616294
 21
190.7774415239
 31
0.0
  0
LINE
  5
180
330
1F
100
AcDbEntity
  8
0
  6
Continuous
 62
     7
370
    25
100
AcDbLine
 10
237.3569615296
 20
190.7774415239
 30
0.0
 11
237.3569615296
 21
190.9725475497
 31
0.0
  0
LINE
  5
181
330
1F
100
AcDbEntity
  8
0
  6
Continuous
 62
     7
370
    25
100
AcDbLine
 10
237.3569615296
 20
224.5765668712
 30
0.0
 11
237.3569615296
 21
224.7745586
 31
0.0
  0
LINE
  5
182
330
1F
100
AcDbEntity
  8
0
  6
Continuous
 62
     7
370
    25
100
AcDbLine
 10
234.5569616294
 20
224.7745586
 30
0.0
 11
234.5569616294
 21
224.6671994589
 31
0.0
  0
LINE
  5
183
330
1F
100
AcDbEntity
  8
0
  6
Continuous
 62
     7
370
    25
100
AcDbLine
 10
217.5569616369
 20
190.9725475497
 30
0.0
 11
217.5569616369
 21
190.8467361144
 31
0.0
  0
LINE
  5
184
330
1F
100
AcDbEntity
  8
0
  6
Continuous
 62
     7
370
    25
100
AcDbLine
 10
220.356961537
 20
190.8467361144
 30
0.0
 11
220.356961537
 21
190.9725475497
 31
0.0
  0
LINE
  5
185
330
1F
100
AcDbEntity
  8
0
  6
Continuous
 62
     7
370
    25
100
AcDbLine
 10
239.7569611779
 20
224.5765668712
 30
0.0
 11
239.7569611779
 21
190.9725475497
 31
0.0
  0
LINE
  5
186
330
1F
100
AcDbEntity
  8
0
  6
Continuous
 62
     7
370
    25
100
AcDbLine
 10
232.9569615534
 20
224.5765668712
 30
0.0
 11
239.7569611779
 21
224.5765668712
 31
0.0
  0
LINE
  5
187
330
1F
100
AcDbEntity
  8
0
  6
Continuous
 62
     7
370
    25
100
AcDbLine
 10
239.7569611779
 20
190.9725475497
 30
0.0
 11
232.9569615534
 21
190.9725475497
 31
0.0
  0
LINE
  5
188
330
1F
100
AcDbEntity
  8
0
  6
Continuous
 62
     7
370
    25
100
AcDbLine
 10
232.9569615534
 20
190.9725475497
 30
0.0
 11
232.9569615534
 21
224.5765668712
 31
0.0
  0
ELLIPSE
  5
189
330
1F
100
AcDbEntity
  8
0
  6
Continuous
 62
     7
370
    25
100
AcDbEllipse
 10
239.7569615832
 20
224.5745576251
 30
0.0
 11
1.19999999999996
 21
0.0
 31
0.0
210
0.0
220
0.0
230
1.0
 40
0.0016750844
 41
0.0
 42
1.570796326794897
  0
LINE
  5
18A
330
1F
100
AcDbEntity
  8
0
  6
Continuous
 62
     7
370
    25
100
AcDbLine
 10
240.9569619334
 20
190.9745578095
 30
0.0
 11
240.9569619334
 21
224.5745589397
 31
0.0
  0
ELLIPSE
  5
18B
330
1F
100
AcDbEntity
  8
0
  6
Continuous
 62
     7
370
    25
100
AcDbEllipse
 10
239.7569615832
 20
190.9745576251
 30
0.0
 11
1.19999999999996
 21
0.0
 31
0.0
210
0.0
220
0.0
230
1.0
 40
0.0016750844
 41
4.71238898038469
 42
6.283185307179586
  0
LINE
  5
18C
330
1F
100
AcDbEntity
  8
0
  6
Continuous
 62
     7
370
    25
100
AcDbLine
 10
232.9569615534
 20
190.7745576836
 30
0.0
 11
239.7569611779
 21
190.7745576836
 31
0.0
  0
LINE
  5
18D
330
1F
100
AcDbEntity
  8
0
  6
Continuous
 62
     7
370
    25
100
AcDbLine
 10
239.7569611779
 20
190.7745576836
 30
0.0
 11
239.7569611779
 21
189.7745575197
 31
0.0
  0
LINE
  5
18E
330
1F
100
AcDbEntity
  8
0
  6
Continuous
 62
     7
370
    25
100
AcDbLine
 10
232.9569615534
 20
190.7745576836
 30
0.0
 11
232.9569615534
 21
189.7745575197
 31
0.0
  0
LINE
  5
18F
330
1F
100
AcDbEntity
  8
0
  6
Continuous
 62
     7
370
    25
100
AcDbLine
 10
232.9569615534
 20
189.7745575197
 30
0.0
 11
239.7569611779
 21
189.7745575197
 31
0.0
  0
LINE
  5
190
330
1F
100
AcDbEntity
  8
0
  6
Continuous
 62
     7
370
    25
100
AcDbLine
 10
232.9569615534
 20
224.7745586
 30
0.0
 11
232.9569615534
 21
225.7745569013
 31
0.0
  0
LINE
  5
191
330
1F
100
AcDbEntity
  8
0
  6
Continuous
 62
     7
370
    25
100
AcDbLine
 10
239.7569611779
 20
225.7745569013
 30
0.0
 11
232.9569615534
 21
225.7745569013
 31
0.0
  0
LINE
  5
192
330
1F
100
AcDbEntity
  8
0
  6
Continuous
 62
     7
370
    25
100
AcDbLine
 10
239.7569611779
 20
224.7745586
 30
0.0
 11
239.7569611779
 21
225.7745569013
 31
0.0
  0
LINE
  5
193
330
1F
100
AcDbEntity
  8
0
  6
Continuous
 62
     7
370
    25
100
AcDbLine
 10
239.7569611779
 20
224.7745586
 30
0.0
 11
232.9569615534
 21
224.7745586
 31
0.0
  0
ARC
  5
194
330
1F
100
AcDbEntity
  8
0
  6
Continuous
 62
     7
370
    25
100
AcDbCircle
 10
239.7569615832
 20
190.9745576251
 30
0.0
 40
1.199999999999989
100
AcDbArc
 50
270.0
 51
0.0
  0
ARC
  5
195
330
1F
100
AcDbEntity
  8
0
  6
Continuous
 62
     7
370
    25
100
AcDbCircle
 10
239.7569615832
 20
190.9745576251
 30
0.0
 40
0.1999999999999886
100
AcDbArc
 50
270.0
 51
0.0
  0
ARC
  5
196
330
1F
100
AcDbEntity
  8
0
  6
Continuous
 62
     7
370
    25
100
AcDbCircle
 10
239.7569615832
 20
224.5745576251
 30
0.0
 40
1.200000000000017
100
AcDbArc
 50
0.0
 51
90.0
  0
ARC
  5
197
330
1F
100
AcDbEntity
  8
0
  6
Continuous
 62
     7
370
    25
100
AcDbCircle
 10
239.7569615832
 20
224.5745576251
 30
0.0
 40
0.2000000000000171
100
AcDbArc
 50
0.0
 51
90.0
  0
LINE
  5
198
330
1F
100
AcDbEntity
  8
0
  6
Continuous
 62
     7
370
    25
100
AcDbLine
 10
232.4569614715
 20
219.7745559178
 30
0.0
 11
232.4069615564
 21
219.7745559178
 31
0.0
  0
LINE
  5
199
330
1F
100
AcDbEntity
  8
0
  6
Continuous
 62
     7
370
    25
100
AcDbLine
 10
232.4569614715
 20
205.7745573483
 30
0.0
 11
232.4569614715
 21
210.7745581679
 31
0.0
  0
LINE
  5
19A
330
1F
100
AcDbEntity
  8
0
  6
Continuous
 62
     7
370
    25
100
AcDbLine
 10
232.4569614715
 20
196.7745577357
 30
0.0
 11
232.4069615564
 21
196.7745577357
 31
0.0
  0
LINE
  5
19B
330
1F
100
AcDbEntity
  8
0
  6
Continuous
 62
     7
370
    25
100
AcDbLine
 10
232.4069615564
 20
196.7745577357
 30
0.0
 11
232.4069615564
 21
219.7745559178
 31
0.0
  0
LINE
  5
19C
330
1F
100
AcDbEntity
  8
0
  6
Continuous
 62
     7
370
    25
100
AcDbLine
 10
232.4569614715
 20
192.7745575457
 30
0.0
 11
232.4069615564
 21
192.7745575457
 31
0.0
  0
LINE
  5
19D
330
1F
100
AcDbEntity
  8
0
  6
Continuous
 62
     7
370
    25
100
AcDbLine
 10
232.4069615564
 20
192.7745575457
 30
0.0
 11
232.4069615564
 21
196.7745577357
 31
0.0
  0
LINE
  5
19E
330
1F
100
AcDbEntity
  8
0
  6
Continuous
 62
     7
370
    25
100
AcDbLine
 10
232.4569614715
 20
223.7745565734
 30
0.0
 11
232.4069615564
 21
223.7745565734
 31
0.0
  0
LINE
  5
19F
330
1F
100
AcDbEntity
  8
0
  6
Continuous
 62
     7
370
    25
100
AcDbLine
 10
232.4069615564
 20
219.7745559178
 30
0.0
 11
232.4069615564
 21
223.7745565734
 31
0.0
  0
LINE
  5
1A0
330
1F
100
AcDbEntity
  8
0
  6
Continuous
 62
     7
370
    25
100
AcDbLine
 10
232.4069615564
 20
223.7745565734
 30
0.0
 11
232.0569616853
 21
223.7745565734
 31
0.0
  0
LINE
  5
1A1
330
1F
100
AcDbEntity
  8
0
  6
Continuous
 62
     7
370
    25
100
AcDbLine
 10
232.4069615564
 20
219.7745559178
 30
0.0
 11
232.0569616853
 21
219.7745559178
 31
0.0
  0
LINE
  5
1A2
330
1F
100
AcDbEntity
  8
0
  6
Continuous
 62
     7
370
    25
100
AcDbLine
 10
232.0569616853
 20
219.7745559178
 30
0.0
 11
232.0569616853
 21
223.7745565734
 31
0.0
  0
LINE
  5
1A3
330
1F
100
AcDbEntity
  8
0
  6
Continuous
 62
     7
370
    25
100
AcDbLine
 10
232.4069615564
 20
196.7745577357
 30
0.0
 11
232.0569616853
 21
196.7745577357
 31
0.0
  0
LINE
  5
1A4
330
1F
100
AcDbEntity
  8
0
  6
Continuous
 62
     7
370
    25
100
AcDbLine
 10
232.0569616853
 20
196.7745577357
 30
0.0
 11
232.0569616853
 21
219.7745559178
 31
0.0
  0
LINE
  5
1A5
330
1F
100
AcDbEntity
  8
0
  6
Continuous
 62
     7
370
    25
100
AcDbLine
 10
232.4069615564
 20
192.7745575457
 30
0.0
 11
232.0569616853
 21
192.7745575457
 31
0.0
  0
LINE
  5
1A6
330
1F
100
AcDbEntity
  8
0
  6
Continuous
 62
     7
370
    25
100
AcDbLine
 10
232.0569616853
 20
192.7745575457
 30
0.0
 11
232.0569616853
 21
196.7745577357
 31
0.0
  0
ELLIPSE
  5
1A7
330
1F
100
AcDbEntity
  8
0
  6
Continuous
 62
     7
370
    25
100
AcDbEllipse
 10
215.1569615832
 20
190.9745576251
 30
0.0
 11
1.200000000000017
 21
0.0
 31
0.0
210
0.0
220
0.0
230
1.0
 40
0.0016750844
 41
3.14159265358972
 42
4.71238898038469
  0
LINE
  5
1A8
330
1F
100
AcDbEntity
  8
0
  6
Continuous
 62
     7
370
    25
100
AcDbLine
 10
213.9569612331
 20
190.9745578095
 30
0.0
 11
213.9569612331
 21
224.5745589397
 31
0.0
  0
ELLIPSE
  5
1A9
330
1F
100
AcDbEntity
  8
0
  6
Continuous
 62
     7
370
    25
100
AcDbEllipse
 10
215.1569615832
 20
224.5745576251
 30
0.0
 11
1.200000000000017
 21
0.0
 31
0.0
210
0.0
220
0.0
230
1.0
 40
0.0016750844
 41
1.570796326794897
 42
3.14159265358972
  0
LINE
  5
1AA
330
1F
100
AcDbEntity
  8
0
  6
Continuous
 62
     7
370
    25
100
AcDbLine
 10
215.1569619885
 20
224.5765668712
 30
0.0
 11
215.1569619885
 21
190.9725475497
 31
0.0
  0
LINE
  5
1AB
330
1F
100
AcDbEntity
  8
0
  6
Continuous
 62
     7
370
    25
100
AcDbLine
 10
221.956961613
 20
190.9725475497
 30
0.0
 11
221.956961613
 21
224.5765668712
 31
0.0
  0
LINE
  5
1AC
330
1F
100
AcDbEntity
  8
0
  6
Continuous
 62
     7
370
    25
100
AcDbLine
 10
221.956961613
 20
224.5765668712
 30
0.0
 11
215.1569619885
 21
224.5765668712
 31
0.0
  0
LINE
  5
1AD
330
1F
100
AcDbEntity
  8
0
  6
Continuous
 62
     7
370
    25
100
AcDbLine
 10
215.1569619885
 20
190.9725475497
 30
0.0
 11
221.956961613
 21
190.9725475497
 31
0.0
  0
ARC
  5
1AE
330
1F
100
AcDbEntity
  8
0
  6
Continuous
 62
     7
370
    25
100
AcDbCircle
 10
215.1569615832
 20
224.5745576251
 30
0.0
 40
1.200000000000017
100
AcDbArc
 50
90.0
 51
180.0
  0
LINE
  5
1AF
330
1F
100
AcDbEntity
  8
0
  6
Continuous
 62
     7
370
    25
100
AcDbLine
 10
215.1569619885
 20
224.7745586
 30
0.0
 11
215.1569619885
 21
225.7745569013
 31
0.0
  0
ARC
  5
1B0
330
1F
100
AcDbEntity
  8
0
  6
Continuous
 62
     7
370
    25
100
AcDbCircle
 10
215.1569615832
 20
224.5745576251
 30
0.0
 40
0.2000000000000171
100
AcDbArc
 50
90.0
 51
180.0
  0
LINE
  5
1B1
330
1F
100
AcDbEntity
  8
0
  6
Continuous
 62
     7
370
    25
100
AcDbLine
 10
215.1569619885
 20
225.7745569013
 30
0.0
 11
221.956961613
 21
225.7745569013
 31
0.0
  0
LINE
  5
1B2
330
1F
100
AcDbEntity
  8
0
  6
Continuous
 62
     7
370
    25
100
AcDbLine
 10
221.956961613
 20
224.7745586
 30
0.0
 11
221.956961613
 21
225.7745569013
 31
0.0
  0
LINE
  5
1B3
330
1F
100
AcDbEntity
  8
0
  6
Continuous
 62
     7
370
    25
100
AcDbLine
 10
215.1569619885
 20
224.7745586
 30
0.0
 11
221.956961613
 21
224.7745586
 31
0.0
  0
LINE
  5
1B4
330
1F
100
AcDbEntity
  8
0
  6
Continuous
 62
     7
370
    25
100
AcDbLine
 10
215.1569619885
 20
190.7745576836
 30
0.0
 11
215.1569619885
 21
189.7745575197
 31
0.0
  0
LINE
  5
1B5
330
1F
100
AcDbEntity
  8
0
  6
Continuous
 62
     7
370
    25
100
AcDbLine
 10
221.956961613
 20
190.7745576836
 30
0.0
 11
215.1569619885
 21
190.7745576836
 31
0.0
  0
LINE
  5
1B6
330
1F
100
AcDbEntity
  8
0
  6
Continuous
 62
     7
370
    25
100
AcDbLine
 10
221.956961613
 20
190.7745576836
 30
0.0
 11
221.956961613
 21
189.7745575197
 31
0.0
  0
LINE
  5
1B7
330
1F
100
AcDbEntity
  8
0
  6
Continuous
 62
     7
370
    25
100
AcDbLine
 10
221.956961613
 20
189.7745575197
 30
0.0
 11
215.1569619885
 21
189.7745575197
 31
0.0
  0
ARC
  5
1B8
330
1F
100
AcDbEntity
  8
0
  6
Continuous
 62
     7
370
    25
100
AcDbCircle
 10
215.1569615832
 20
190.9745576251
 30
0.0
 40
0.2000000000000171
100
AcDbArc
 50
180.0
 51
270.0
  0
ARC
  5
1B9
330
1F
100
AcDbEntity
  8
0
  6
Continuous
 62
     7
370
    25
100
AcDbCircle
 10
215.1569615832
 20
190.9745576251
 30
0.0
 40
1.200000000000017
100
AcDbArc
 50
180.0
 51
270.0
  0
LINE
  5
1BA
330
1F
100
AcDbEntity
  8
0
  6
Continuous
 62
     7
370
    25
100
AcDbLine
 10
257.4569609127
 20
227.2745562158
 30
0.0
 11
233.9569617173
 21
227.2745562158
 31
0.0
  0
LINE
  5
1BB
330
1F
100
AcDbEntity
  8
0
  6
Continuous
 62
     7
370
    25
100
AcDbLine
 10
257.4569609127
 20
190.2745576016
 30
0.0
 11
257.4569609127
 21
227.2745562158
 31
0.0
  0
LINE
  5
1BC
330
1F
100
AcDbEntity
  8
0
  6
Continuous
 62
     7
370
    25
100
AcDbLine
 10
220.9569614491
 20
227.2745562158
 30
0.0
 11
220.9569614491
 21
225.7745569013
 31
0.0
  0
LINE
  5
1BD
330
1F
100
AcDbEntity
  8
0
  6
Continuous
 62
     7
370
    25
100
AcDbLine
 10
220.9569614491
 20
224.7745586
 30
0.0
 11
220.9569614491
 21
224.7091536782
 31
0.0
  0
LINE
  5
1BE
330
1F
100
AcDbEntity
  8
0
  6
Continuous
 62
     7
370
    25
100
AcDbLine
 10
233.9569617173
 20
224.7091536782
 30
0.0
 11
233.9569617173
 21
224.7745586
 31
0.0
  0
LINE
  5
1BF
330
1F
100
AcDbEntity
  8
0
  6
Continuous
 62
     7
370
    25
100
AcDbLine
 10
233.9569617173
 20
225.7745569013
 30
0.0
 11
233.9569617173
 21
227.2745562158
 31
0.0
  0
CIRCLE
  5
1C0
330
1F
100
AcDbEntity
  8
0
  6
Continuous
 62
     7
370
    25
100
AcDbCircle
 10
204.4569615832
 20
210.2745576251
 30
0.0
 40
5.199999999999989
  0
CIRCLE
  5
1C1
330
1F
100
AcDbEntity
  8
0
  6
Continuous
 62
     7
370
    25
100
AcDbCircle
 10
250.4569615832
 20
210.2745576251
 30
0.0
 40
5.200000000000017
  0
LINE
  5
1C2
330
1F
100
AcDbEntity
  8
0
  6
Continuous
 62
     7
370
    25
100
AcDbLine
 10
220.9569614491
 20
227.2745562158
 30
0.0
 11
197.4569622538
 21
227.2745562158
 31
0.0
  0
LINE
  5
1C3
330
1F
100
AcDbEntity
  8
0
  6
Continuous
 62
     7
370
    25
100
AcDbLine
 10
197.4569622538
 20
227.2745562158
 30
0.0
 11
197.4569622538
 21
190.2745576016
 31
0.0
  0
LINE
  5
1C4
330
1F
100
AcDbEntity
  8
0
  6
Continuous
 62
     7
370
    25
100
AcDbLine
 10
197.4569622538
 20
190.2745576016
 30
0.0
 11
214.1822816915
 21
190.2745576016
 31
0.0
  0
LINE
  5
1C5
330
1F
100
AcDbEntity
  8
0
  6
Continuous
 62
     7
370
    25
100
AcDbLine
 10
240.731641475
 20
190.2745576016
 30
0.0
 11
257.4569609127
 21
190.2745576016
 31
0.0
  0
CIRCLE
  5
1C6
330
1F
100
AcDbEntity
  8
0
  6
Continuous
 62
     7
370
    25
100
AcDbCircle
 10
204.4569615832
 20
210.2745576251
 30
0.0
 40
2.699999999999989
  0
CIRCLE
  5
1C7
330
1F
100
AcDbEntity
  8
0
  6
Continuous
 62
     7
370
    25
100
AcDbCircle
 10
250.4569615832
 20
210.2745576251
 30
0.0
 40
2.700000000000017
  0
LINE
  5
1C8
330
1F
100
AcDbEntity
  8
0
  6
Continuous
 62
     7
370
    25
100
AcDbLine
 10
221.5069614461
 20
169.8245578818
 30
0.0
 11
233.5069615505
 21
169.8245578818
 31
0.0
  0
LINE
  5
1C9
330
1F
100
AcDbEntity
  8
0
  6
Continuous
 62
     7
370
    25
100
AcDbLine
 10
223.5129171162
 20
189.8245574347
 30
0.0
 11
232.9569615534
 21
189.8245574347
 31
0.0
  0
LINE
  5
1CA
330
1F
100
AcDbEntity
  8
0
  6
Continuous
 62
     7
370
    25
100
AcDbLine
 10
221.956961613
 20
189.8245574347
 30
0.0
 11
223.5129171162
 21
189.8245574347
 31
0.0
  0
LINE
  5
1CB
330
1F
100
AcDbEntity
  8
0
  6
Continuous
 62
     7
370
    25
100
AcDbLine
 10
232.5069613865
 20
168.8245577178
 30
0.0
 11
222.5069616101
 21
168.8245577178
 31
0.0
  0
LINE
  5
1CC
330
1F
100
AcDbEntity
  8
0
  6
Continuous
 62
     7
370
    25
100
AcDbLine
 10
227.506961582
 20
189.8245574347
 30
0.0
 11
221.956961613
 21
190.1154206506
 31
0.0
  0
LINE
  5
1CD
330
1F
100
AcDbEntity
  8
0
  6
Continuous
 62
     7
370
    25
100
AcDbLine
 10
227.506961582
 20
189.8245574347
 30
0.0
 11
227.506961582
 21
190.2745576016
 31
0.0
  0
LINE
  5
1CE
330
1F
100
AcDbEntity
  8
0
  6
Continuous
 62
     7
370
    25
100
AcDbLine
 10
232.9569615534
 20
190.1101800985
 30
0.0
 11
227.506961582
 21
189.8245574347
 31
0.0
  0
LWPOLYLINE
  5
1CF
330
1F
100
AcDbEntity
  8
0
  6
Continuous
 62
     7
370
    25
100
AcDbPolyline
 90
        3
 70
   128
 43
0.0
 10
219.5986190921
 20
190.7745576836
 10
219.5781523472
 20
190.8222269639
 10
219.5687450579
 20
190.8467361144
  0
LINE
  5
1D0
330
1F
100
AcDbEntity
  8
0
  6
Continuous
 62
     7
370
    25
100
AcDbLine
 10
217.2569612152
 20
224.5909464918
 30
0.0
 11
219.2665131873
 21
224.5909464918
 31
0.0
  0
LINE
  5
1D1
330
1F
100
AcDbEntity
  8
0
  6
Continuous
 62
     7
370
    25
100
AcDbLine
 10
220.3190967551
 20
226.0909458063
 30
0.0
 11
220.356961537
 21
226.0909458063
 31
0.0
  0
LINE
  5
1D2
330
1F
100
AcDbEntity
  8
0
  6
Continuous
 62
     7
370
    25
100
AcDbLine
 10
217.5569616369
 20
226.0909458063
 30
0.0
 11
220.3190967551
 21
226.0909458063
 31
0.0
  0
LINE
  5
1D3
330
1F
100
AcDbEntity
  8
0
  6
Continuous
 62
     7
370
    25
100
AcDbLine
 10
234.8297129496
 20
190.7774415239
 30
0.0
 11
234.5569616294
 21
190.7774415239
 31
0.0
  0
LINE
  5
1D4
330
1F
100
AcDbEntity
  8
0
  6
Continuous
 62
     7
370
    25
100
AcDbLine
 10
237.3569615296
 20
190.7774415239
 30
0.0
 11
234.8297129496
 21
190.7774415239
 31
0.0
  0
LINE
  5
1D5
330
1F
100
AcDbEntity
  8
0
  6
Continuous
 62
     7
370
    25
100
AcDbLine
 10
220.356961537
 20
190.8467361144
 30
0.0
 11
217.5569616369
 21
190.8467361144
 31
0.0
  0
LINE
  5
1D6
330
1F
100
AcDbEntity
  8
0
  6
Continuous
 62
     7
370
    25
100
AcDbLine
 10
232.4569614715
 20
196.7745577357
 30
0.0
 11
232.4569614715
 21
205.7745573483
 31
0.0
  0
LINE
  5
1D7
330
1F
100
AcDbEntity
  8
0
  6
Continuous
 62
     7
370
    25
100
AcDbLine
 10
232.4569614715
 20
205.7745573483
 30
0.0
 11
232.9569615534
 21
205.7745573483
 31
0.0
  0
LINE
  5
1D8
330
1F
100
AcDbEntity
  8
0
  6
Continuous
 62
     7
370
    25
100
AcDbLine
 10
232.4569614715
 20
219.7745559178
 30
0.0
 11
232.4569614715
 21
224.7745586
 31
0.0
  0
LINE
  5
1D9
330
1F
100
AcDbEntity
  8
0
  6
Continuous
 62
     7
370
    25
100
AcDbLine
 10
232.9569615534
 20
224.7745586
 30
0.0
 11
232.4569614715
 21
224.7745586
 31
0.0
  0
LINE
  5
1DA
330
1F
100
AcDbEntity
  8
0
  6
Continuous
 62
     7
370
    25
100
AcDbLine
 10
233.0216619297
 20
224.5765668712
 30
0.0
 11
233.0216619297
 21
224.7745586
 31
0.0
  0
LINE
  5
1DB
330
1F
100
AcDbEntity
  8
0
  6
Continuous
 62
     7
370
    25
100
AcDbLine
 10
232.4569614715
 20
191.7745578475
 30
0.0
 11
232.4569614715
 21
196.7745577357
 31
0.0
  0
LINE
  5
1DC
330
1F
100
AcDbEntity
  8
0
  6
Continuous
 62
     7
370
    25
100
AcDbLine
 10
232.9569615534
 20
191.7745578475
 30
0.0
 11
232.4569614715
 21
191.7745578475
 31
0.0
  0
LINE
  5
1DD
330
1F
100
AcDbEntity
  8
0
  6
Continuous
 62
     7
370
    25
100
AcDbLine
 10
232.4569614715
 20
210.7745581679
 30
0.0
 11
232.4569614715
 21
219.7745559178
 31
0.0
  0
LINE
  5
1DE
330
1F
100
AcDbEntity
  8
0
  6
Continuous
 62
     7
370
    25
100
AcDbLine
 10
232.4569614715
 20
210.7745581679
 30
0.0
 11
232.9569615534
 21
210.7745581679
 31
0.0
  0
LINE
  5
1DF
330
1F
100
AcDbEntity
  8
0
  6
Continuous
 62
     7
370
    25
100
AcDbLine
 10
233.0216619297
 20
224.7745586
 30
0.0
 11
235.8530487976
 21
224.5765668712
 31
0.0
  0
LINE
  5
1E0
330
1F
100
AcDbEntity
  8
0
  6
Continuous
 62
     7
370
    25
100
AcDbLine
 10
222.456961695
 20
219.7745559178
 30
0.0
 11
222.8069615661
 21
219.7745559178
 31
0.0
  0
LINE
  5
1E1
330
1F
100
AcDbEntity
  8
0
  6
Continuous
 62
     7
370
    25
100
AcDbLine
 10
222.456961695
 20
223.7745565734
 30
0.0
 11
222.8069615661
 21
223.7745565734
 31
0.0
  0
LINE
  5
1E2
330
1F
100
AcDbEntity
  8
0
  6
Continuous
 62
     7
370
    25
100
AcDbLine
 10
222.8069615661
 20
219.7745559178
 30
0.0
 11
222.8069615661
 21
223.7745565734
 31
0.0
  0
LINE
  5
1E3
330
1F
100
AcDbEntity
  8
0
  6
Continuous
 62
     7
370
    25
100
AcDbLine
 10
222.456961695
 20
192.7745575457
 30
0.0
 11
222.8069615661
 21
192.7745575457
 31
0.0
  0
LINE
  5
1E4
330
1F
100
AcDbEntity
  8
0
  6
Continuous
 62
     7
370
    25
100
AcDbLine
 10
222.456961695
 20
196.7745577357
 30
0.0
 11
222.8069615661
 21
196.7745577357
 31
0.0
  0
LINE
  5
1E5
330
1F
100
AcDbEntity
  8
0
  6
Continuous
 62
     7
370
    25
100
AcDbLine
 10
222.8069615661
 20
192.7745575457
 30
0.0
 11
222.8069615661
 21
196.7745577357
 31
0.0
  0
LINE
  5
1E6
330
1F
100
AcDbEntity
  8
0
  6
Continuous
 62
     7
370
    25
100
AcDbLine
 10
222.456961695
 20
205.7745573483
 30
0.0
 11
222.456961695
 21
210.7745581679
 31
0.0
  0
LINE
  5
1E7
330
1F
100
AcDbEntity
  8
0
  6
Continuous
 62
     7
370
    25
100
AcDbLine
 10
222.8069615661
 20
196.7745577357
 30
0.0
 11
222.8069615661
 21
219.7745559178
 31
0.0
  0
LINE
  5
1E8
330
1F
100
AcDbEntity
  8
0
  6
Continuous
 62
     7
370
    25
100
AcDbLine
 10
222.4069617799
 20
205.7745573483
 30
0.0
 11
222.4069617799
 21
210.7745581679
 31
0.0
  0
LINE
  5
1E9
330
1F
100
AcDbEntity
  8
0
  6
Continuous
 62
     7
370
    25
100
AcDbLine
 10
221.8922612368
 20
224.7745586
 30
0.0
 11
221.8922612368
 21
224.5765668712
 31
0.0
  0
LINE
  5
1EA
330
1F
100
AcDbEntity
  8
0
  6
Continuous
 62
     7
370
    25
100
AcDbLine
 10
221.8922612368
 20
224.7745586
 30
0.0
 11
219.0608743689
 21
224.5765668712
 31
0.0
  0
LINE
  5
1EB
330
1F
100
AcDbEntity
  8
0
  6
Continuous
 62
     7
370
    25
100
AcDbLine
 10
222.456961695
 20
224.7745586
 30
0.0
 11
222.456961695
 21
219.7745559178
 31
0.0
  0
LINE
  5
1EC
330
1F
100
AcDbEntity
  8
0
  6
Continuous
 62
     7
370
    25
100
AcDbLine
 10
221.956961613
 20
224.7745586
 30
0.0
 11
222.456961695
 21
224.7745586
 31
0.0
  0
LINE
  5
1ED
330
1F
100
AcDbEntity
  8
0
  6
Continuous
 62
     7
370
    25
100
AcDbLine
 10
222.456961695
 20
205.7745573483
 30
0.0
 11
222.456961695
 21
196.7745577357
 31
0.0
  0
LINE
  5
1EE
330
1F
100
AcDbEntity
  8
0
  6
Continuous
 62
     7
370
    25
100
AcDbLine
 10
222.456961695
 20
205.7745573483
 30
0.0
 11
221.956961613
 21
205.7745573483
 31
0.0
  0
LINE
  5
1EF
330
1F
100
AcDbEntity
  8
0
  6
Continuous
 62
     7
370
    25
100
AcDbLine
 10
222.456961695
 20
219.7745559178
 30
0.0
 11
222.456961695
 21
210.7745581679
 31
0.0
  0
LINE
  5
1F0
330
1F
100
AcDbEntity
  8
0
  6
Continuous
 62
     7
370
    25
100
AcDbLine
 10
222.456961695
 20
210.7745581679
 30
0.0
 11
221.956961613
 21
210.7745581679
 31
0.0
  0
LINE
  5
1F1
330
1F
100
AcDbEntity
  8
0
  6
Continuous
 62
     7
370
    25
100
AcDbLine
 10
221.956961613
 20
191.7745578475
 30
0.0
 11
222.456961695
 21
191.7745578475
 31
0.0
  0
LINE
  5
1F2
330
1F
100
AcDbEntity
  8
0
  6
Continuous
 62
     7
370
    25
100
AcDbLine
 10
222.456961695
 20
196.7745577357
 30
0.0
 11
222.456961695
 21
191.7745578475
 31
0.0
  0
LINE
  5
1F3
330
1F
100
AcDbEntity
  8
0
  6
Continuous
 62
     7
370
    25
100
AcDbLine
 10
222.8069615661
 20
214.2745578102
 30
0.0
 11
232.0569616853
 21
214.2745578102
 31
0.0
  0
LINE
  5
1F4
330
1F
100
AcDbEntity
  8
0
  6
Continuous
 62
     7
370
    25
100
AcDbLine
 10
232.4569614715
 20
190.2745576016
 30
0.0
 11
232.4569614715
 21
191.7745578475
 31
0.0
  0
LINE
  5
1F5
330
1F
100
AcDbEntity
  8
0
  6
Continuous
 62
     7
370
    25
100
AcDbLine
 10
222.456961695
 20
190.2745576016
 30
0.0
 11
232.4569614715
 21
190.2745576016
 31
0.0
  0
LINE
  5
1F6
330
1F
100
AcDbEntity
  8
0
  6
Continuous
 62
     7
370
    25
100
AcDbLine
 10
222.456961695
 20
191.7745578475
 30
0.0
 11
222.456961695
 21
190.2745576016
 31
0.0
  0
LINE
  5
1F7
330
1F
100
AcDbEntity
  8
0
  6
Continuous
 62
     8
370
    25
100
AcDbLine
 10
221.956961613
 20
191.1140503734
 30
0.0
 11
222.456961695
 21
191.0878462158
 31
0.0
  0
LWPOLYLINE
  5
1F8
330
1F
100
AcDbEntity
  8
0
  6
Continuous
 62
     8
370
    25
100
AcDbPolyline
 90
        3
 70
   128
 43
0.0
 10
220.4375782161
 20
190.7745576836
 10
220.4386552906
 20
190.811255984
 10
220.4444038792
 20
190.9725475497
  0
LINE
  5
1F9
330
1F
100
AcDbEntity
  8
0
  6
Continuous
 62
     8
370
    25
100
AcDbLine
 10
232.4569614715
 20
191.0826056636
 30
0.0
 11
232.9569615534
 21
191.1088093556
 31
0.0
  0
LINE
  5
1FA
330
1F
100
AcDbEntity
  8
0
  6
Continuous
 62
     8
370
    25
100
AcDbLine
 10
232.9569615534
 20
196.7745577357
 30
0.0
 11
232.4569614715
 21
196.7745577357
 31
0.0
  0
LINE
  5
1FB
330
1F
100
AcDbEntity
  8
0
  6
Continuous
 62
     8
370
    25
100
AcDbLine
 10
232.9569615534
 20
219.7745559178
 30
0.0
 11
232.4569614715
 21
219.7745559178
 31
0.0
  0
LINE
  5
1FC
330
1F
100
AcDbEntity
  8
0
  6
Continuous
 62
     8
370
    25
100
AcDbLine
 10
221.956961613
 20
219.7745559178
 30
0.0
 11
222.456961695
 21
219.7745559178
 31
0.0
  0
LINE
  5
1FD
330
1F
100
AcDbEntity
  8
0
  6
Continuous
 62
     8
370
    25
100
AcDbLine
 10
221.956961613
 20
196.7745577357
 30
0.0
 11
222.456961695
 21
196.7745577357
 31
0.0
  0
LINE
  5
1FE
330
1F
100
AcDbEntity
  8
0
  6
Continuous
 62
     8
370
    25
100
AcDbLine
 10
232.0569616853
 20
209.2745569907
 30
0.0
 11
222.8069615661
 21
209.2745569907
 31
0.0
  0
LINE
  5
1FF
330
1F
100
AcDbEntity
  8
0
  6
Continuous
 62
     7
370
    25
100
AcDbLine
 10
338.8896682189
 20
189.7745576251
 30
0.0
 11
338.8896682189
 21
169.8245576251
 31
0.0
  0
LINE
  5
200
330
1F
100
AcDbEntity
  8
0
  6
Continuous
 62
     7
370
    25
100
AcDbLine
 10
350.8896682189
 20
169.8245576251
 30
0.0
 11
350.8896682189
 21
189.7745576251
 31
0.0
  0
LINE
  5
201
330
1F
100
AcDbEntity
  8
0
  6
Continuous
 62
     7
370
    25
100
AcDbLine
 10
338.8896682189
 20
169.8245576251
 30
0.0
 11
339.8896682189
 21
168.8245576251
 31
0.0
  0
LINE
  5
202
330
1F
100
AcDbEntity
  8
0
  6
Continuous
 62
     7
370
    25
100
AcDbLine
 10
349.8896682189
 20
168.8245576251
 30
0.0
 11
350.8896682189
 21
169.8245576251
 31
0.0
  0
LINE
  5
203
330
1F
100
AcDbEntity
  8
0
  6
Continuous
 62
     7
370
    25
100
AcDbLine
 10
364.0396682189
 20
225.7745576251
 30
0.0
 11
364.0396682189
 21
226.0909474393
 31
0.0
  0
LINE
  5
204
330
1F
100
AcDbEntity
  8
0
  6
Continuous
 62
     7
370
    25
100
AcDbLine
 10
361.2396682189
 20
226.0909474393
 30
0.0
 11
361.2396682189
 21
225.7745576251
 31
0.0
  0
LINE
  5
205
330
1F
100
AcDbEntity
  8
0
  6
Continuous
 62
     7
370
    25
100
AcDbLine
 10
288.1396682189
 20
190.9725475239
 30
0.0
 11
288.1396682189
 21
224.5765677264
 31
0.0
  0
LINE
  5
206
330
1F
100
AcDbEntity
  8
0
  6
Continuous
 62
     7
370
    25
100
AcDbLine
 10
288.1396682189
 20
224.5765677264
 30
0.0
 11
289.3396682189
 21
224.5745576251
 31
0.0
  0
LINE
  5
207
330
1F
100
AcDbEntity
  8
0
  6
Continuous
 62
     7
370
    25
100
AcDbLine
 10
289.3396682189
 20
224.5745576251
 30
0.0
 11
289.3396682189
 21
190.9745576251
 31
0.0
  0
LINE
  5
208
330
1F
100
AcDbEntity
  8
0
  6
Continuous
 62
     7
370
    25
100
AcDbLine
 10
289.3396682189
 20
190.9745576251
 30
0.0
 11
288.1396682189
 21
190.9725475239
 31
0.0
  0
LINE
  5
209
330
1F
100
AcDbEntity
  8
0
  6
Continuous
 62
     7
370
    25
100
AcDbLine
 10
289.1396682189
 20
224.5765677264
 30
0.0
 11
288.1396682189
 21
224.5765677264
 31
0.0
  0
LINE
  5
20A
330
1F
100
AcDbEntity
  8
0
  6
Continuous
 62
     7
370
    25
100
AcDbLine
 10
289.1396682189
 20
224.5765677264
 30
0.0
 11
289.3396682189
 21
224.5745576251
 31
0.0
  0
LINE
  5
20B
330
1F
100
AcDbEntity
  8
0
  6
Continuous
 62
     7
370
    25
100
AcDbLine
 10
289.3396682189
 20
190.9745576251
 30
0.0
 11
289.1396682189
 21
190.9725475239
 31
0.0
  0
LINE
  5
20C
330
1F
100
AcDbEntity
  8
0
  6
Continuous
 62
     7
370
    25
100
AcDbLine
 10
289.1396682189
 20
190.9725475239
 30
0.0
 11
288.1396682189
 21
190.9725475239
 31
0.0
  0
LINE
  5
20D
330
1F
100
AcDbEntity
  8
0
  6
Continuous
 62
     7
370
    25
100
AcDbLine
 10
435.9416783201
 20
189.7745576251
 30
0.0
 11
289.3376581176
 21
189.7745576251
 31
0.0
  0
LINE
  5
20E
330
1F
100
AcDbEntity
  8
0
  6
Continuous
 62
     7
370
    25
100
AcDbLine
 10
289.3376581176
 20
189.7745576251
 30
0.0
 11
289.3396682189
 21
190.9745576251
 31
0.0
  0
LINE
  5
20F
330
1F
100
AcDbEntity
  8
0
  6
Continuous
 62
     7
370
    25
100
AcDbLine
 10
289.3396682189
 20
190.9745576251
 30
0.0
 11
435.9396682189
 21
190.9745576251
 31
0.0
  0
LINE
  5
210
330
1F
100
AcDbEntity
  8
0
  6
Continuous
 62
     7
370
    25
100
AcDbLine
 10
435.9396682189
 20
190.9745576251
 30
0.0
 11
435.9416783201
 21
189.7745576251
 31
0.0
  0
LINE
  5
211
330
1F
100
AcDbEntity
  8
0
  6
Continuous
 62
     7
370
    25
100
AcDbLine
 10
289.3376581176
 20
190.7745576251
 30
0.0
 11
289.3376581176
 21
189.7745576251
 31
0.0
  0
LINE
  5
212
330
1F
100
AcDbEntity
  8
0
  6
Continuous
 62
     7
370
    25
100
AcDbLine
 10
289.3376581176
 20
190.7745576251
 30
0.0
 11
289.3396682189
 21
190.9745576251
 31
0.0
  0
LINE
  5
213
330
1F
100
AcDbEntity
  8
0
  6
Continuous
 62
     7
370
    25
100
AcDbLine
 10
435.9396682189
 20
224.5745576251
 30
0.0
 11
289.3396682189
 21
224.5745576251
 31
0.0
  0
LINE
  5
214
330
1F
100
AcDbEntity
  8
0
  6
Continuous
 62
     7
370
    25
100
AcDbLine
 10
435.9396682189
 20
190.9745576251
 30
0.0
 11
435.9396682189
 21
224.5745576251
 31
0.0
  0
LINE
  5
215
330
1F
100
AcDbEntity
  8
0
  6
Continuous
 62
     7
370
    25
100
AcDbLine
 10
289.3396682189
 20
224.5745576251
 30
0.0
 11
289.3376581176
 21
225.7745576251
 31
0.0
  0
LINE
  5
216
330
1F
100
AcDbEntity
  8
0
  6
Continuous
 62
     7
370
    25
100
AcDbLine
 10
289.3396682189
 20
224.5745576251
 30
0.0
 11
289.3376581176
 21
224.7745576251
 31
0.0
  0
LINE
  5
217
330
1F
100
AcDbEntity
  8
0
  6
Continuous
 62
     7
370
    25
100
AcDbLine
 10
289.3376581176
 20
224.7745576251
 30
0.0
 11
289.3376581176
 21
225.7745576251
 31
0.0
  0
LINE
  5
218
330
1F
100
AcDbEntity
  8
0
  6
Continuous
 62
     7
370
    25
100
AcDbLine
 10
289.3376581176
 20
225.7745576251
 30
0.0
 11
435.9416783201
 21
225.7745576251
 31
0.0
  0
LINE
  5
219
330
1F
100
AcDbEntity
  8
0
  6
Continuous
 62
     7
370
    25
100
AcDbLine
 10
435.9396682189
 20
224.5745576251
 30
0.0
 11
435.9416783201
 21
225.7745576251
 31
0.0
  0
LINE
  5
21A
330
1F
100
AcDbEntity
  8
0
  6
Continuous
 62
     7
370
    25
100
AcDbLine
 10
437.1396682189
 20
190.9725475239
 30
0.0
 11
435.9396682189
 21
190.9745576251
 31
0.0
  0
LINE
  5
21B
330
1F
100
AcDbEntity
  8
0
  6
Continuous
 62
     7
370
    25
100
AcDbLine
 10
437.1396682189
 20
224.5765677264
 30
0.0
 11
435.9396682189
 21
224.5745576251
 31
0.0
  0
LINE
  5
21C
330
1F
100
AcDbEntity
  8
0
  6
Continuous
 62
     7
370
    25
100
AcDbLine
 10
437.1396682189
 20
224.5765677264
 30
0.0
 11
437.1396682189
 21
190.9725475239
 31
0.0
  0
LINE
  5
21D
330
1F
100
AcDbEntity
  8
0
  6
Continuous
 62
     7
370
    25
100
AcDbLine
 10
436.1396682189
 20
224.5765677264
 30
0.0
 11
435.9396682189
 21
224.5745576251
 31
0.0
  0
LINE
  5
21E
330
1F
100
AcDbEntity
  8
0
  6
Continuous
 62
     7
370
    25
100
AcDbLine
 10
436.1396682189
 20
224.5765677264
 30
0.0
 11
437.1396682189
 21
224.5765677264
 31
0.0
  0
LINE
  5
21F
330
1F
100
AcDbEntity
  8
0
  6
Continuous
 62
     7
370
    25
100
AcDbLine
 10
435.9416783201
 20
224.7745576251
 30
0.0
 11
435.9416783201
 21
225.7745576251
 31
0.0
  0
LINE
  5
220
330
1F
100
AcDbEntity
  8
0
  6
Continuous
 62
     7
370
    25
100
AcDbLine
 10
435.9396682189
 20
224.5745576251
 30
0.0
 11
435.9416783201
 21
224.7745576251
 31
0.0
  0
LINE
  5
221
330
1F
100
AcDbEntity
  8
0
  6
Continuous
 62
     7
370
    25
100
AcDbLine
 10
435.9396682189
 20
190.9745576251
 30
0.0
 11
435.9416783201
 21
190.7745576251
 31
0.0
  0
LINE
  5
222
102
{ACAD_REACTORS
330
476
102
}
330
1F
100
AcDbEntity
  8
0
  6
Continuous
 62
     7
370
    25
100
AcDbLine
 10
435.9416783201
 20
190.7745576251
 30
0.0
 11
435.9416783201
 21
189.7745576251
 31
0.0
  0
LINE
  5
223
330
1F
100
AcDbEntity
  8
0
  6
Continuous
 62
     7
370
    25
100
AcDbLine
 10
436.1396682189
 20
190.9725475239
 30
0.0
 11
437.1396682189
 21
190.9725475239
 31
0.0
  0
LINE
  5
224
330
1F
100
AcDbEntity
  8
0
  6
Continuous
 62
     7
370
    25
100
AcDbLine
 10
436.1396682189
 20
190.9725475239
 30
0.0
 11
435.9396682189
 21
190.9745576251
 31
0.0
  0
LINE
  5
225
330
1F
100
AcDbEntity
  8
0
  6
Continuous
 62
     7
370
    25
100
AcDbLine
 10
287.3896682189
 20
227.2745576251
 30
0.0
 11
284.3896682189
 21
227.2745576251
 31
0.0
  0
LINE
  5
226
330
1F
100
AcDbEntity
  8
0
  6
Continuous
 62
     7
370
    25
100
AcDbLine
 10
287.3896682189
 20
227.2745576251
 30
0.0
 11
287.3896682189
 21
190.2745576251
 31
0.0
  0
LINE
  5
227
330
1F
100
AcDbEntity
  8
0
  6
Continuous
 62
     7
370
    25
100
AcDbLine
 10
287.3896682189
 20
190.2745576251
 30
0.0
 11
284.3896682189
 21
190.2745576251
 31
0.0
  0
LINE
  5
228
102
{ACAD_REACTORS
330
466
102
}
330
1F
100
AcDbEntity
  8
0
  6
Continuous
 62
     7
370
    25
100
AcDbLine
 10
284.3896682189
 20
227.2745576251
 30
0.0
 11
284.3896682189
 21
190.2745576251
 31
0.0
  0
LINE
  5
229
330
1F
100
AcDbEntity
  8
0
  6
Continuous
 62
     7
370
    25
100
AcDbLine
 10
338.8896682189
 20
169.8245576251
 30
0.0
 11
350.8896682189
 21
169.8245576251
 31
0.0
  0
LINE
  5
22A
330
1F
100
AcDbEntity
  8
0
  6
Continuous
 62
     7
370
    25
100
AcDbLine
 10
349.8896682189
 20
168.8245576251
 30
0.0
 11
339.8896682189
 21
168.8245576251
 31
0.0
  0
LINE
  5
22B
330
1F
100
AcDbEntity
  8
0
  6
Continuous
 62
     7
370
    25
100
AcDbLine
 10
361.2396682189
 20
226.0909474393
 30
0.0
 11
364.0396682189
 21
226.0909474393
 31
0.0
  0
LINE
  5
22C
330
1F
100
AcDbEntity
  8
0
  6
Continuous
 62
     7
370
    25
100
AcDbLine
 10
289.3376581176
 20
190.2745576251
 30
0.0
 11
287.3896682189
 21
190.2745576251
 31
0.0
  0
LINE
  5
22D
330
1F
100
AcDbEntity
  8
0
  6
Continuous
 62
     7
370
    25
100
AcDbLine
 10
287.3896682189
 20
214.2745576251
 30
0.0
 11
288.1396682189
 21
214.2745576251
 31
0.0
  0
CIRCLE
  5
230
330
1F
100
AcDbEntity
  8
0
  6
Continuous
 62
     7
100
AcDbCircle
 10
362.6396682189
 20
287.5906752037
 30
0.0
 40
1.400000000027341
  0
CIRCLE
  5
231
330
1F
100
AcDbEntity
  8
0
  6
Continuous
 62
     7
100
AcDbCircle
 10
362.6396682189
 20
304.5906752037
 30
0.0
 40
1.400000000027256
  0
CIRCLE
  5
232
330
1F
100
AcDbEntity
  8
0
  6
Continuous
 62
     7
100
AcDbCircle
 10
410.3896682189
 20
287.5906752037
 30
0.0
 40
1.400000000027324
  0
CIRCLE
  5
233
330
1F
100
AcDbEntity
  8
0
  6
Continuous
 62
     7
100
AcDbCircle
 10
410.3896682189
 20
304.5906752037
 30
0.0
 40
1.400000000027265
  0
LINE
  5
234
330
1F
100
AcDbEntity
  8
0
  6
Continuous
 62
     7
370
    25
100
AcDbLine
 10
315.3896665045
 20
290.6406751486
 30
0.0
 11
315.3896665045
 21
290.5906752335
 31
0.0
  0
LINE
  5
235
330
1F
100
AcDbEntity
  8
0
  6
Continuous
 62
     7
370
    25
100
AcDbLine
 10
325.3896681436
 20
290.5906752335
 30
0.0
 11
325.3896681436
 21
290.6406751486
 31
0.0
  0
LINE
  5
236
330
1F
100
AcDbEntity
  8
0
  6
Continuous
 62
     7
370
    25
100
AcDbLine
 10
384.8896695146
 20
301.5406752589
 30
0.0
 11
384.8896695146
 21
301.5906751739
 31
0.0
  0
LINE
  5
237
330
1F
100
AcDbEntity
  8
0
  6
Continuous
 62
     7
370
    25
100
AcDbLine
 10
374.8896678754
 20
301.5906751739
 30
0.0
 11
374.8896678754
 21
301.5406752589
 31
0.0
  0
LINE
  5
238
330
1F
100
AcDbEntity
  8
0
  6
Continuous
 62
     7
370
    25
100
AcDbLine
 10
376.8896682033
 20
292.2406752246
 30
0.0
 11
376.8896682033
 21
292.1406753945
 31
0.0
  0
LINE
  5
239
330
1F
100
AcDbEntity
  8
0
  6
Continuous
 62
     7
370
    25
100
AcDbLine
 10
382.8896673241
 20
292.1406753945
 30
0.0
 11
382.8896673241
 21
292.2406752246
 31
0.0
  0
LINE
  5
23A
330
1F
100
AcDbEntity
  8
0
  6
Continuous
 62
     7
370
    25
100
AcDbLine
 10
374.3896687248
 20
301.5406752589
 30
0.0
 11
374.3896687248
 21
299.9406751829
 31
0.0
  0
LINE
  5
23B
330
1F
100
AcDbEntity
  8
0
  6
Continuous
 62
     7
370
    25
100
AcDbLine
 10
385.3896668025
 20
299.9406751829
 30
0.0
 11
385.3896668025
 21
301.5406752589
 31
0.0
  0
LINE
  5
23C
330
1F
100
AcDbEntity
  8
0
  6
Continuous
 62
     7
370
    25
100
AcDbLine
 10
325.8896672943
 20
290.6406751486
 30
0.0
 11
325.8896672943
 21
292.2406752246
 31
0.0
  0
LINE
  5
23D
330
1F
100
AcDbEntity
  8
0
  6
Continuous
 62
     7
370
    25
100
AcDbLine
 10
314.8896692165
 20
292.2406752246
 30
0.0
 11
314.8896692165
 21
290.6406751486
 31
0.0
  0
ELLIPSE
  5
23E
330
1F
100
AcDbEntity
  8
0
  6
Continuous
 62
     7
370
    25
100
AcDbEllipse
 10
289.3396682189
 20
283.7906752037
 30
0.0
 11
0.0
 21
1.199999999999989
 31
0.0
210
0.0
220
0.0
230
1.0
 40
0.0016750844
 41
1.570796326794897
 42
3.14159265358972
  0
LINE
  5
23F
330
1F
100
AcDbEntity
  8
0
  6
Continuous
 62
     7
370
    25
100
AcDbLine
 10
289.3396651217
 20
282.5906748535
 30
0.0
 11
435.939665682
 21
282.5906748535
 31
0.0
  0
LINE
  5
240
330
1F
100
AcDbEntity
  8
0
  6
Continuous
 62
     7
370
    25
100
AcDbLine
 10
435.9416773387
 20
283.790675609
 30
0.0
 11
289.3376609155
 21
283.790675609
 31
0.0
  0
ELLIPSE
  5
241
330
1F
100
AcDbEntity
  8
0
  6
Continuous
 62
     7
370
    25
100
AcDbEllipse
 10
435.9396682189
 20
283.7906752037
 30
0.0
 11
0.0
 21
1.199999999999989
 31
0.0
210
0.0
220
0.0
230
1.0
 40
0.0016750844
 41
3.14159265358972
 42
4.71238898038469
  0
LINE
  5
242
330
1F
100
AcDbEntity
  8
0
  6
Continuous
 62
     7
370
    25
100
AcDbLine
 10
372.1396678903
 20
290.5906752335
 30
0.0
 11
372.1396678903
 21
289.5906750696
 31
0.0
  0
LINE
  5
243
330
1F
100
AcDbEntity
  8
0
  6
Continuous
 62
     7
370
    25
100
AcDbLine
 10
372.1396678903
 20
290.5906752335
 30
0.0
 11
435.9416773387
 21
290.5906752335
 31
0.0
  0
LINE
  5
244
330
1F
100
AcDbEntity
  8
0
  6
Continuous
 62
     7
370
    25
100
AcDbLine
 10
435.9416773387
 20
290.5906752335
 30
0.0
 11
435.9416773387
 21
283.790675609
 31
0.0
  0
LINE
  5
245
330
1F
100
AcDbEntity
  8
0
  6
Continuous
 62
     7
370
    25
100
AcDbLine
 10
289.3376609155
 20
290.5906752335
 30
0.0
 11
326.1396678009
 21
290.5906752335
 31
0.0
  0
LINE
  5
246
330
1F
100
AcDbEntity
  8
0
  6
Continuous
 62
     7
370
    25
100
AcDbLine
 10
326.1396678009
 20
289.5906750696
 30
0.0
 11
326.1396678009
 21
290.5906752335
 31
0.0
  0
ARC
  5
247
330
1F
100
AcDbEntity
  8
0
  6
Continuous
 62
     7
370
    25
100
AcDbCircle
 10
328.1396682189
 20
289.5906752037
 30
0.0
 40
2.0
100
AcDbArc
 50
180.0
 51
270.0
  0
LINE
  5
248
330
1F
100
AcDbEntity
  8
0
  6
Continuous
 62
     7
370
    25
100
AcDbLine
 10
370.1396675625
 20
287.5906747418
 30
0.0
 11
328.1396681287
 21
287.5906747418
 31
0.0
  0
ARC
  5
249
330
1F
100
AcDbEntity
  8
0
  6
Continuous
 62
     7
370
    25
100
AcDbCircle
 10
370.1396682189
 20
289.5906752037
 30
0.0
 40
2.0
100
AcDbArc
 50
270.0
 51
0.0
  0
CIRCLE
  5
24A
330
1F
100
AcDbEntity
  8
0
  6
Continuous
 62
     7
370
    25
100
AcDbCircle
 10
411.1396682189
 20
287.5906752037
 30
0.0
 40
1.5
  0
LINE
  5
24B
330
1F
100
AcDbEntity
  8
0
  6
Continuous
 62
     7
370
    25
100
AcDbLine
 10
289.3376609155
 20
283.790675609
 30
0.0
 11
289.3376609155
 21
290.5906752335
 31
0.0
  0
ARC
  5
24C
330
1F
100
AcDbEntity
  8
0
  6
Continuous
 62
     7
370
    25
100
AcDbCircle
 10
289.3396682189
 20
283.7906752037
 30
0.0
 40
0.2000000000000455
100
AcDbArc
 50
180.0
 51
270.0
  0
ARC
  5
24D
330
1F
100
AcDbEntity
  8
0
  6
Continuous
 62
     7
370
    25
100
AcDbCircle
 10
289.3396682189
 20
283.7906752037
 30
0.0
 40
1.200000000000045
100
AcDbArc
 50
180.0
 51
270.0
  0
LINE
  5
24E
330
1F
100
AcDbEntity
  8
0
  6
Continuous
 62
     7
370
    25
100
AcDbLine
 10
289.1396691867
 20
283.790675609
 30
0.0
 11
288.1396671602
 21
283.790675609
 31
0.0
  0
LINE
  5
24F
330
1F
100
AcDbEntity
  8
0
  6
Continuous
 62
     7
370
    25
100
AcDbLine
 10
289.1396691867
 20
290.5906752335
 30
0.0
 11
288.1396671602
 21
290.5906752335
 31
0.0
  0
LINE
  5
250
330
1F
100
AcDbEntity
  8
0
  6
Continuous
 62
     7
370
    25
100
AcDbLine
 10
288.1396671602
 20
290.5906752335
 30
0.0
 11
288.1396671602
 21
283.790675609
 31
0.0
  0
LINE
  5
251
330
1F
100
AcDbEntity
  8
0
  6
Continuous
 62
     7
370
    25
100
AcDbLine
 10
289.1396691867
 20
290.5906752335
 30
0.0
 11
289.1396691867
 21
283.790675609
 31
0.0
  0
ARC
  5
252
330
1F
100
AcDbEntity
  8
0
  6
Continuous
 62
     7
370
    25
100
AcDbCircle
 10
435.9396682189
 20
283.7906752037
 30
0.0
 40
0.2000000000000455
100
AcDbArc
 50
270.0
 51
0.0
  0
LINE
  5
253
330
1F
100
AcDbEntity
  8
0
  6
Continuous
 62
     7
370
    25
100
AcDbLine
 10
436.1396690675
 20
283.790675609
 30
0.0
 11
437.1396710941
 21
283.790675609
 31
0.0
  0
ARC
  5
254
330
1F
100
AcDbEntity
  8
0
  6
Continuous
 62
     7
370
    25
100
AcDbCircle
 10
435.9396682189
 20
283.7906752037
 30
0.0
 40
1.200000000000045
100
AcDbArc
 50
270.0
 51
0.0
  0
LINE
  5
255
330
1F
100
AcDbEntity
  8
0
  6
Continuous
 62
     7
370
    25
100
AcDbLine
 10
436.1396690675
 20
290.5906752335
 30
0.0
 11
437.1396710941
 21
290.5906752335
 31
0.0
  0
LINE
  5
256
330
1F
100
AcDbEntity
  8
0
  6
Continuous
 62
     7
370
    25
100
AcDbLine
 10
436.1396690675
 20
283.790675609
 30
0.0
 11
436.1396690675
 21
290.5906752335
 31
0.0
  0
LINE
  5
257
330
1F
100
AcDbEntity
  8
0
  6
Continuous
 62
     7
370
    25
100
AcDbLine
 10
437.1396710941
 20
283.790675609
 30
0.0
 11
437.1396710941
 21
290.5906752335
 31
0.0
  0
LINE
  5
258
330
1F
100
AcDbEntity
  8
0
  6
Continuous
 62
     7
370
    25
100
AcDbLine
 10
429.8896675774
 20
291.0906753155
 30
0.0
 11
429.8896675774
 21
291.1406752305
 31
0.0
  0
LINE
  5
259
330
1F
100
AcDbEntity
  8
0
  6
Continuous
 62
     7
370
    25
100
AcDbLine
 10
418.3896666237
 20
291.0906753155
 30
0.0
 11
418.3896666237
 21
291.1406752305
 31
0.0
  0
LINE
  5
25A
330
1F
100
AcDbEntity
  8
0
  6
Continuous
 62
     7
370
    25
100
AcDbLine
 10
418.3896666237
 20
291.1406752305
 30
0.0
 11
429.8896675774
 21
291.1406752305
 31
0.0
  0
LINE
  5
25B
330
1F
100
AcDbEntity
  8
0
  6
Continuous
 62
     7
370
    25
100
AcDbLine
 10
416.3896700212
 20
291.1406752305
 30
0.0
 11
418.3896666237
 21
291.1406752305
 31
0.0
  0
LINE
  5
25C
330
1F
100
AcDbEntity
  8
0
  6
Continuous
 62
     7
370
    25
100
AcDbLine
 10
433.8896682331
 20
291.0906753155
 30
0.0
 11
433.8896682331
 21
291.1406752305
 31
0.0
  0
LINE
  5
25D
330
1F
100
AcDbEntity
  8
0
  6
Continuous
 62
     7
370
    25
100
AcDbLine
 10
429.8896675774
 20
291.1406752305
 30
0.0
 11
433.8896682331
 21
291.1406752305
 31
0.0
  0
LINE
  5
25E
330
1F
100
AcDbEntity
  8
0
  6
Continuous
 62
     7
370
    25
100
AcDbLine
 10
418.3896666237
 20
291.1406752305
 30
0.0
 11
418.3896666237
 21
291.4906751017
 31
0.0
  0
LINE
  5
25F
330
1F
100
AcDbEntity
  8
0
  6
Continuous
 62
     7
370
    25
100
AcDbLine
 10
416.3896700212
 20
291.4906751017
 30
0.0
 11
418.3896666237
 21
291.4906751017
 31
0.0
  0
LINE
  5
260
330
1F
100
AcDbEntity
  8
0
  6
Continuous
 62
     7
370
    25
100
AcDbLine
 10
429.8896675774
 20
291.1406752305
 30
0.0
 11
429.8896675774
 21
291.4906751017
 31
0.0
  0
LINE
  5
261
330
1F
100
AcDbEntity
  8
0
  6
Continuous
 62
     7
370
    25
100
AcDbLine
 10
418.3896666237
 20
291.4906751017
 30
0.0
 11
429.8896675774
 21
291.4906751017
 31
0.0
  0
LINE
  5
262
330
1F
100
AcDbEntity
  8
0
  6
Continuous
 62
     7
370
    25
100
AcDbLine
 10
433.8896682331
 20
291.1406752305
 30
0.0
 11
433.8896682331
 21
291.4906751017
 31
0.0
  0
LINE
  5
263
330
1F
100
AcDbEntity
  8
0
  6
Continuous
 62
     7
370
    25
100
AcDbLine
 10
429.8896675774
 20
291.4906751017
 30
0.0
 11
433.8896682331
 21
291.4906751017
 31
0.0
  0
LINE
  5
264
330
1F
100
AcDbEntity
  8
0
  6
Continuous
 62
     7
370
    25
100
AcDbLine
 10
370.1396675625
 20
304.5906756657
 30
0.0
 11
328.1396681287
 21
304.5906756657
 31
0.0
  0
ARC
  5
265
330
1F
100
AcDbEntity
  8
0
  6
Continuous
 62
     7
370
    25
100
AcDbCircle
 10
328.1396682189
 20
302.5906752037
 30
0.0
 40
2.0
100
AcDbArc
 50
90.0
 51
180.0
  0
LINE
  5
266
330
1F
100
AcDbEntity
  8
0
  6
Continuous
 62
     7
370
    25
100
AcDbLine
 10
326.1396678009
 20
302.5906753378
 30
0.0
 11
326.1396678009
 21
301.5906751739
 31
0.0
  0
LINE
  5
267
330
1F
100
AcDbEntity
  8
0
  6
Continuous
 62
     7
370
    25
100
AcDbLine
 10
289.3376609155
 20
301.5906751739
 30
0.0
 11
326.1396678009
 21
301.5906751739
 31
0.0
  0
LINE
  5
268
330
1F
100
AcDbEntity
  8
0
  6
Continuous
 62
     7
370
    25
100
AcDbLine
 10
289.3376609155
 20
308.3906747984
 30
0.0
 11
289.3376609155
 21
301.5906751739
 31
0.0
  0
LINE
  5
269
330
1F
100
AcDbEntity
  8
0
  6
Continuous
 62
     7
370
    25
100
AcDbLine
 10
435.9416773387
 20
308.3906747984
 30
0.0
 11
289.3376609155
 21
308.3906747984
 31
0.0
  0
LINE
  5
26A
330
1F
100
AcDbEntity
  8
0
  6
Continuous
 62
     7
370
    25
100
AcDbLine
 10
435.9416773387
 20
301.5906751739
 30
0.0
 11
435.9416773387
 21
308.3906747984
 31
0.0
  0
LINE
  5
26B
330
1F
100
AcDbEntity
  8
0
  6
Continuous
 62
     7
370
    25
100
AcDbLine
 10
372.1396678903
 20
301.5906751739
 30
0.0
 11
435.9416773387
 21
301.5906751739
 31
0.0
  0
LINE
  5
26C
330
1F
100
AcDbEntity
  8
0
  6
Continuous
 62
     7
370
    25
100
AcDbLine
 10
372.1396678903
 20
301.5906751739
 30
0.0
 11
372.1396678903
 21
302.5906753378
 31
0.0
  0
ARC
  5
26D
330
1F
100
AcDbEntity
  8
0
  6
Continuous
 62
     7
370
    25
100
AcDbCircle
 10
370.1396682189
 20
302.5906752037
 30
0.0
 40
2.0
100
AcDbArc
 50
0.0
 51
90.0
  0
CIRCLE
  5
26E
330
1F
100
AcDbEntity
  8
0
  6
Continuous
 62
     7
370
    25
100
AcDbCircle
 10
411.1396682189
 20
304.5906752037
 30
0.0
 40
1.5
  0
ELLIPSE
  5
26F
330
1F
100
AcDbEntity
  8
0
  6
Continuous
 62
     7
370
    25
100
AcDbEllipse
 10
289.3396682189
 20
308.3906752037
 30
0.0
 11
0.0
 21
1.200000000000045
 31
0.0
210
0.0
220
0.0
230
1.0
 40
0.0016750844
 41
0.0
 42
1.570796326794897
  0
LINE
  5
270
330
1F
100
AcDbEntity
  8
0
  6
Continuous
 62
     7
370
    25
100
AcDbLine
 10
289.3396651217
 20
309.5906755539
 30
0.0
 11
435.939665682
 21
309.5906755539
 31
0.0
  0
ELLIPSE
  5
271
330
1F
100
AcDbEntity
  8
0
  6
Continuous
 62
     7
370
    25
100
AcDbEllipse
 10
435.9396682189
 20
308.3906752037
 30
0.0
 11
0.0
 21
1.200000000000045
 31
0.0
210
0.0
220
0.0
230
1.0
 40
0.0016750844
 41
4.71238898038469
 42
6.283185307179586
  0
LINE
  5
272
330
1F
100
AcDbEntity
  8
0
  6
Continuous
 62
     7
370
    25
100
AcDbLine
 10
289.1396691867
 20
308.3906747984
 30
0.0
 11
288.1396671602
 21
308.3906747984
 31
0.0
  0
LINE
  5
273
330
1F
100
AcDbEntity
  8
0
  6
Continuous
 62
     7
370
    25
100
AcDbLine
 10
289.1396691867
 20
301.5906751739
 30
0.0
 11
289.1396691867
 21
308.3906747984
 31
0.0
  0
LINE
  5
274
330
1F
100
AcDbEntity
  8
0
  6
Continuous
 62
     7
370
    25
100
AcDbLine
 10
289.1396691867
 20
301.5906751739
 30
0.0
 11
288.1396671602
 21
301.5906751739
 31
0.0
  0
LINE
  5
275
330
1F
100
AcDbEntity
  8
0
  6
Continuous
 62
     7
370
    25
100
AcDbLine
 10
288.1396671602
 20
301.5906751739
 30
0.0
 11
288.1396671602
 21
308.3906747984
 31
0.0
  0
LINE
  5
276
330
1F
100
AcDbEntity
  8
0
  6
Continuous
 62
     7
370
    25
100
AcDbLine
 10
436.1396690675
 20
301.5906751739
 30
0.0
 11
437.1396710941
 21
301.5906751739
 31
0.0
  0
LINE
  5
277
330
1F
100
AcDbEntity
  8
0
  6
Continuous
 62
     7
370
    25
100
AcDbLine
 10
436.1396690675
 20
308.3906747984
 30
0.0
 11
436.1396690675
 21
301.5906751739
 31
0.0
  0
LINE
  5
278
330
1F
100
AcDbEntity
  8
0
  6
Continuous
 62
     7
370
    25
100
AcDbLine
 10
436.1396690675
 20
308.3906747984
 30
0.0
 11
437.1396710941
 21
308.3906747984
 31
0.0
  0
LINE
  5
279
330
1F
100
AcDbEntity
  8
0
  6
Continuous
 62
     7
370
    25
100
AcDbLine
 10
437.1396710941
 20
308.3906747984
 30
0.0
 11
437.1396710941
 21
301.5906751739
 31
0.0
  0
ARC
  5
27A
330
1F
100
AcDbEntity
  8
0
  6
Continuous
 62
     7
370
    25
100
AcDbCircle
 10
289.3396682189
 20
308.3906752037
 30
0.0
 40
1.200000000000045
100
AcDbArc
 50
90.0
 51
180.0
  0
ARC
  5
27B
330
1F
100
AcDbEntity
  8
0
  6
Continuous
 62
     7
370
    25
100
AcDbCircle
 10
289.3396682189
 20
308.3906752037
 30
0.0
 40
0.2000000000000455
100
AcDbArc
 50
90.0
 51
180.0
  0
ARC
  5
27C
330
1F
100
AcDbEntity
  8
0
  6
Continuous
 62
     7
370
    25
100
AcDbCircle
 10
435.9396682189
 20
308.3906752037
 30
0.0
 40
1.200000000000045
100
AcDbArc
 50
0.0
 51
90.0
  0
ARC
  5
27D
330
1F
100
AcDbEntity
  8
0
  6
Continuous
 62
     7
370
    25
100
AcDbCircle
 10
435.9396682189
 20
308.3906752037
 30
0.0
 40
0.2000000000000455
100
AcDbArc
 50
0.0
 51
90.0
  0
LINE
  5
27E
330
1F
100
AcDbEntity
  8
0
  6
Continuous
 62
     7
370
    25
100
AcDbLine
 10
287.3896693655
 20
326.0906745332
 30
0.0
 11
284.3896707365
 21
326.0906745332
 31
0.0
  0
LINE
  5
27F
330
1F
100
AcDbEntity
  8
0
  6
Continuous
 62
     7
370
    25
100
AcDbLine
 10
287.3896693655
 20
326.0906745332
 30
0.0
 11
287.3896693655
 21
266.0906758743
 31
0.0
  0
LINE
  5
280
330
1F
100
AcDbEntity
  8
0
  6
Continuous
 62
     7
370
    25
100
AcDbLine
 10
287.3896693655
 20
266.0906758743
 30
0.0
 11
284.3896707365
 21
266.0906758743
 31
0.0
  0
LINE
  5
281
330
1F
100
AcDbEntity
  8
0
  6
Continuous
 62
     7
370
    25
100
AcDbLine
 10
284.3896707365
 20
326.0906745332
 30
0.0
 11
284.3896707365
 21
266.0906758743
 31
0.0
  0
CIRCLE
  5
282
330
1F
100
AcDbEntity
  8
0
  6
Continuous
 62
     7
370
    25
100
AcDbCircle
 10
344.8896682189
 20
296.0406752037
 30
0.0
 40
6.000000000000028
  0
CIRCLE
  5
283
330
1F
100
AcDbEntity
  8
0
  6
Continuous
 62
     7
370
    25
100
AcDbCircle
 10
344.8896682189
 20
296.0406752037
 30
0.0
 40
4.999999999999941
  0
LINE
  5
284
330
1F
100
AcDbEntity
  8
0
  6
Continuous
 62
     7
370
    25
100
AcDbLine
 10
369.0214415857
 20
288.9883394005
 30
0.0
 11
369.3910388121
 21
296.040675205
 31
0.0
  0
LINE
  5
285
330
1F
100
AcDbEntity
  8
0
  6
Continuous
 62
     7
370
    25
100
AcDbLine
 10
369.3910388121
 20
296.040675205
 30
0.0
 11
370.3896680691
 21
296.040675205
 31
0.0
  0
LINE
  5
286
330
1F
100
AcDbEntity
  8
0
  6
Continuous
 62
     7
370
    25
100
AcDbLine
 10
370.3896680691
 20
296.040675205
 30
0.0
 11
370.0200708428
 21
288.9883394005
 31
0.0
  0
ARC
  5
287
330
1F
100
AcDbEntity
  8
0
  6
Continuous
 62
     7
370
    25
100
AcDbCircle
 10
369.5207562142
 20
293.7737287375
 30
0.0
 40
4.811368433674518
100
AcDbArc
 50
264.0432283037
 51
275.9567716963001
  0
LINE
  5
288
330
1F
100
AcDbEntity
  8
0
  6
Continuous
 62
     7
370
    25
100
AcDbLine
 10
331.2578944334
 20
288.9883394005
 30
0.0
 11
369.0214415857
 21
288.9883394005
 31
0.0
  0
LINE
  5
289
330
1F
100
AcDbEntity
  8
0
  6
Continuous
 62
     7
370
    25
100
AcDbLine
 10
330.888297207
 20
296.040675205
 30
0.0
 11
331.2578944334
 21
288.9883394005
 31
0.0
  0
LINE
  5
28A
330
1F
100
AcDbEntity
  8
0
  6
Continuous
 62
     7
370
    25
100
AcDbLine
 10
338.8896684938
 20
296.040675205
 30
0.0
 11
330.888297207
 21
296.040675205
 31
0.0
  0
LINE
  5
28B
330
1F
100
AcDbEntity
  8
0
  6
Continuous
 62
     7
370
    25
100
AcDbLine
 10
369.3910388121
 20
296.040675205
 30
0.0
 11
350.8896682489
 21
296.040675205
 31
0.0
  0
LINE
  5
28C
330
1F
100
AcDbEntity
  8
0
  6
Continuous
 62
     7
370
    25
100
AcDbLine
 10
330.2592651763
 20
288.9883394005
 30
0.0
 11
329.8896679499
 21
296.040675205
 31
0.0
  0
LINE
  5
28D
330
1F
100
AcDbEntity
  8
0
  6
Continuous
 62
     7
370
    25
100
AcDbLine
 10
329.8896679499
 20
296.040675205
 30
0.0
 11
330.888297207
 21
296.040675205
 31
0.0
  0
ARC
  5
28E
330
1F
100
AcDbEntity
  8
0
  6
Continuous
 62
     7
370
    25
100
AcDbCircle
 10
330.7585798049
 20
293.7737510872
 30
0.0
 40
4.811390662700653
100
AcDbArc
 50
264.043255924
 51
275.956744076
  0
LINE
  5
28F
330
1F
100
AcDbEntity
  8
0
  6
Continuous
 62
     7
370
    25
100
AcDbLine
 10
369.3910388121
 20
296.040675205
 30
0.0
 11
369.0214415857
 21
303.0930111768
 31
0.0
  0
ARC
  5
290
330
1F
100
AcDbEntity
  8
0
  6
Continuous
 62
     7
370
    25
100
AcDbCircle
 10
369.5207562142
 20
298.3075872661
 30
0.0
 40
4.811402820784095
100
AcDbArc
 50
84.0432710308
 51
95.95672896920001
  0
LINE
  5
291
330
1F
100
AcDbEntity
  8
0
  6
Continuous
 62
     7
370
    25
100
AcDbLine
 10
370.0200708428
 20
303.0930111768
 30
0.0
 11
370.3896680691
 21
296.040675205
 31
0.0
  0
LINE
  5
292
330
1F
100
AcDbEntity
  8
0
  6
Continuous
 62
     7
370
    25
100
AcDbLine
 10
331.2578944334
 20
303.0930111768
 30
0.0
 11
330.888297207
 21
296.040675205
 31
0.0
  0
LINE
  5
293
330
1F
100
AcDbEntity
  8
0
  6
Continuous
 62
     7
370
    25
100
AcDbLine
 10
369.0214415857
 20
303.0930111768
 30
0.0
 11
331.2578944334
 21
303.0930111768
 31
0.0
  0
LINE
  5
294
330
1F
100
AcDbEntity
  8
0
  6
Continuous
 62
     7
370
    25
100
AcDbLine
 10
329.8896679499
 20
296.040675205
 30
0.0
 11
330.3089307466
 21
304.0406756686
 31
0.0
  0
LINE
  5
295
330
1F
100
AcDbEntity
  8
0
  6
Continuous
 62
     7
370
    25
100
AcDbLine
 10
330.3089307466
 20
304.0406756686
 30
0.0
 11
330.3101638177
 21
304.0406756686
 31
0.0
  0
ELLIPSE
  5
296
330
1F
100
AcDbEntity
  8
0
  6
Continuous
 62
     7
370
    25
100
AcDbEllipse
 10
331.2578950198
 20
303.0406752037
 30
0.0
 11
-0.9486725110480733
 21
0.9996922375428312
 31
0.0
210
0.0
220
0.0
230
1.0
 40
0.0261500838
 41
4.739938447034982
 42
6.25837489627099
  0
ARC
  5
297
330
1F
100
AcDbEntity
  8
0
  6
Continuous
 62
     7
370
    25
100
AcDbCircle
 10
369.0214414179
 20
289.0406752037
 30
0.0
 40
1.000000000000053
100
AcDbArc
 50
270.0
 51
356.9999999999999
  0
LINE
  5
298
330
1F
100
AcDbEntity
  8
0
  6
Continuous
 62
     7
370
    25
100
AcDbLine
 10
369.0214415857
 20
288.9883394005
 30
0.0
 11
369.0214415857
 21
288.0406749087
 31
0.0
  0
LINE
  5
299
330
1F
100
AcDbEntity
  8
0
  6
Continuous
 62
     7
370
    25
100
AcDbLine
 10
369.0214415857
 20
288.0406749087
 30
0.0
 11
331.2578944334
 21
288.0406749087
 31
0.0
  0
LINE
  5
29A
330
1F
100
AcDbEntity
  8
0
  6
Continuous
 62
     7
370
    25
100
AcDbLine
 10
331.2578944334
 20
288.0406749087
 30
0.0
 11
331.2578944334
 21
288.9883394005
 31
0.0
  0
ARC
  5
29B
330
1F
100
AcDbEntity
  8
0
  6
Continuous
 62
     7
370
    25
100
AcDbCircle
 10
331.2578950198
 20
289.0406752037
 30
0.0
 40
1.0
100
AcDbArc
 50
183.0
 51
270.0
  0
LINE
  5
29C
330
1F
100
AcDbEntity
  8
0
  6
Continuous
 62
     7
370
    25
100
AcDbLine
 10
369.0214415857
 20
303.0930111768
 30
0.0
 11
369.0214415857
 21
304.0406756686
 31
0.0
  0
ARC
  5
29D
330
1F
100
AcDbEntity
  8
0
  6
Continuous
 62
     7
370
    25
100
AcDbCircle
 10
369.0214414179
 20
303.0406752037
 30
0.0
 40
1.0
100
AcDbArc
 50
3.0
 51
90.0
  0
LINE
  5
29E
330
1F
100
AcDbEntity
  8
0
  6
Continuous
 62
     7
370
    25
100
AcDbLine
 10
330.3101638177
 20
304.0406756686
 30
0.0
 11
369.0214415857
 21
304.0406756686
 31
0.0
  0
LINE
  5
29F
330
1F
100
AcDbEntity
  8
0
  6
Continuous
 62
     7
370
    25
100
AcDbLine
 10
387.6404872009
 20
292.1406753945
 30
0.0
 11
370.1852781543
 21
292.1406753945
 31
0.0
  0
LINE
  5
2A0
330
1F
100
AcDbEntity
  8
0
  6
Continuous
 62
     7
370
    25
100
AcDbLine
 10
387.6404872009
 20
292.1406753945
 30
0.0
 11
388.3896691569
 21
292.1406753945
 31
0.0
  0
LINE
  5
2A1
330
1F
100
AcDbEntity
  8
0
  6
Continuous
 62
     7
370
    25
100
AcDbLine
 10
388.6044321426
 20
291.0906753155
 30
0.0
 11
388.586971707
 21
290.5906752335
 31
0.0
  0
LINE
  5
2A2
330
1F
100
AcDbEntity
  8
0
  6
Continuous
 62
     7
370
    25
100
AcDbLine
 10
330.3325136968
 20
287.5906747418
 30
0.0
 11
330.2592651763
 21
288.9883394005
 31
0.0
  0
LINE
  5
2A3
330
1F
100
AcDbEntity
  8
0
  6
Continuous
 62
     7
370
    25
100
AcDbLine
 10
328.3896686354
 20
299.9406751829
 30
0.0
 11
330.0940578648
 21
299.9406751829
 31
0.0
  0
LINE
  5
2A4
330
1F
100
AcDbEntity
  8
0
  6
Continuous
 62
     7
370
    25
100
AcDbLine
 10
311.6382395693
 20
299.9406751829
 30
0.0
 11
311.6958586344
 21
301.5906751739
 31
0.0
  0
LINE
  5
2A5
330
1F
100
AcDbEntity
  8
0
  6
Continuous
 62
     7
370
    25
100
AcDbLine
 10
369.9415808388
 20
304.5906756657
 30
0.0
 11
370.0200708428
 21
303.0930111768
 31
0.0
  0
LINE
  5
2A6
330
1F
100
AcDbEntity
  8
0
  6
Continuous
 62
     7
370
    25
100
AcDbLine
 10
384.9701730379
 20
301.5406752589
 30
0.0
 11
385.3896668025
 21
301.5406752589
 31
0.0
  0
LINE
  5
2A7
330
1F
100
AcDbEntity
  8
0
  6
Continuous
 62
     7
370
    25
100
AcDbLine
 10
374.3896687248
 20
301.5406752589
 30
0.0
 11
384.9701730379
 21
301.5406752589
 31
0.0
  0
LINE
  5
2A8
330
1F
100
AcDbEntity
  8
0
  6
Continuous
 62
     7
370
    25
100
AcDbLine
 10
325.8896672943
 20
290.6406751486
 30
0.0
 11
314.8896692165
 21
290.6406751486
 31
0.0
  0
LWPOLYLINE
  5
2A9
330
1F
100
AcDbEntity
  8
0
  6
Continuous
 62
     7
370
    25
100
AcDbPolyline
 90
        3
 70
   128
 43
0.0
 10
411.219917036
 20
288.7179238374
 10
410.8507668444
 20
288.9125628049
 10
410.5713365444
 20
288.9788385133
  0
ARC
  5
2AA
330
1F
100
AcDbEntity
  8
0
  6
Continuous
 62
     7
370
    25
100
AcDbCircle
 10
410.3896682189
 20
287.5906752037
 30
0.0
 40
1.400000000000016
100
AcDbArc
 50
277.455833925
 51
53.6274043855
  0
LINE
  5
2AB
330
1F
100
AcDbEntity
  8
0
  6
Continuous
 62
     7
370
    25
100
AcDbLine
 10
409.7056908378
 20
287.1505503195
 30
0.0
 11
410.2922638723
 21
286.7185256096
 31
0.0
  0
LINE
  5
2AC
330
1F
100
AcDbEntity
  8
0
  6
Continuous
 62
     7
370
    25
100
AcDbLine
 10
410.2922638723
 20
286.7185256096
 30
0.0
 11
411.0962709257
 21
287.0702451678
 31
0.0
  0
LINE
  5
2AD
330
1F
100
AcDbEntity
  8
0
  6
Continuous
 62
     7
370
    25
100
AcDbLine
 10
411.0962709257
 20
287.0702451678
 30
0.0
 11
411.1936760911
 21
287.9423952314
 31
0.0
  0
LINE
  5
2AE
330
1F
100
AcDbEntity
  8
0
  6
Continuous
 62
     7
370
    25
100
AcDbLine
 10
411.1936760911
 20
287.9423952314
 30
0.0
 11
410.4870742032
 21
288.462825271
 31
0.0
  0
LINE
  5
2AF
330
1F
100
AcDbEntity
  8
0
  6
Continuous
 62
     7
370
    25
100
AcDbLine
 10
410.4870742032
 20
288.462825271
 30
0.0
 11
409.7427872786
 21
288.1372307079
 31
0.0
  0
LINE
  5
2B0
330
1F
100
AcDbEntity
  8
0
  6
Continuous
 62
     7
370
    25
100
AcDbLine
 10
411.3978257247
 20
288.9594767826
 30
0.0
 11
411.1913366088
 21
289.0897851089
 31
0.0
  0
ARC
  5
2B1
330
1F
100
AcDbEntity
  8
0
  6
Continuous
 62
     7
370
    25
100
AcDbCircle
 10
410.3896682189
 20
287.5906752037
 30
0.0
 40
1.700000000000055
100
AcDbArc
 50
298.1361678001
 51
53.6274043855
  0
ARC
  5
2B2
330
1F
100
AcDbEntity
  8
0
  6
Continuous
 62
     7
370
    25
100
AcDbCircle
 10
410.3896682189
 20
287.5906752037
 30
0.0
 40
2.000000000000067
100
AcDbArc
 50
320.4287805428
 51
39.5712194572
  0
LINE
  5
2B3
330
1F
100
AcDbEntity
  8
0
  6
Continuous
 62
     7
370
    25
100
AcDbLine
 10
410.9162909755
 20
303.8886777709
 30
0.0
 11
411.2609287569
 21
304.6957465472
 31
0.0
  0
LINE
  5
2B4
330
1F
100
AcDbEntity
  8
0
  6
Continuous
 62
     7
370
    25
100
AcDbLine
 10
411.2609287569
 20
304.6957465472
 30
0.0
 11
410.7343030938
 21
305.3977439763
 31
0.0
  0
LINE
  5
2B5
330
1F
100
AcDbEntity
  8
0
  6
Continuous
 62
     7
370
    25
100
AcDbLine
 10
410.7343030938
 20
305.3977439763
 30
0.0
 11
409.8630433747
 21
305.2926721635
 31
0.0
  0
LINE
  5
2B6
330
1F
100
AcDbEntity
  8
0
  6
Continuous
 62
     7
370
    25
100
AcDbLine
 10
409.8630433747
 20
305.2926721635
 30
0.0
 11
409.6551945278
 21
304.8059257331
 31
0.0
  0
LINE
  5
2B7
330
1F
100
AcDbEntity
  8
0
  6
Continuous
 62
     7
370
    25
100
AcDbLine
 10
409.6720142135
 20
304.2808432715
 30
0.0
 11
410.0450312563
 21
303.7836064237
 31
0.0
  0
LINE
  5
2B8
330
1F
100
AcDbEntity
  8
0
  6
Continuous
 62
     7
370
    25
100
AcDbLine
 10
410.0450312563
 20
303.7836064237
 30
0.0
 11
410.9162909755
 21
303.8886777709
 31
0.0
  0
ARC
  5
2B9
330
1F
100
AcDbEntity
  8
0
  6
Continuous
 62
     7
370
    25
100
AcDbCircle
 10
410.3896682189
 20
304.5906752037
 30
0.0
 40
1.40000000000006
100
AcDbArc
 50
277.455833925
 51
82.5441660751
  0
ARC
  5
2BA
330
1F
100
AcDbEntity
  8
0
  6
Continuous
 62
     7
370
    25
100
AcDbCircle
 10
410.3896682189
 20
304.5906752037
 30
0.0
 40
1.700000000000095
100
AcDbArc
 50
298.1361678002
 51
61.8638321999
  0
ARC
  5
2BB
330
1F
100
AcDbEntity
  8
0
  6
Continuous
 62
     7
370
    25
100
AcDbCircle
 10
410.3896682189
 20
304.5906752037
 30
0.0
 40
2.000000000000036
100
AcDbArc
 50
320.4287805428
 51
39.5712194573
  0
LINE
  5
2BC
330
1F
100
AcDbEntity
  8
0
  6
Continuous
 62
     7
370
    25
100
AcDbLine
 10
310.3896675476
 20
291.0906753155
 30
0.0
 11
310.8896685609
 21
291.0906753155
 31
0.0
  0
LINE
  5
2BD
330
1F
100
AcDbEntity
  8
0
  6
Continuous
 62
     7
370
    25
100
AcDbLine
 10
302.8896672496
 20
291.0906753155
 30
0.0
 11
302.8896672496
 21
290.5906752335
 31
0.0
  0
LINE
  5
2BE
330
1F
100
AcDbEntity
  8
0
  6
Continuous
 62
     7
370
    25
100
AcDbLine
 10
310.8896685609
 20
291.0906753155
 30
0.0
 11
310.8896685609
 21
290.5906752335
 31
0.0
  0
LINE
  5
2BF
330
1F
100
AcDbEntity
  8
0
  6
Continuous
 62
     7
370
    25
100
AcDbLine
 10
297.8896682927
 20
291.0906753155
 30
0.0
 11
297.8896682927
 21
290.5906752335
 31
0.0
  0
LINE
  5
2C0
330
1F
100
AcDbEntity
  8
0
  6
Continuous
 62
     7
370
    25
100
AcDbLine
 10
289.8896669814
 20
290.5906752335
 30
0.0
 11
289.8896669814
 21
291.0906753155
 31
0.0
  0
LINE
  5
2C1
330
1F
100
AcDbEntity
  8
0
  6
Continuous
 62
     7
370
    25
100
AcDbLine
 10
407.8896676966
 20
291.0906753155
 30
0.0
 11
407.8896676966
 21
290.5906752335
 31
0.0
  0
LINE
  5
2C2
330
1F
100
AcDbEntity
  8
0
  6
Continuous
 62
     7
370
    25
100
AcDbLine
 10
388.8896664449
 20
290.5906752335
 30
0.0
 11
388.8896664449
 21
291.0906753155
 31
0.0
  0
LINE
  5
2C3
330
1F
100
AcDbEntity
  8
0
  6
Continuous
 62
     7
370
    25
100
AcDbLine
 10
416.3896700212
 20
291.0906753155
 30
0.0
 11
430.3896685907
 21
291.0906753155
 31
0.0
  0
LINE
  5
2C4
330
1F
100
AcDbEntity
  8
0
  6
Continuous
 62
     7
370
    25
100
AcDbLine
 10
412.8896666535
 20
291.0906753155
 30
0.0
 11
412.8896666535
 21
290.5906752335
 31
0.0
  0
LINE
  5
2C5
330
1F
100
AcDbEntity
  8
0
  6
Continuous
 62
     7
370
    25
100
AcDbLine
 10
435.3896712729
 20
290.5906752335
 30
0.0
 11
435.3896712729
 21
291.0906753155
 31
0.0
  0
LINE
  5
2C6
330
1F
100
AcDbEntity
  8
0
  6
Continuous
 62
     7
370
    25
100
AcDbLine
 10
430.3896685907
 20
291.0906753155
 30
0.0
 11
435.3896712729
 21
291.0906753155
 31
0.0
  0
LINE
  5
2C7
330
1F
100
AcDbEntity
  8
0
  6
Continuous
 62
     7
370
    25
100
AcDbLine
 10
330.1490859904
 20
291.0906753155
 30
0.0
 11
325.8896672943
 21
291.0906753155
 31
0.0
  0
LINE
  5
2C8
330
1F
100
AcDbEntity
  8
0
  6
Continuous
 62
     7
370
    25
100
AcDbLine
 10
314.8896692165
 20
291.0906753155
 30
0.0
 11
310.8896685609
 21
291.0906753155
 31
0.0
  0
LINE
  5
2C9
330
1F
100
AcDbEntity
  8
0
  6
Continuous
 62
     7
370
    25
100
AcDbLine
 10
418.3896666237
 20
301.090675092
 30
0.0
 11
418.3896666237
 21
300.7406752209
 31
0.0
  0
LINE
  5
2CA
330
1F
100
AcDbEntity
  8
0
  6
Continuous
 62
     7
370
    25
100
AcDbLine
 10
416.3896700212
 20
300.7406752209
 30
0.0
 11
418.3896666237
 21
300.7406752209
 31
0.0
  0
LINE
  5
2CB
330
1F
100
AcDbEntity
  8
0
  6
Continuous
 62
     7
370
    25
100
AcDbLine
 10
429.8896675774
 20
301.090675092
 30
0.0
 11
429.8896675774
 21
300.7406752209
 31
0.0
  0
LINE
  5
2CC
330
1F
100
AcDbEntity
  8
0
  6
Continuous
 62
     7
370
    25
100
AcDbLine
 10
418.3896666237
 20
300.7406752209
 30
0.0
 11
429.8896675774
 21
300.7406752209
 31
0.0
  0
LINE
  5
2CD
330
1F
100
AcDbEntity
  8
0
  6
Continuous
 62
     7
370
    25
100
AcDbLine
 10
433.8896682331
 20
301.090675092
 30
0.0
 11
433.8896682331
 21
300.7406752209
 31
0.0
  0
LINE
  5
2CE
330
1F
100
AcDbEntity
  8
0
  6
Continuous
 62
     7
370
    25
100
AcDbLine
 10
429.8896675774
 20
300.7406752209
 30
0.0
 11
433.8896682331
 21
300.7406752209
 31
0.0
  0
LINE
  5
2CF
330
1F
100
AcDbEntity
  8
0
  6
Continuous
 62
     7
370
    25
100
AcDbLine
 10
310.8896685609
 20
301.5906751739
 30
0.0
 11
310.8896685609
 21
301.090675092
 31
0.0
  0
LINE
  5
2D0
330
1F
100
AcDbEntity
  8
0
  6
Continuous
 62
     7
370
    25
100
AcDbLine
 10
302.8896672496
 20
301.090675092
 30
0.0
 11
302.8896672496
 21
301.5906751739
 31
0.0
  0
LINE
  5
2D1
330
1F
100
AcDbEntity
  8
0
  6
Continuous
 62
     7
370
    25
100
AcDbLine
 10
310.8896685609
 20
301.090675092
 30
0.0
 11
310.3896675476
 21
301.090675092
 31
0.0
  0
LINE
  5
2D2
330
1F
100
AcDbEntity
  8
0
  6
Continuous
 62
     7
370
    25
100
AcDbLine
 10
388.8896664449
 20
301.090675092
 30
0.0
 11
388.8896664449
 21
301.5906751739
 31
0.0
  0
LINE
  5
2D3
330
1F
100
AcDbEntity
  8
0
  6
Continuous
 62
     7
370
    25
100
AcDbLine
 10
407.8896676966
 20
301.090675092
 30
0.0
 11
407.8896676966
 21
301.5906751739
 31
0.0
  0
LINE
  5
2D4
330
1F
100
AcDbEntity
  8
0
  6
Continuous
 62
     7
370
    25
100
AcDbLine
 10
297.8896682927
 20
301.090675092
 30
0.0
 11
297.8896682927
 21
301.5906751739
 31
0.0
  0
LINE
  5
2D5
330
1F
100
AcDbEntity
  8
0
  6
Continuous
 62
     7
370
    25
100
AcDbLine
 10
435.3896712729
 20
301.5906751739
 30
0.0
 11
435.3896712729
 21
301.090675092
 31
0.0
  0
LINE
  5
2D6
330
1F
100
AcDbEntity
  8
0
  6
Continuous
 62
     7
370
    25
100
AcDbLine
 10
435.3896712729
 20
301.090675092
 30
0.0
 11
430.3896685907
 21
301.090675092
 31
0.0
  0
LINE
  5
2D7
330
1F
100
AcDbEntity
  8
0
  6
Continuous
 62
     7
370
    25
100
AcDbLine
 10
412.8896666535
 20
301.090675092
 30
0.0
 11
412.8896666535
 21
301.5906751739
 31
0.0
  0
LINE
  5
2D8
330
1F
100
AcDbEntity
  8
0
  6
Continuous
 62
     7
370
    25
100
AcDbLine
 10
430.3896685907
 20
301.090675092
 30
0.0
 11
416.3896700212
 21
301.090675092
 31
0.0
  0
LINE
  5
2D9
330
1F
100
AcDbEntity
  8
0
  6
Continuous
 62
     7
370
    25
100
AcDbLine
 10
289.8896669814
 20
301.5906751739
 30
0.0
 11
289.8896669814
 21
301.090675092
 31
0.0
  0
LINE
  5
2DA
330
1F
100
AcDbEntity
  8
0
  6
Continuous
 62
     7
370
    25
100
AcDbLine
 10
310.8896685609
 20
301.090675092
 30
0.0
 11
311.6783981987
 21
301.090675092
 31
0.0
  0
LINE
  5
2DB
330
1F
100
AcDbEntity
  8
0
  6
Continuous
 62
     7
370
    25
100
AcDbLine
 10
370.1250085452
 20
301.090675092
 30
0.0
 11
374.3896687248
 21
301.090675092
 31
0.0
  0
LINE
  5
2DC
330
1F
100
AcDbEntity
  8
0
  6
Continuous
 62
     7
370
    25
100
AcDbLine
 10
385.3896668025
 20
301.090675092
 30
0.0
 11
388.3896691569
 21
301.090675092
 31
0.0
  0
LINE
  5
2DD
330
1F
100
AcDbEntity
  8
0
  6
Continuous
 62
     7
370
    25
100
AcDbLine
 10
287.3896693655
 20
291.0906753155
 30
0.0
 11
310.3896675476
 21
291.0906753155
 31
0.0
  0
LINE
  5
2DE
330
1F
100
AcDbEntity
  8
0
  6
Continuous
 62
     7
370
    25
100
AcDbLine
 10
310.3896675476
 20
301.090675092
 30
0.0
 11
287.3896693655
 21
301.090675092
 31
0.0
  0
LINE
  5
2DF
330
1F
100
AcDbEntity
  8
0
  6
Continuous
 62
     7
370
    25
100
AcDbLine
 10
310.3896675476
 20
301.090675092
 30
0.0
 11
310.3896675476
 21
299.9406751829
 31
0.0
  0
LINE
  5
2E0
330
1F
100
AcDbEntity
  8
0
  6
Continuous
 62
     7
370
    25
100
AcDbLine
 10
310.3896675476
 20
299.9406751829
 30
0.0
 11
328.3896686354
 21
299.9406751829
 31
0.0
  0
LINE
  5
2E1
330
1F
100
AcDbEntity
  8
0
  6
Continuous
 62
     7
370
    25
100
AcDbLine
 10
328.3896686354
 20
299.9406751829
 30
0.0
 11
328.3896686354
 21
292.2406752246
 31
0.0
  0
LINE
  5
2E2
330
1F
100
AcDbEntity
  8
0
  6
Continuous
 62
     7
370
    25
100
AcDbLine
 10
328.3896686354
 20
292.2406752246
 30
0.0
 11
310.3896675476
 21
292.2406752246
 31
0.0
  0
LINE
  5
2E3
330
1F
100
AcDbEntity
  8
0
  6
Continuous
 62
     7
370
    25
100
AcDbLine
 10
310.3896675476
 20
292.2406752246
 30
0.0
 11
310.3896675476
 21
291.0906753155
 31
0.0
  0
LINE
  5
2E4
330
1F
100
AcDbEntity
  8
0
  6
Continuous
 62
     7
370
    25
100
AcDbLine
 10
287.3896693655
 20
301.090675092
 30
0.0
 11
287.3896693655
 21
291.0906753155
 31
0.0
  0
LINE
  5
2E5
330
1F
100
AcDbEntity
  8
0
  6
Continuous
 62
     7
370
    25
100
AcDbLine
 10
416.3896700212
 20
301.090675092
 30
0.0
 11
388.3896691569
 21
301.090675092
 31
0.0
  0
LINE
  5
2E6
330
1F
100
AcDbEntity
  8
0
  6
Continuous
 62
     7
370
    25
100
AcDbLine
 10
416.3896700212
 20
301.090675092
 30
0.0
 11
416.3896700212
 21
291.0906753155
 31
0.0
  0
LINE
  5
2E7
330
1F
100
AcDbEntity
  8
0
  6
Continuous
 62
     7
370
    25
100
AcDbLine
 10
388.3896691569
 20
291.0906753155
 30
0.0
 11
388.3896691569
 21
292.2406752246
 31
0.0
  0
LINE
  5
2E8
330
1F
100
AcDbEntity
  8
0
  6
Continuous
 62
     7
370
    25
100
AcDbLine
 10
388.3896691569
 20
292.2406752246
 30
0.0
 11
370.3896680691
 21
292.2406752246
 31
0.0
  0
LINE
  5
2E9
330
1F
100
AcDbEntity
  8
0
  6
Continuous
 62
     7
370
    25
100
AcDbLine
 10
370.3896680691
 20
292.2406752246
 30
0.0
 11
370.3896680691
 21
299.9406751829
 31
0.0
  0
LINE
  5
2EA
330
1F
100
AcDbEntity
  8
0
  6
Continuous
 62
     7
370
    25
100
AcDbLine
 10
370.3896680691
 20
299.9406751829
 30
0.0
 11
388.3896691569
 21
299.9406751829
 31
0.0
  0
LINE
  5
2EB
330
1F
100
AcDbEntity
  8
0
  6
Continuous
 62
     7
370
    25
100
AcDbLine
 10
388.3896691569
 20
299.9406751829
 30
0.0
 11
388.3896691569
 21
301.090675092
 31
0.0
  0
LINE
  5
2EC
330
1F
100
AcDbEntity
  8
0
  6
Continuous
 62
     7
370
    25
100
AcDbLine
 10
388.3896691569
 20
291.0906753155
 30
0.0
 11
416.3896700212
 21
291.0906753155
 31
0.0
  0
LINE
  5
2ED
330
1F
100
AcDbEntity
  8
0
  6
Continuous
 62
     8
370
    25
100
AcDbLine
 10
331.31030368
 20
288.0406749087
 30
0.0
 11
331.3338866302
 21
287.5906747418
 31
0.0
  0
LINE
  5
2EE
330
1F
100
AcDbEntity
  8
0
  6
Continuous
 62
     8
370
    25
100
AcDbLine
 10
387.5863624581
 20
290.5906752335
 30
0.0
 11
387.6404872009
 21
292.1406753945
 31
0.0
  0
LINE
  5
2EF
330
1F
100
AcDbEntity
  8
0
  6
Continuous
 62
     8
370
    25
100
AcDbLine
 10
368.9690342018
 20
304.0406756686
 30
0.0
 11
368.9402097681
 21
304.5906756657
 31
0.0
  0
LINE
  5
2F0
330
1F
100
AcDbEntity
  8
0
  6
Continuous
 62
     8
370
    25
100
AcDbLine
 10
312.6964678832
 20
301.5906751739
 30
0.0
 11
312.6388488182
 21
299.9406751829
 31
0.0
  0
LINE
  5
2F1
330
1F
100
AcDbEntity
  8
0
  6
Continuous
 62
     8
370
    25
100
AcDbLine
 10
294.8896696636
 20
290.5906752335
 30
0.0
 11
294.8896696636
 21
291.0906753155
 31
0.0
  0
LINE
  5
2F2
330
1F
100
AcDbEntity
  8
0
  6
Continuous
 62
     8
370
    25
100
AcDbLine
 10
430.3896685907
 20
290.5906752335
 30
0.0
 11
430.3896685907
 21
291.0906753155
 31
0.0
  0
LINE
  5
2F3
330
1F
100
AcDbEntity
  8
0
  6
Continuous
 62
     8
370
    25
100
AcDbLine
 10
294.8896696636
 20
301.5906751739
 30
0.0
 11
294.8896696636
 21
301.090675092
 31
0.0
  0
LINE
  5
2F4
330
1F
100
AcDbEntity
  8
0
  6
Continuous
 62
     8
370
    25
100
AcDbLine
 10
430.3896685907
 20
301.5906751739
 30
0.0
 11
430.3896685907
 21
301.090675092
 31
0.0
  0
CIRCLE
  5
2F5
330
1F
100
AcDbEntity
  8
0
  6
Continuous
 62
     7
100
AcDbCircle
 10
362.6396682189
 20
128.9630616997
 30
0.0
 40
1.40000000002733
  0
CIRCLE
  5
2F6
330
1F
100
AcDbEntity
  8
0
  6
Continuous
 62
     7
100
AcDbCircle
 10
362.6396682189
 20
111.9630616997
 30
0.0
 40
1.400000000027256
  0
CIRCLE
  5
2F7
330
1F
100
AcDbEntity
  8
0
  6
Continuous
 62
     7
100
AcDbCircle
 10
410.3896682189
 20
128.9630616997
 30
0.0
 40
1.400000000027313
  0
CIRCLE
  5
2F8
330
1F
100
AcDbEntity
  8
0
  6
Continuous
 62
     7
100
AcDbCircle
 10
410.3896682189
 20
111.9630616997
 30
0.0
 40
1.400000000027276
  0
ELLIPSE
  5
2F9
330
1F
100
AcDbEntity
  8
0
  6
Continuous
 62
     7
370
    25
100
AcDbEllipse
 10
435.9396682189
 20
132.7630616997
 30
0.0
 11
0.0
 21
1.200000000000017
 31
0.0
210
0.0
220
0.0
230
1.0
 40
0.0016750844
 41
4.71238898038469
 42
6.283185307179586
  0
LINE
  5
2FA
330
1F
100
AcDbEntity
  8
0
  6
Continuous
 62
     7
370
    25
100
AcDbLine
 10
289.3376609155
 20
132.7630612943
 30
0.0
 11
435.9416773387
 21
132.7630612943
 31
0.0
  0
ELLIPSE
  5
2FB
330
1F
100
AcDbEntity
  8
0
  6
Continuous
 62
     7
370
    25
100
AcDbEllipse
 10
289.3396682189
 20
132.7630616997
 30
0.0
 11
0.0
 21
1.200000000000017
 31
0.0
210
0.0
220
0.0
230
1.0
 40
0.0016750844
 41
0.0
 42
1.570796326794897
  0
LINE
  5
2FC
330
1F
100
AcDbEntity
  8
0
  6
Continuous
 62
     7
370
    25
100
AcDbLine
 10
435.939665682
 20
133.9630620498
 30
0.0
 11
289.3396651217
 21
133.9630620498
 31
0.0
  0
LINE
  5
2FD
330
1F
100
AcDbEntity
  8
0
  6
Continuous
 62
     7
370
    25
100
AcDbLine
 10
435.9416773387
 20
132.7630612943
 30
0.0
 11
435.9416773387
 21
125.9630616698
 31
0.0
  0
LINE
  5
2FE
330
1F
100
AcDbEntity
  8
0
  6
Continuous
 62
     7
370
    25
100
AcDbLine
 10
435.9416773387
 20
125.9630616698
 30
0.0
 11
289.3376609155
 21
125.9630616698
 31
0.0
  0
LINE
  5
2FF
330
1F
100
AcDbEntity
  8
0
  6
Continuous
 62
     7
370
    25
100
AcDbLine
 10
289.3376609155
 20
125.9630616698
 30
0.0
 11
289.3376609155
 21
132.7630612943
 31
0.0
  0
CIRCLE
  5
300
330
1F
100
AcDbEntity
  8
0
  6
Continuous
 62
     7
370
    25
100
AcDbCircle
 10
362.6396682189
 20
128.9630616997
 30
0.0
 40
1.5
  0
ARC
  5
301
330
1F
100
AcDbEntity
  8
0
  6
Continuous
 62
     7
370
    25
100
AcDbCircle
 10
435.9396682189
 20
132.7630616997
 30
0.0
 40
0.2000000000000171
100
AcDbArc
 50
0.0
 51
90.0
  0
ARC
  5
302
330
1F
100
AcDbEntity
  8
0
  6
Continuous
 62
     7
370
    25
100
AcDbCircle
 10
435.9396682189
 20
132.7630616997
 30
0.0
 40
1.200000000000017
100
AcDbArc
 50
0.0
 51
90.0
  0
LINE
  5
303
330
1F
100
AcDbEntity
  8
0
  6
Continuous
 62
     7
370
    25
100
AcDbLine
 10
436.1396690675
 20
132.7630612943
 30
0.0
 11
437.1396710941
 21
132.7630612943
 31
0.0
  0
LINE
  5
304
330
1F
100
AcDbEntity
  8
0
  6
Continuous
 62
     7
370
    25
100
AcDbLine
 10
436.1396690675
 20
125.9630616698
 30
0.0
 11
436.1396690675
 21
132.7630612943
 31
0.0
  0
LINE
  5
305
330
1F
100
AcDbEntity
  8
0
  6
Continuous
 62
     7
370
    25
100
AcDbLine
 10
437.1396710941
 20
125.9630616698
 30
0.0
 11
437.1396710941
 21
132.7630612943
 31
0.0
  0
LINE
  5
306
330
1F
100
AcDbEntity
  8
0
  6
Continuous
 62
     7
370
    25
100
AcDbLine
 10
436.1396690675
 20
125.9630616698
 30
0.0
 11
437.1396710941
 21
125.9630616698
 31
0.0
  0
ARC
  5
307
330
1F
100
AcDbEntity
  8
0
  6
Continuous
 62
     7
370
    25
100
AcDbCircle
 10
289.3396682189
 20
132.7630616997
 30
0.0
 40
0.2000000000000455
100
AcDbArc
 50
90.0
 51
180.0
  0
LINE
  5
308
330
1F
100
AcDbEntity
  8
0
  6
Continuous
 62
     7
370
    25
100
AcDbLine
 10
289.1396691867
 20
132.7630612943
 30
0.0
 11
288.1396671602
 21
132.7630612943
 31
0.0
  0
ARC
  5
309
330
1F
100
AcDbEntity
  8
0
  6
Continuous
 62
     7
370
    25
100
AcDbCircle
 10
289.3396682189
 20
132.7630616997
 30
0.0
 40
1.200000000000045
100
AcDbArc
 50
90.0
 51
180.0
  0
LINE
  5
30A
330
1F
100
AcDbEntity
  8
0
  6
Continuous
 62
     7
370
    25
100
AcDbLine
 10
289.1396691867
 20
125.9630616698
 30
0.0
 11
288.1396671602
 21
125.9630616698
 31
0.0
  0
LINE
  5
30B
330
1F
100
AcDbEntity
  8
0
  6
Continuous
 62
     7
370
    25
100
AcDbLine
 10
288.1396671602
 20
132.7630612943
 30
0.0
 11
288.1396671602
 21
125.9630616698
 31
0.0
  0
LINE
  5
30C
330
1F
100
AcDbEntity
  8
0
  6
Continuous
 62
     7
370
    25
100
AcDbLine
 10
289.1396691867
 20
132.7630612943
 30
0.0
 11
289.1396691867
 21
125.9630616698
 31
0.0
  0
LINE
  5
30D
330
1F
100
AcDbEntity
  8
0
  6
Continuous
 62
     7
370
    25
100
AcDbLine
 10
290.8896690079
 20
125.4630615879
 30
0.0
 11
290.8896690079
 21
125.4130616728
 31
0.0
  0
LINE
  5
30E
330
1F
100
AcDbEntity
  8
0
  6
Continuous
 62
     7
370
    25
100
AcDbLine
 10
294.8896696636
 20
125.4630615879
 30
0.0
 11
294.8896696636
 21
125.4130616728
 31
0.0
  0
LINE
  5
30F
330
1F
100
AcDbEntity
  8
0
  6
Continuous
 62
     7
370
    25
100
AcDbLine
 10
294.8896696636
 20
125.4130616728
 30
0.0
 11
290.8896690079
 21
125.4130616728
 31
0.0
  0
LINE
  5
310
330
1F
100
AcDbEntity
  8
0
  6
Continuous
 62
     7
370
    25
100
AcDbLine
 10
429.8896675774
 20
125.4630615879
 30
0.0
 11
429.8896675774
 21
125.4130616728
 31
0.0
  0
LINE
  5
311
330
1F
100
AcDbEntity
  8
0
  6
Continuous
 62
     7
370
    25
100
AcDbLine
 10
429.8896675774
 20
125.4130616728
 30
0.0
 11
294.8896696636
 21
125.4130616728
 31
0.0
  0
LINE
  5
312
330
1F
100
AcDbEntity
  8
0
  6
Continuous
 62
     7
370
    25
100
AcDbLine
 10
365.1396686056
 20
125.4630615879
 30
0.0
 11
360.139667786
 21
125.4630615879
 31
0.0
  0
LINE
  5
313
330
1F
100
AcDbEntity
  8
0
  6
Continuous
 62
     7
370
    25
100
AcDbLine
 10
433.8896682331
 20
125.4630615879
 30
0.0
 11
433.8896682331
 21
125.4130616728
 31
0.0
  0
LINE
  5
314
330
1F
100
AcDbEntity
  8
0
  6
Continuous
 62
     7
370
    25
100
AcDbLine
 10
433.8896682331
 20
125.4130616728
 30
0.0
 11
429.8896675774
 21
125.4130616728
 31
0.0
  0
LINE
  5
315
330
1F
100
AcDbEntity
  8
0
  6
Continuous
 62
     7
370
    25
100
AcDbLine
 10
294.8896696636
 20
125.4130616728
 30
0.0
 11
294.8896696636
 21
125.0630618017
 31
0.0
  0
LINE
  5
316
330
1F
100
AcDbEntity
  8
0
  6
Continuous
 62
     7
370
    25
100
AcDbLine
 10
429.8896675774
 20
125.4130616728
 30
0.0
 11
429.8896675774
 21
125.0630618017
 31
0.0
  0
LINE
  5
317
330
1F
100
AcDbEntity
  8
0
  6
Continuous
 62
     7
370
    25
100
AcDbLine
 10
429.8896675774
 20
125.0630618017
 30
0.0
 11
294.8896696636
 21
125.0630618017
 31
0.0
  0
LINE
  5
318
330
1F
100
AcDbEntity
  8
0
  6
Continuous
 62
     7
370
    25
100
AcDbLine
 10
290.8896690079
 20
125.4130616728
 30
0.0
 11
290.8896690079
 21
125.0630618017
 31
0.0
  0
LINE
  5
319
330
1F
100
AcDbEntity
  8
0
  6
Continuous
 62
     7
370
    25
100
AcDbLine
 10
294.8896696636
 20
125.0630618017
 30
0.0
 11
290.8896690079
 21
125.0630618017
 31
0.0
  0
LINE
  5
31A
330
1F
100
AcDbEntity
  8
0
  6
Continuous
 62
     7
370
    25
100
AcDbLine
 10
433.8896682331
 20
125.4130616728
 30
0.0
 11
433.8896682331
 21
125.0630618017
 31
0.0
  0
LINE
  5
31B
330
1F
100
AcDbEntity
  8
0
  6
Continuous
 62
     7
370
    25
100
AcDbLine
 10
433.8896682331
 20
125.0630618017
 30
0.0
 11
429.8896675774
 21
125.0630618017
 31
0.0
  0
LINE
  5
31C
330
1F
100
AcDbEntity
  8
0
  6
Continuous
 62
     7
370
    25
100
AcDbLine
 10
289.3376609155
 20
108.163062105
 30
0.0
 11
435.9416773387
 21
108.163062105
 31
0.0
  0
CIRCLE
  5
31D
330
1F
100
AcDbEntity
  8
0
  6
Continuous
 62
     7
370
    25
100
AcDbCircle
 10
362.6396682189
 20
111.9630616997
 30
0.0
 40
1.5
  0
LINE
  5
31E
330
1F
100
AcDbEntity
  8
0
  6
Continuous
 62
     7
370
    25
100
AcDbLine
 10
435.9416773387
 20
108.163062105
 30
0.0
 11
435.9416773387
 21
114.9630617295
 31
0.0
  0
LINE
  5
31F
330
1F
100
AcDbEntity
  8
0
  6
Continuous
 62
     7
370
    25
100
AcDbLine
 10
289.3376609155
 20
114.9630617295
 30
0.0
 11
289.3376609155
 21
108.163062105
 31
0.0
  0
LINE
  5
320
330
1F
100
AcDbEntity
  8
0
  6
Continuous
 62
     7
370
    25
100
AcDbLine
 10
435.9416773387
 20
114.9630617295
 30
0.0
 11
289.3376609155
 21
114.9630617295
 31
0.0
  0
ELLIPSE
  5
321
330
1F
100
AcDbEntity
  8
0
  6
Continuous
 62
     7
370
    25
100
AcDbEllipse
 10
289.3396682189
 20
108.1630616997
 30
0.0
 11
0.0
 21
1.200000000000017
 31
0.0
210
0.0
220
0.0
230
1.0
 40
0.0016750844
 41
1.570796326794897
 42
3.14159265358972
  0
ELLIPSE
  5
322
330
1F
100
AcDbEntity
  8
0
  6
Continuous
 62
     7
370
    25
100
AcDbEllipse
 10
435.9396682189
 20
108.1630616997
 30
0.0
 11
0.0
 21
1.200000000000017
 31
0.0
210
0.0
220
0.0
230
1.0
 40
0.0016750844
 41
3.14159265358972
 42
4.71238898038469
  0
LINE
  5
323
330
1F
100
AcDbEntity
  8
0
  6
Continuous
 62
     7
370
    25
100
AcDbLine
 10
435.939665682
 20
106.9630613495
 30
0.0
 11
289.3396651217
 21
106.9630613495
 31
0.0
  0
LINE
  5
324
330
1F
100
AcDbEntity
  8
0
  6
Continuous
 62
     7
370
    25
100
AcDbLine
 10
437.1396710941
 20
114.9630617295
 30
0.0
 11
437.1396710941
 21
108.163062105
 31
0.0
  0
LINE
  5
325
330
1F
100
AcDbEntity
  8
0
  6
Continuous
 62
     7
370
    25
100
AcDbLine
 10
436.1396690675
 20
108.163062105
 30
0.0
 11
437.1396710941
 21
108.163062105
 31
0.0
  0
LINE
  5
326
330
1F
100
AcDbEntity
  8
0
  6
Continuous
 62
     7
370
    25
100
AcDbLine
 10
436.1396690675
 20
114.9630617295
 30
0.0
 11
437.1396710941
 21
114.9630617295
 31
0.0
  0
LINE
  5
327
330
1F
100
AcDbEntity
  8
0
  6
Continuous
 62
     7
370
    25
100
AcDbLine
 10
436.1396690675
 20
114.9630617295
 30
0.0
 11
436.1396690675
 21
108.163062105
 31
0.0
  0
LINE
  5
328
330
1F
100
AcDbEntity
  8
0
  6
Continuous
 62
     7
370
    25
100
AcDbLine
 10
288.1396671602
 20
108.163062105
 30
0.0
 11
288.1396671602
 21
114.9630617295
 31
0.0
  0
LINE
  5
329
330
1F
100
AcDbEntity
  8
0
  6
Continuous
 62
     7
370
    25
100
AcDbLine
 10
289.1396691867
 20
108.163062105
 30
0.0
 11
289.1396691867
 21
114.9630617295
 31
0.0
  0
LINE
  5
32A
330
1F
100
AcDbEntity
  8
0
  6
Continuous
 62
     7
370
    25
100
AcDbLine
 10
289.1396691867
 20
108.163062105
 30
0.0
 11
288.1396671602
 21
108.163062105
 31
0.0
  0
LINE
  5
32B
330
1F
100
AcDbEntity
  8
0
  6
Continuous
 62
     7
370
    25
100
AcDbLine
 10
289.1396691867
 20
114.9630617295
 30
0.0
 11
288.1396671602
 21
114.9630617295
 31
0.0
  0
ARC
  5
32C
330
1F
100
AcDbEntity
  8
0
  6
Continuous
 62
     7
370
    25
100
AcDbCircle
 10
289.3396682189
 20
108.1630616997
 30
0.0
 40
1.200000000000045
100
AcDbArc
 50
180.0
 51
270.0
  0
ARC
  5
32D
330
1F
100
AcDbEntity
  8
0
  6
Continuous
 62
     7
370
    25
100
AcDbCircle
 10
289.3396682189
 20
108.1630616997
 30
0.0
 40
0.2000000000000455
100
AcDbArc
 50
180.0
 51
270.0
  0
ARC
  5
32E
330
1F
100
AcDbEntity
  8
0
  6
Continuous
 62
     7
370
    25
100
AcDbCircle
 10
435.9396682189
 20
108.1630616997
 30
0.0
 40
0.1999999999999886
100
AcDbArc
 50
270.0
 51
0.0
  0
ARC
  5
32F
330
1F
100
AcDbEntity
  8
0
  6
Continuous
 62
     7
370
    25
100
AcDbCircle
 10
435.9396682189
 20
108.1630616997
 30
0.0
 40
1.199999999999989
100
AcDbArc
 50
270.0
 51
0.0
  0
LINE
  5
330
330
1F
100
AcDbEntity
  8
0
  6
Continuous
 62
     7
370
    25
100
AcDbLine
 10
287.3896693655
 20
150.4630610291
 30
0.0
 11
284.3896707365
 21
150.4630610291
 31
0.0
  0
LINE
  5
331
330
1F
100
AcDbEntity
  8
0
  6
Continuous
 62
     7
370
    25
100
AcDbLine
 10
287.3896693655
 20
150.4630610291
 30
0.0
 11
287.3896693655
 21
126.9630618338
 31
0.0
  0
LINE
  5
332
330
1F
100
AcDbEntity
  8
0
  6
Continuous
 62
     7
370
    25
100
AcDbLine
 10
284.3896707365
 20
126.9630618338
 30
0.0
 11
287.3896693655
 21
126.9630618338
 31
0.0
  0
LINE
  5
333
330
1F
100
AcDbEntity
  8
0
  6
Continuous
 62
     7
370
    25
100
AcDbLine
 10
284.3896707365
 20
150.4630610291
 30
0.0
 11
284.3896707365
 21
126.9630618338
 31
0.0
  0
LINE
  5
334
330
1F
100
AcDbEntity
  8
0
  6
Continuous
 62
     7
370
    25
100
AcDbLine
 10
287.3896693655
 20
90.4630623702
 30
0.0
 11
284.3896707365
 21
90.4630623702
 31
0.0
  0
LINE
  5
335
330
1F
100
AcDbEntity
  8
0
  6
Continuous
 62
     7
370
    25
100
AcDbLine
 10
284.3896707365
 20
113.9630615655
 30
0.0
 11
287.3896693655
 21
113.9630615655
 31
0.0
  0
LINE
  5
336
330
1F
100
AcDbEntity
  8
0
  6
Continuous
 62
     7
370
    25
100
AcDbLine
 10
284.3896707365
 20
113.9630615655
 30
0.0
 11
284.3896707365
 21
90.4630623702
 31
0.0
  0
LINE
  5
337
330
1F
100
AcDbEntity
  8
0
  6
Continuous
 62
     7
370
    25
100
AcDbLine
 10
287.3896693655
 20
113.9630615655
 30
0.0
 11
287.3896693655
 21
90.4630623702
 31
0.0
  0
LINE
  5
338
330
1F
100
AcDbEntity
  8
0
  6
Continuous
 62
     7
370
    25
100
AcDbLine
 10
284.3896707365
 20
113.9630615655
 30
0.0
 11
284.3896707365
 21
126.9630618338
 31
0.0
  0
LINE
  5
339
330
1F
100
AcDbEntity
  8
0
  6
Continuous
 62
     7
370
    25
100
AcDbLine
 10
287.3896693655
 20
113.9630615655
 30
0.0
 11
287.3896693655
 21
126.9630618338
 31
0.0
  0
CIRCLE
  5
33A
330
1F
100
AcDbEntity
  8
0
  6
Continuous
 62
     7
370
    25
100
AcDbCircle
 10
362.6396682189
 20
111.9630616997
 30
0.0
 40
1.399999999999998
  0
LINE
  5
33B
330
1F
100
AcDbEntity
  8
0
  6
Continuous
 62
     7
370
    25
100
AcDbLine
 10
362.0371900343
 20
111.3249767516
 30
0.0
 11
362.8910275021
 21
111.1222576294
 31
0.0
  0
LINE
  5
33C
330
1F
100
AcDbEntity
  8
0
  6
Continuous
 62
     7
370
    25
100
AcDbLine
 10
362.8910275021
 20
111.1222576294
 30
0.0
 11
363.4935056635
 21
111.7603430469
 31
0.0
  0
LINE
  5
33D
330
1F
100
AcDbEntity
  8
0
  6
Continuous
 62
     7
370
    25
100
AcDbLine
 10
363.4935056635
 20
111.7603430469
 30
0.0
 11
363.2421463573
 21
112.6011466552
 31
0.0
  0
LINE
  5
33E
330
1F
100
AcDbEntity
  8
0
  6
Continuous
 62
     7
370
    25
100
AcDbLine
 10
363.2421463573
 20
112.6011466552
 30
0.0
 11
362.3883098209
 21
112.803866243
 31
0.0
  0
LINE
  5
33F
330
1F
100
AcDbEntity
  8
0
  6
Continuous
 62
     7
370
    25
100
AcDbLine
 10
362.3883098209
 20
112.803866243
 30
0.0
 11
361.7858307281
 21
112.1657803599
 31
0.0
  0
LINE
  5
340
330
1F
100
AcDbEntity
  8
0
  6
Continuous
 62
     7
370
    25
100
AcDbLine
 10
361.7858307281
 20
112.1657803599
 30
0.0
 11
362.0371900343
 21
111.3249767516
 31
0.0
  0
CIRCLE
  5
341
330
1F
100
AcDbEntity
  8
0
  6
Continuous
 62
     7
370
    25
100
AcDbCircle
 10
362.6396682189
 20
128.9630616997
 30
0.0
 40
1.399999999999969
  0
LINE
  5
342
330
1F
100
AcDbEntity
  8
0
  6
Continuous
 62
     7
370
    25
100
AcDbLine
 10
363.5096669042
 20
128.8480158839
 30
0.0
 11
363.174300439
 21
129.658979917
 31
0.0
  0
LINE
  5
343
330
1F
100
AcDbEntity
  8
0
  6
Continuous
 62
     7
370
    25
100
AcDbLine
 10
361.7696694874
 20
129.0781075079
 30
0.0
 11
362.1050359526
 21
128.2671439406
 31
0.0
  0
LINE
  5
344
330
1F
100
AcDbEntity
  8
0
  6
Continuous
 62
     7
370
    25
100
AcDbLine
 10
362.1050359526
 20
128.2671439406
 30
0.0
 11
362.975034661
 21
128.1520976629
 31
0.0
  0
LINE
  5
345
330
1F
100
AcDbEntity
  8
0
  6
Continuous
 62
     7
370
    25
100
AcDbLine
 10
362.975034661
 20
128.1520976629
 30
0.0
 11
363.5096669042
 21
128.8480158839
 31
0.0
  0
LINE
  5
346
330
1F
100
AcDbEntity
  8
0
  6
Continuous
 62
     7
370
    25
100
AcDbLine
 10
363.174300439
 20
129.658979917
 30
0.0
 11
362.3043017307
 21
129.7740261946
 31
0.0
  0
LINE
  5
347
330
1F
100
AcDbEntity
  8
0
  6
Continuous
 62
     7
370
    25
100
AcDbLine
 10
362.3043017307
 20
129.7740261946
 30
0.0
 11
361.7696694874
 21
129.0781075079
 31
0.0
  0
LINE
  5
348
330
1F
100
AcDbEntity
  8
0
  6
Continuous
 62
     7
370
    25
100
AcDbLine
 10
360.139667786
 20
125.4630615879
 30
0.0
 11
294.8896696636
 21
125.4630615879
 31
0.0
  0
LINE
  5
349
330
1F
100
AcDbEntity
  8
0
  6
Continuous
 62
     7
370
    25
100
AcDbLine
 10
360.139667786
 20
125.4630615879
 30
0.0
 11
360.139667786
 21
125.9630616698
 31
0.0
  0
LINE
  5
34A
330
1F
100
AcDbEntity
  8
0
  6
Continuous
 62
     7
370
    25
100
AcDbLine
 10
430.3896685907
 20
125.4630615879
 30
0.0
 11
365.1396686056
 21
125.4630615879
 31
0.0
  0
LINE
  5
34B
330
1F
100
AcDbEntity
  8
0
  6
Continuous
 62
     7
370
    25
100
AcDbLine
 10
365.1396686056
 20
125.4630615879
 30
0.0
 11
365.1396686056
 21
125.9630616698
 31
0.0
  0
LINE
  5
34C
330
1F
100
AcDbEntity
  8
0
  6
Continuous
 62
     7
370
    25
100
AcDbLine
 10
435.3896712729
 20
125.9630616698
 30
0.0
 11
435.3896712729
 21
125.4630615879
 31
0.0
  0
LINE
  5
34D
330
1F
100
AcDbEntity
  8
0
  6
Continuous
 62
     7
370
    25
100
AcDbLine
 10
435.3896712729
 20
125.4630615879
 30
0.0
 11
430.3896685907
 21
125.4630615879
 31
0.0
  0
LINE
  5
34E
330
1F
100
AcDbEntity
  8
0
  6
Continuous
 62
     7
370
    25
100
AcDbLine
 10
289.8896669814
 20
125.9630616698
 30
0.0
 11
289.8896669814
 21
125.4630615879
 31
0.0
  0
LINE
  5
34F
330
1F
100
AcDbEntity
  8
0
  6
Continuous
 62
     7
370
    25
100
AcDbLine
 10
294.8896696636
 20
125.4630615879
 30
0.0
 11
289.8896669814
 21
125.4630615879
 31
0.0
  0
LINE
  5
350
330
1F
100
AcDbEntity
  8
0
  6
Continuous
 62
     7
370
    25
100
AcDbLine
 10
294.8896696636
 20
115.4630618114
 30
0.0
 11
294.8896696636
 21
115.8130616825
 31
0.0
  0
LINE
  5
351
330
1F
100
AcDbEntity
  8
0
  6
Continuous
 62
     7
370
    25
100
AcDbLine
 10
290.8896690079
 20
115.4630618114
 30
0.0
 11
290.8896690079
 21
115.8130616825
 31
0.0
  0
LINE
  5
352
330
1F
100
AcDbEntity
  8
0
  6
Continuous
 62
     7
370
    25
100
AcDbLine
 10
294.8896696636
 20
115.8130616825
 30
0.0
 11
290.8896690079
 21
115.8130616825
 31
0.0
  0
LINE
  5
353
330
1F
100
AcDbEntity
  8
0
  6
Continuous
 62
     7
370
    25
100
AcDbLine
 10
429.8896675774
 20
115.4630618114
 30
0.0
 11
429.8896675774
 21
115.8130616825
 31
0.0
  0
LINE
  5
354
330
1F
100
AcDbEntity
  8
0
  6
Continuous
 62
     7
370
    25
100
AcDbLine
 10
365.1396686056
 20
115.4630618114
 30
0.0
 11
360.139667786
 21
115.4630618114
 31
0.0
  0
LINE
  5
355
330
1F
100
AcDbEntity
  8
0
  6
Continuous
 62
     7
370
    25
100
AcDbLine
 10
429.8896675774
 20
115.8130616825
 30
0.0
 11
294.8896696636
 21
115.8130616825
 31
0.0
  0
LINE
  5
356
330
1F
100
AcDbEntity
  8
0
  6
Continuous
 62
     7
370
    25
100
AcDbLine
 10
433.8896682331
 20
115.4630618114
 30
0.0
 11
433.8896682331
 21
115.8130616825
 31
0.0
  0
LINE
  5
357
330
1F
100
AcDbEntity
  8
0
  6
Continuous
 62
     7
370
    25
100
AcDbLine
 10
433.8896682331
 20
115.8130616825
 30
0.0
 11
429.8896675774
 21
115.8130616825
 31
0.0
  0
LINE
  5
358
330
1F
100
AcDbEntity
  8
0
  6
Continuous
 62
     7
370
    25
100
AcDbLine
 10
365.1396686056
 20
115.4130618963
 30
0.0
 11
360.139667786
 21
115.4130618963
 31
0.0
  0
LINE
  5
359
330
1F
100
AcDbEntity
  8
0
  6
Continuous
 62
     7
370
    25
100
AcDbLine
 10
365.1396686056
 20
115.4630618114
 30
0.0
 11
365.1396686056
 21
114.9630617295
 31
0.0
  0
LINE
  5
35A
330
1F
100
AcDbEntity
  8
0
  6
Continuous
 62
     7
370
    25
100
AcDbLine
 10
365.1396686056
 20
115.4630618114
 30
0.0
 11
430.3896685907
 21
115.4630618114
 31
0.0
  0
LINE
  5
35B
330
1F
100
AcDbEntity
  8
0
  6
Continuous
 62
     7
370
    25
100
AcDbLine
 10
435.3896712729
 20
114.9630617295
 30
0.0
 11
435.3896712729
 21
115.4630618114
 31
0.0
  0
LINE
  5
35C
330
1F
100
AcDbEntity
  8
0
  6
Continuous
 62
     7
370
    25
100
AcDbLine
 10
430.3896685907
 20
115.4630618114
 30
0.0
 11
435.3896712729
 21
115.4630618114
 31
0.0
  0
LINE
  5
35D
330
1F
100
AcDbEntity
  8
0
  6
Continuous
 62
     7
370
    25
100
AcDbLine
 10
360.139667786
 20
115.4630618114
 30
0.0
 11
360.139667786
 21
114.9630617295
 31
0.0
  0
LINE
  5
35E
330
1F
100
AcDbEntity
  8
0
  6
Continuous
 62
     7
370
    25
100
AcDbLine
 10
294.8896696636
 20
115.4630618114
 30
0.0
 11
360.139667786
 21
115.4630618114
 31
0.0
  0
LINE
  5
35F
330
1F
100
AcDbEntity
  8
0
  6
Continuous
 62
     7
370
    25
100
AcDbLine
 10
289.8896669814
 20
114.9630617295
 30
0.0
 11
289.8896669814
 21
115.4630618114
 31
0.0
  0
LINE
  5
360
330
1F
100
AcDbEntity
  8
0
  6
Continuous
 62
     7
370
    25
100
AcDbLine
 10
289.8896669814
 20
115.4630618114
 30
0.0
 11
294.8896696636
 21
115.4630618114
 31
0.0
  0
LINE
  5
361
330
1F
100
AcDbEntity
  8
0
  6
Continuous
 62
     7
370
    25
100
AcDbLine
 10
287.3896693655
 20
115.4630618114
 30
0.0
 11
287.3896693655
 21
125.4630615879
 31
0.0
  0
LINE
  5
362
330
1F
100
AcDbEntity
  8
0
  6
Continuous
 62
     7
370
    25
100
AcDbLine
 10
287.3896693655
 20
125.4630615879
 30
0.0
 11
289.8896669814
 21
125.4630615879
 31
0.0
  0
LINE
  5
363
330
1F
100
AcDbEntity
  8
0
  6
Continuous
 62
     7
370
    25
100
AcDbLine
 10
287.3896693655
 20
115.4630618114
 30
0.0
 11
289.8896669814
 21
115.4630618114
 31
0.0
  0
LINE
  5
364
330
1F
100
AcDbEntity
  8
0
  6
Continuous
 62
     7
370
    25
100
AcDbLine
 10
416.3896700212
 20
125.0630618017
 30
0.0
 11
416.3896700212
 21
115.8130616825
 31
0.0
  0
LINE
  5
365
330
1F
100
AcDbEntity
  8
0
  6
Continuous
 62
     8
370
    25
100
AcDbLine
 10
294.8896696636
 20
125.9630616698
 30
0.0
 11
294.8896696636
 21
125.4630615879
 31
0.0
  0
LINE
  5
366
330
1F
100
AcDbEntity
  8
0
  6
Continuous
 62
     8
370
    25
100
AcDbLine
 10
430.3896685907
 20
125.9630616698
 30
0.0
 11
430.3896685907
 21
125.4630615879
 31
0.0
  0
LINE
  5
367
330
1F
100
AcDbEntity
  8
0
  6
Continuous
 62
     8
370
    25
100
AcDbLine
 10
430.3896685907
 20
114.9630617295
 30
0.0
 11
430.3896685907
 21
115.4630618114
 31
0.0
  0
LINE
  5
368
330
1F
100
AcDbEntity
  8
0
  6
Continuous
 62
     8
370
    25
100
AcDbLine
 10
294.8896696636
 20
114.9630617295
 30
0.0
 11
294.8896696636
 21
115.4630618114
 31
0.0
  0
LINE
  5
369
330
1F
100
AcDbEntity
  8
0
  6
Continuous
 62
     8
370
    25
100
AcDbLine
 10
411.389667339
 20
115.8130616825
 30
0.0
 11
411.389667339
 21
125.0630618017
 31
0.0
  0
LWPOLYLINE
  5
36A
330
1F
100
AcDbEntity
  8
0
  6
Continuous
 62
     7
100
AcDbPolyline
 90
       17
 70
   128
 43
0.0
 10
510.928784922
 20
367.5014364231
 10
510.8219084107
 20
367.1921860069
 10
510.9281691733
 20
366.8828648845
 10
511.2313899717
 20
366.6205643928
 10
511.6854081883
 20
366.4452174038
 10
512.2211036651
 20
366.3835189071
 10
512.756921622
 20
366.4448619396
 10
513.2112886322
 20
366.6199075806
 10
513.5150314372
 20
366.8820067181
 10
513.6219079485
 20
367.1912571343
 10
513.5156471859
 20
367.5005782567
 10
513.2124263875
 20
367.7628787485
 10
512.7584081709
 20
367.9382257375
 10
512.2227126941
 20
367.9999242341
 10
511.6868947372
 20
367.9385812016
 10
511.232527727
 20
367.7635355606
 10
510.928784922
 20
367.5014364231
  0
LWPOLYLINE
  5
36B
330
1F
100
AcDbEntity
  8
0
  6
Continuous
 62
     7
100
AcDbPolyline
 90
       17
 70
   128
 43
0.0
 10
501.3929461624
 20
361.2564029318
 10
501.0211419132
 20
361.4874289972
 10
500.5244926353
 20
361.6187308346
 10
499.9786086793
 20
361.6303189295
 10
499.466595929
 20
361.5204290996
 10
499.0664036842
 20
361.3057910752
 10
498.8389575864
 20
361.0190815498
 10
498.8188842423
 20
360.7039494498
 10
499.0092396364
 20
360.4083707806
 10
499.3810438857
 20
360.1773447152
 10
499.8776931635
 20
360.0460428778
 10
500.4235771195
 20
360.0344547829
 10
500.9355898699
 20
360.1443446129
 10
501.3357821147
 20
360.3589826373
 10
501.5632282124
 20
360.6456921626
 10
501.5833015566
 20
360.9608242626
 10
501.3929461624
 20
361.2564029318
  0
LWPOLYLINE
  5
36C
330
1F
100
AcDbEntity
  8
0
  6
Continuous
 62
     7
100
AcDbPolyline
 90
       17
 70
   128
 43
0.0
 10
545.7762454379
 20
318.6461355989
 10
545.2625370339
 20
318.7533556737
 10
544.8590084314
 20
318.965901767
 10
544.6270932021
 20
319.251415663
 10
544.6020983373
 20
319.5664304591
 10
544.7878290786
 20
319.8629880083
 10
545.1560096043
 20
320.095940112
 10
545.650587767
 20
320.2298219241
 10
546.1962685247
 20
320.2442511524
 10
546.7099769286
 20
320.1370310777
 10
547.1135055311
 20
319.9244849844
 10
547.3454207605
 20
319.6389710884
 10
547.3704156252
 20
319.3239562923
 10
547.1846848839
 20
319.0273987431
 10
546.8165043582
 20
318.7944466394
 10
546.3219261955
 20
318.6605648273
 10
545.7762454379
 20
318.6461355989
  0
LWPOLYLINE
  5
36D
330
1F
100
AcDbEntity
  8
0
  6
Continuous
 62
     7
100
AcDbPolyline
 90
       17
 70
   128
 43
0.0
 10
532.6662568371
 20
312.8634485448
 10
532.9647781967
 20
313.1275393636
 10
533.4156415037
 20
313.3055785918
 10
533.9502069069
 20
313.3704613709
 10
534.4870916693
 20
313.3123098858
 10
534.9445599529
 20
313.1399771732
 10
535.2529663584
 20
312.8796993262
 10
535.3653588062
 20
312.5711012876
 10
535.264626565
 20
312.2611643115
 10
534.9661052055
 20
311.9970734927
 10
534.5152418985
 20
311.8190342645
 10
533.9806764953
 20
311.7541514854
 10
533.4437917329
 20
311.8123029705
 10
532.9863234493
 20
311.9846356831
 10
532.6779170438
 20
312.2449135301
 10
532.565524596
 20
312.5535115686
 10
532.6662568371
 20
312.8634485448
  0
LINE
  5
36E
330
1F
100
AcDbEntity
  8
0
  6
Continuous
 62
     7
370
    25
100
AcDbLine
 10
567.9398420238
 20
310.7265475051
 30
0.0
 11
567.9398420238
 21
338.1646394994
 31
0.0
  0
LINE
  5
36F
330
1F
100
AcDbEntity
  8
0
  6
Continuous
 62
     7
370
    25
100
AcDbLine
 10
567.3407970121
 20
339.2021581066
 30
0.0
 11
463.6769352503
 21
399.046031689
 31
0.0
  0
LINE
  5
370
330
1F
100
AcDbEntity
  8
0
  6
Continuous
 62
     7
370
    25
100
AcDbLine
 10
559.2644460204
 20
311.4687856621
 30
0.0
 11
559.2998012994
 21
311.4891958302
 31
0.0
  0
LINE
  5
371
330
1F
100
AcDbEntity
  8
0
  6
Continuous
 62
     7
370
    25
100
AcDbLine
 10
459.8407119767
 20
392.3055711706
 30
0.0
 11
459.8053566977
 21
392.2851610025
 31
0.0
  0
LINE
  5
372
330
1F
100
AcDbEntity
  8
0
  6
Continuous
 62
     7
370
    25
100
AcDbLine
 10
559.0169587381
 20
311.3259142951
 30
0.0
 11
559.2644460204
 21
311.4687856621
 31
0.0
  0
LINE
  5
373
330
1F
100
AcDbEntity
  8
0
  6
Continuous
 62
     7
370
    25
100
AcDbLine
 10
459.8053566977
 20
392.2851610025
 30
0.0
 11
459.5578694154
 21
392.1422896355
 31
0.0
  0
LINE
  5
374
330
1F
100
AcDbEntity
  8
0
  6
Continuous
 62
     7
370
    25
100
AcDbLine
 10
445.0822053514
 20
359.4899235184
 30
0.0
 11
548.7460671132
 21
299.6460499359
 31
0.0
  0
LINE
  5
375
330
1F
100
AcDbEntity
  8
0
  6
Continuous
 62
     7
370
    25
100
AcDbLine
 10
444.4831603397
 20
387.9655341199
 30
0.0
 11
444.4831603397
 21
360.5274421255
 31
0.0
  0
LINE
  5
376
330
1F
100
AcDbEntity
  8
0
  6
Continuous
 62
     7
370
    25
100
AcDbLine
 10
435.9675364535
 20
376.278590376
 30
0.0
 11
435.9668304938
 21
376.2789979179
 31
0.0
  0
LINE
  5
377
330
1F
100
AcDbEntity
  8
0
  6
Continuous
 62
     7
370
    25
100
AcDbLine
 10
433.2670508922
 20
371.6023345031
 30
0.0
 11
433.2677568519
 21
371.6019269612
 31
0.0
  0
LINE
  5
378
330
1F
100
AcDbEntity
  8
0
  6
Continuous
 62
     7
370
    25
100
AcDbLine
 10
487.6957106837
 20
334.8896710671
 30
0.0
 11
487.6957106837
 21
325.6243501374
 31
0.0
  0
LINE
  5
379
330
1F
100
AcDbEntity
  8
0
  6
Continuous
 62
     7
370
    25
100
AcDbLine
 10
499.6957106838
 20
325.6243501374
 30
0.0
 11
499.6957106838
 21
327.96221839
 31
0.0
  0
LINE
  5
37A
330
1F
100
AcDbEntity
  8
0
  6
Continuous
 62
     7
370
    25
100
AcDbLine
 10
489.4523801344
 20
323.1755238183
 30
0.0
 11
490.1596019475
 21
322.7671206558
 31
0.0
  0
LINE
  5
37B
330
1F
100
AcDbEntity
  8
0
  6
Continuous
 62
     7
370
    25
100
AcDbLine
 10
497.2318189364
 20
322.7671205667
 30
0.0
 11
497.9390405746
 21
323.1755238183
 31
0.0
  0
LINE
  5
37C
330
1F
100
AcDbEntity
  8
0
  6
Continuous
 62
     7
370
    25
100
AcDbLine
 10
501.6010926553
 20
360.2631638505
 30
0.0
 11
501.6010926553
 21
360.8323855338
 31
0.0
  0
LINE
  5
37D
330
1F
100
AcDbEntity
  8
0
  6
Continuous
 62
     7
370
    25
100
AcDbLine
 10
498.801092787
 20
360.8323853437
 30
0.0
 11
498.801092787
 21
360.2631636604
 31
0.0
  0
LINE
  5
37E
330
1F
100
AcDbEntity
  8
0
  6
Continuous
 62
     7
370
    25
100
AcDbLine
 10
564.8681408502
 20
336.9213319565
 30
0.0
 11
564.7523180178
 21
337.1777742205
 31
0.0
  0
LINE
  5
37F
330
1F
100
AcDbEntity
  8
0
  6
Continuous
 62
     7
370
    25
100
AcDbLine
 10
560.1533171285
 20
310.4190430311
 30
0.0
 11
560.5526206519
 21
310.6495560485
 31
0.0
  0
LINE
  5
380
330
1F
100
AcDbEntity
  8
0
  6
Continuous
 62
     7
370
    25
100
AcDbLine
 10
560.6731975171
 20
310.7262258243
 30
0.0
 11
562.0729348566
 21
311.7026431845
 31
0.0
  0
LINE
  5
381
330
1F
100
AcDbEntity
  8
0
  6
Continuous
 62
     7
370
    25
100
AcDbLine
 10
459.7400564121
 20
393.4021330249
 30
0.0
 11
459.3407528888
 21
393.1716200075
 31
0.0
  0
LINE
  5
382
330
1F
100
AcDbEntity
  8
0
  6
Continuous
 62
     7
370
    25
100
AcDbLine
 10
460.8264744091
 20
393.9176985993
 30
0.0
 11
459.8667498387
 21
393.4682078452
 31
0.0
  0
LINE
  5
383
330
1F
100
AcDbEntity
  8
0
  6
Continuous
 62
     7
370
    25
100
AcDbLine
 10
567.588370893
 20
337.6752741761
 30
0.0
 11
567.588370893
 21
310.2362209567
 31
0.0
  0
LINE
  5
384
330
1F
100
AcDbEntity
  8
0
  6
Continuous
 62
     7
370
    25
100
AcDbLine
 10
567.588370893
 20
310.2362209567
 30
0.0
 11
562.7800450465
 21
307.4604335298
 31
0.0
  0
LINE
  5
385
330
1F
100
AcDbEntity
  8
0
  6
Continuous
 62
     7
370
    25
100
AcDbLine
 10
562.7800450465
 20
307.4604335298
 30
0.0
 11
562.7800450465
 21
334.8994867492
 31
0.0
  0
LINE
  5
386
330
1F
100
AcDbEntity
  8
0
  6
Continuous
 62
     7
370
    25
100
AcDbLine
 10
562.7800450465
 20
334.8994867492
 30
0.0
 11
567.588370893
 21
337.6752741761
 31
0.0
  0
LINE
  5
387
330
1F
100
AcDbEntity
  8
0
  6
Continuous
 62
     7
370
    25
100
AcDbLine
 10
562.0729368323
 20
335.3076916324
 30
0.0
 11
566.8812626788
 21
338.0834790593
 31
0.0
  0
LINE
  5
388
330
1F
100
AcDbEntity
  8
0
  6
Continuous
 62
     7
370
    25
100
AcDbLine
 10
566.8812626788
 20
338.0834790593
 30
0.0
 11
567.588370893
 21
337.6752741761
 31
0.0
  0
LINE
  5
389
330
1F
100
AcDbEntity
  8
0
  6
Continuous
 62
     7
370
    25
100
AcDbLine
 10
562.0729368323
 20
335.3076916324
 30
0.0
 11
562.7800450465
 21
334.8994867492
 31
0.0
  0
LINE
  5
38A
330
1F
100
AcDbEntity
  8
0
  6
Continuous
 62
     7
370
    25
100
AcDbLine
 10
562.0729368323
 20
307.868638413
 30
0.0
 11
562.0729368323
 21
335.3076916324
 31
0.0
  0
LINE
  5
38B
330
1F
100
AcDbEntity
  8
0
  6
Continuous
 62
     7
370
    25
100
AcDbLine
 10
562.0729368323
 20
307.868638413
 30
0.0
 11
562.7800450465
 21
307.4604335298
 31
0.0
  0
LINE
  5
38C
330
1F
100
AcDbEntity
  8
0
  6
Continuous
 62
     7
370
    25
100
AcDbLine
 10
561.9329355382
 20
335.5501809861
 30
0.0
 11
458.2682413762
 21
395.3945351029
 31
0.0
  0
LINE
  5
38D
330
1F
100
AcDbEntity
  8
0
  6
Continuous
 62
     7
370
    25
100
AcDbLine
 10
458.2682413762
 20
395.3945351029
 30
0.0
 11
458.2682413762
 21
396.2110745277
 31
0.0
  0
LINE
  5
38E
330
1F
100
AcDbEntity
  8
0
  6
Continuous
 62
     7
370
    25
100
AcDbLine
 10
561.9329355382
 20
336.3667204109
 30
0.0
 11
458.2682413762
 21
396.2110745277
 31
0.0
  0
LINE
  5
38F
330
1F
100
AcDbEntity
  8
0
  6
Continuous
 62
     7
370
    25
100
AcDbLine
 10
561.9329355382
 20
335.5501809861
 30
0.0
 11
561.9329355382
 21
336.3667204109
 31
0.0
  0
LINE
  5
390
330
1F
100
AcDbEntity
  8
0
  6
Continuous
 62
     7
370
    25
100
AcDbLine
 10
566.7412613848
 20
338.325968413
 30
0.0
 11
561.9329355382
 21
335.5501809861
 31
0.0
  0
LINE
  5
391
330
1F
100
AcDbEntity
  8
0
  6
Continuous
 62
     7
370
    25
100
AcDbLine
 10
566.7412613848
 20
339.1425078378
 30
0.0
 11
561.9329355382
 21
336.3667204109
 31
0.0
  0
LINE
  5
392
330
1F
100
AcDbEntity
  8
0
  6
Continuous
 62
     7
370
    25
100
AcDbLine
 10
566.7412613848
 20
338.325968413
 30
0.0
 11
566.7412613848
 21
339.1425078378
 31
0.0
  0
LINE
  5
393
330
1F
100
AcDbEntity
  8
0
  6
Continuous
 62
     7
370
    25
100
AcDbLine
 10
463.0765672227
 20
398.9868619546
 30
0.0
 11
566.7412613848
 21
339.1425078378
 31
0.0
  0
LINE
  5
394
330
1F
100
AcDbEntity
  8
0
  6
Continuous
 62
     7
370
    25
100
AcDbLine
 10
458.2682413762
 20
396.2110745277
 30
0.0
 11
463.0765672227
 21
398.9868619546
 31
0.0
  0
LWPOLYLINE
  5
395
330
1F
100
AcDbEntity
  8
0
  6
Continuous
 62
     7
370
    25
100
AcDbPolyline
 90
       19
 70
   128
 43
0.0
 10
513.282568177
 20
368.125816022
 10
513.5813695766
 20
367.8794683683
 10
513.7161999792
 20
367.588980737
 10
513.6707972866
 20
367.2893903235
 10
513.4506359795
 20
367.0168318731
 10
513.082273182
 20
366.8041805566
 10
512.610136941
 20
366.6770841392
 10
512.0911745635
 20
366.6508735326
 10
511.5879807049
 20
366.7287094673
 10
511.1612481443
 20
366.9012040337
 10
510.8624464154
 20
367.1475514973
 10
510.7276160129
 20
367.4380391286
 10
510.7730190347
 20
367.7376297322
 10
510.9931803419
 20
368.0101881826
 10
511.3615431393
 20
368.2228394991
 10
511.8336793803
 20
368.3499359164
 10
512.3526414286
 20
368.3761463329
 10
512.8558352871
 20
368.2983103983
 10
513.282568177
 20
368.125816022
  0
ELLIPSE
  5
396
330
1F
100
AcDbEntity
  8
0
  6
Continuous
 62
     7
370
    25
100
AcDbEllipse
 10
566.7398410091
 20
338.1634797509
 30
0.0
 11
1.199999582061196
 21
0.001737794604991905
 31
0.0
210
0.0
220
0.0
230
1.0
 40
0.5763197421
 41
5.496952539236464
 42
7.0677488660314
  0
ELLIPSE
  5
397
330
1F
100
AcDbEntity
  8
0
  6
Continuous
 62
     7
370
    25
100
AcDbEllipse
 10
566.7398410091
 20
310.7277084716
 30
0.0
 11
1.199999576422783
 21
-0.001743625313054054
 31
0.0
210
0.0
220
0.0
230
1.0
 40
0.5782540623
 41
5.498627359231344
 42
6.284025522628805
  0
ELLIPSE
  5
398
330
1F
100
AcDbEntity
  8
0
  6
Continuous
 62
     7
370
    25
100
AcDbEllipse
 10
566.7398410091
 20
338.1634797509
 30
0.0
 11
0.1999975751457441
 21
0.001723409864837322
 31
0.0
210
0.0
220
0.0
230
1.0
 40
0.5714561595
 41
5.492862857968306
 42
7.06365918476315
  0
LINE
  5
399
330
1F
100
AcDbEntity
  8
0
  6
Continuous
 62
     7
370
    25
100
AcDbLine
 10
566.8812607032
 20
338.2451227471
 30
0.0
 11
567.5883676003
 21
338.6533268699
 31
0.0
  0
ELLIPSE
  5
39A
330
1F
100
AcDbEntity
  8
0
  6
Continuous
 62
     7
370
    25
100
AcDbEllipse
 10
566.7398410091
 20
338.1634797509
 30
0.0
 11
0.6014562897307769
 21
1.038389305004443
 31
0.0
210
0.0
220
0.0
230
1.0
 40
0.5764137321
 41
5.498540755819763
 42
7.06933708261475
  0
ELLIPSE
  5
39B
330
1F
100
AcDbEntity
  8
0
  6
Continuous
 62
     7
370
    25
100
AcDbEllipse
 10
463.0779868871
 20
398.0061943475
 30
0.0
 11
0.5984407171154659
 21
1.040130151506048
 31
0.0
210
0.0
220
0.0
230
1.0
 40
0.5783477379
 41
6.282344818808495
 42
7.06766171814384
  0
ELLIPSE
  5
39C
330
1F
100
AcDbEntity
  8
0
  6
Continuous
 62
     7
370
    25
100
AcDbEllipse
 10
566.7398410091
 20
338.1634797509
 30
0.0
 11
0.1014834574165207
 21
0.1723458975385483
 31
0.0
210
0.0
220
0.0
230
1.0
 40
0.5715509263
 41
5.502631774505741
 42
7.073428101300936
  0
LINE
  5
39D
330
1F
100
AcDbEntity
  8
0
  6
Continuous
 62
     7
370
    25
100
AcDbLine
 10
555.0018704956
 20
311.7890113145
 30
0.0
 11
561.9329355382
 21
307.7877926336
 31
0.0
  0
LINE
  5
39E
330
1F
100
AcDbEntity
  8
0
  6
Continuous
 62
     7
370
    25
100
AcDbLine
 10
561.9329355382
 20
307.7877926336
 30
0.0
 11
561.9329355382
 21
306.9712516879
 31
0.0
  0
LINE
  5
39F
330
1F
100
AcDbEntity
  8
0
  6
Continuous
 62
     7
370
    25
100
AcDbLine
 10
555.0018704956
 20
310.9724703687
 30
0.0
 11
561.9329355382
 21
306.9712516879
 31
0.0
  0
LINE
  5
3A0
330
1F
100
AcDbEntity
  8
0
  6
Continuous
 62
     7
370
    25
100
AcDbLine
 10
561.9329355382
 20
307.7877926336
 30
0.0
 11
562.072958235
 21
307.8686260159
 31
0.0
  0
LINE
  5
3A1
330
1F
100
AcDbEntity
  8
0
  6
Continuous
 62
     7
370
    25
100
AcDbLine
 10
561.9329355382
 20
306.9712516879
 30
0.0
 11
566.7412613848
 21
309.7470391148
 31
0.0
  0
LINE
  5
3A2
330
1F
100
AcDbEntity
  8
0
  6
Continuous
 62
     7
370
    25
100
AcDbLine
 10
458.2682627789
 20
395.3945211849
 30
0.0
 11
458.1282400822
 21
395.3136878027
 31
0.0
  0
LINE
  5
3A3
330
1F
100
AcDbEntity
  8
0
  6
Continuous
 62
     7
370
    25
100
AcDbLine
 10
458.1282400822
 20
395.3136878027
 30
0.0
 11
457.421131868
 21
395.7218926858
 31
0.0
  0
LINE
  5
3A4
330
1F
100
AcDbEntity
  8
0
  6
Continuous
 62
     7
370
    25
100
AcDbLine
 10
458.268238742
 20
396.210917075
 30
0.0
 11
457.421131868
 21
395.7218926858
 31
0.0
  0
LINE
  5
3A5
330
1F
100
AcDbEntity
  8
0
  6
Continuous
 62
     7
370
    25
100
AcDbLine
 10
458.1282400822
 20
395.3136878027
 30
0.0
 11
458.1282400822
 21
387.3114067611
 31
0.0
  0
LINE
  5
3A6
330
1F
100
AcDbEntity
  8
0
  6
Continuous
 62
     7
370
    25
100
AcDbLine
 10
457.421131868
 20
395.7218926858
 30
0.0
 11
457.421131868
 21
387.7196116443
 31
0.0
  0
LINE
  5
3A7
330
1F
100
AcDbEntity
  8
0
  6
Continuous
 62
     7
370
    25
100
AcDbLine
 10
557.2646096686
 20
336.9795812209
 30
0.0
 11
461.8051956836
 21
392.0871279173
 31
0.0
  0
ARC
  5
3A8
330
1F
100
AcDbEntity
  8
0
  6
Continuous
 62
     7
370
    25
100
AcDbCircle
 10
553.9521816597
 20
331.8011631583
 30
0.0
 40
6.147210175741175
100
AcDbArc
 50
2.6054298832
 51
57.39457026239999
  0
LINE
  5
3A9
330
1F
100
AcDbEntity
  8
0
  6
Continuous
 62
     7
370
    25
100
AcDbLine
 10
560.093037257
 20
313.3001637577
 30
0.0
 11
560.093037257
 21
332.0806009467
 31
0.0
  0
ARC
  5
3AA
330
1F
100
AcDbEntity
  8
0
  6
Continuous
 62
     7
370
    25
100
AcDbCircle
 10
558.1392042509
 20
313.0810251333
 30
0.0
 40
1.966083709385819
100
AcDbArc
 50
304.9126181591
 51
6.3994537573
  0
ARC
  5
3AB
330
1F
100
AcDbEntity
  8
0
  6
Continuous
 62
     7
370
    25
100
AcDbCircle
 10
460.6335150484
 20
390.4516129387
 30
0.0
 40
2.011900781853437
100
AcDbArc
 50
54.3822414454
 51
114.3072585539
  0
LINE
  5
3AC
330
1F
100
AcDbEntity
  8
0
  6
Continuous
 62
     7
370
    25
100
AcDbLine
 10
557.2999649476
 20
336.999991389
 30
0.0
 11
557.2646096686
 21
336.9795812209
 31
0.0
  0
ARC
  5
3AD
330
1F
100
AcDbEntity
  8
0
  6
Continuous
 62
     7
370
    25
100
AcDbCircle
 10
553.9875369387
 20
331.8215733265
 30
0.0
 40
6.147210175741463
100
AcDbArc
 50
2.6054298832
 51
57.39457026239999
  0
LINE
  5
3AE
330
1F
100
AcDbEntity
  8
0
  6
Continuous
 62
     7
370
    25
100
AcDbLine
 10
560.128392536
 20
332.1010111148
 30
0.0
 11
560.093037257
 21
332.0806009467
 31
0.0
  0
LINE
  5
3AF
330
1F
100
AcDbEntity
  8
0
  6
Continuous
 62
     7
370
    25
100
AcDbLine
 10
560.128392536
 20
313.3205739258
 30
0.0
 11
560.093037257
 21
313.3001637577
 31
0.0
  0
LINE
  5
3B0
330
1F
100
AcDbEntity
  8
0
  6
Continuous
 62
     7
370
    25
100
AcDbLine
 10
560.128392536
 20
313.3205739258
 30
0.0
 11
560.128392536
 21
332.1010111148
 31
0.0
  0
LINE
  5
3B1
330
1F
100
AcDbEntity
  8
0
  6
Continuous
 62
     7
370
    25
100
AcDbLine
 10
461.8405509626
 20
392.1075380854
 30
0.0
 11
461.8051956836
 21
392.0871279173
 31
0.0
  0
LINE
  5
3B2
330
1F
100
AcDbEntity
  8
0
  6
Continuous
 62
     7
370
    25
100
AcDbLine
 10
557.2999649476
 20
336.999991389
 30
0.0
 11
461.8405509626
 21
392.1075380854
 31
0.0
  0
ARC
  5
3B3
330
1F
100
AcDbEntity
  8
0
  6
Continuous
 62
     7
370
    25
100
AcDbCircle
 10
558.1745595297
 20
313.1014353015
 30
0.0
 40
1.966083709604612
100
AcDbArc
 50
304.9126181629
 51
6.3994537535
  0
ARC
  5
3B4
330
1F
100
AcDbEntity
  8
0
  6
Continuous
 62
     7
370
    25
100
AcDbCircle
 10
460.6688703274
 20
390.4720231068
 30
0.0
 40
2.011900781853437
100
AcDbArc
 50
54.3822414454
 51
114.3072585539
  0
LWPOLYLINE
  5
3B5
330
1F
100
AcDbEntity
  8
0
  6
Continuous
 62
     7
370
    25
100
AcDbPolyline
 90
        3
 70
   128
 43
0.0
 10
458.7940552508
 20
386.9270395029
 10
458.7564549935
 20
387.1187319394
 10
458.729280813
 20
387.4530182301
  0
LINE
  5
3B6
330
1F
100
AcDbEntity
  8
0
  6
Continuous
 62
     7
370
    25
100
AcDbLine
 10
458.729280813
 20
390.3109092587
 30
0.0
 11
458.729280813
 21
387.4530182301
 31
0.0
  0
ARC
  5
3B7
330
1F
100
AcDbEntity
  8
0
  6
Continuous
 62
     7
370
    25
100
AcDbCircle
 10
460.4535763523
 20
390.5906219244
 30
0.0
 40
1.746835505220226
100
AcDbArc
 50
50.79657906789999
 51
189.2141726869
  0
LINE
  5
3B8
330
1F
100
AcDbEntity
  8
0
  6
Continuous
 62
     7
370
    25
100
AcDbLine
 10
557.0171223864
 20
336.8367098539
 30
0.0
 11
461.5577084013
 21
391.9442565504
 31
0.0
  0
ARC
  5
3B9
330
1F
100
AcDbEntity
  8
0
  6
Continuous
 62
     7
370
    25
100
AcDbCircle
 10
553.7046943774
 20
331.6582917914
 30
0.0
 40
6.147210175741051
100
AcDbArc
 50
2.6054298832
 51
57.39457026239999
  0
LINE
  5
3BA
330
1F
100
AcDbEntity
  8
0
  6
Continuous
 62
     7
370
    25
100
AcDbLine
 10
559.8455499747
 20
313.1572923908
 30
0.0
 11
559.8455499747
 21
331.9377295797
 31
0.0
  0
ARC
  5
3BB
330
1F
100
AcDbEntity
  8
0
  6
Continuous
 62
     7
370
    25
100
AcDbCircle
 10
558.1212522933
 20
312.8775837497
 30
0.0
 40
1.74683697527322
100
AcDbArc
 50
230.7967090681
 51
9.214031134300003
  0
LINE
  5
3BC
330
1F
100
AcDbEntity
  8
0
  6
Continuous
 62
     7
370
    25
100
AcDbLine
 10
555.0018708248
 20
312.6873254426
 30
0.0
 11
557.0171223864
 21
311.5239454794
 31
0.0
  0
LINE
  5
3BD
330
1F
100
AcDbEntity
  8
0
  6
Continuous
 62
     7
370
    25
100
AcDbLine
 10
557.2646096686
 20
336.9795812209
 30
0.0
 11
557.0171223864
 21
336.8367098539
 31
0.0
  0
LINE
  5
3BE
330
1F
100
AcDbEntity
  8
0
  6
Continuous
 62
     7
370
    25
100
AcDbLine
 10
560.093037257
 20
332.0806009467
 30
0.0
 11
559.8455499747
 21
331.9377295797
 31
0.0
  0
LINE
  5
3BF
330
1F
100
AcDbEntity
  8
0
  6
Continuous
 62
     7
370
    25
100
AcDbLine
 10
560.093037257
 20
313.3001637577
 30
0.0
 11
559.8455499747
 21
313.1572923908
 31
0.0
  0
LINE
  5
3C0
330
1F
100
AcDbEntity
  8
0
  6
Continuous
 62
     7
370
    25
100
AcDbLine
 10
461.8051956836
 20
392.0871279173
 30
0.0
 11
461.5577084013
 21
391.9442565504
 31
0.0
  0
ELLIPSE
  5
3C1
330
1F
100
AcDbEntity
  8
0
  6
Continuous
 62
     7
370
    25
100
AcDbEllipse
 10
549.3450141919
 20
300.6858886961
 30
0.0
 11
1.199999576422783
 21
-0.001743625313054054
 31
0.0
210
0.0
220
0.0
230
1.0
 40
0.5782540623
 41
3.927831032436412
 42
5.498627359231303
  0
LINE
  5
3C2
330
1F
100
AcDbEntity
  8
0
  6
Continuous
 62
     7
370
    25
100
AcDbLine
 10
548.496484013
 20
300.1960448722
 30
0.0
 11
548.496484013
 21
327.6318170745
 31
0.0
  0
ELLIPSE
  5
3C3
330
1F
100
AcDbEntity
  8
0
  6
Continuous
 62
     7
370
    25
100
AcDbEllipse
 10
549.3450141919
 20
328.1216599755
 30
0.0
 11
1.199999582061196
 21
0.001737794604991905
 31
0.0
210
0.0
220
0.0
230
1.0
 40
0.5763197421
 41
3.926156212441599
 42
5.496952539236489
  0
LINE
  5
3C4
330
1F
100
AcDbEntity
  8
0
  6
Continuous
 62
     7
370
    25
100
AcDbLine
 10
550.193544649
 20
327.6334547316
 30
0.0
 11
550.193544649
 21
300.1944015122
 31
0.0
  0
LINE
  5
3C5
330
1F
100
AcDbEntity
  8
0
  6
Continuous
 62
     7
370
    25
100
AcDbLine
 10
549.2035909101
 20
328.0400211973
 30
0.0
 11
548.496484013
 21
327.6318170745
 31
0.0
  0
ELLIPSE
  5
3C6
330
1F
100
AcDbEntity
  8
0
  6
Continuous
 62
     7
370
    25
100
AcDbEllipse
 10
549.3450141919
 20
328.1216599755
 30
0.0
 11
0.1999975751457441
 21
0.001723409864837322
 31
0.0
210
0.0
220
0.0
230
1.0
 40
0.5714561595
 41
3.922066531173476
 42
5.492862857968555
  0
LINE
  5
3C7
330
1F
100
AcDbEntity
  8
0
  6
Continuous
 62
     7
370
    25
100
AcDbLine
 10
549.4864364348
 20
328.0416596148
 30
0.0
 11
550.193544649
 21
327.6334547316
 31
0.0
  0
ELLIPSE
  5
3C8
330
1F
100
AcDbEntity
  8
0
  6
Continuous
 62
     7
370
    25
100
AcDbEllipse
 10
549.3450141919
 20
328.1216599755
 30
0.0
 11
0.6014562897307769
 21
1.038389305004443
 31
0.0
210
0.0
220
0.0
230
1.0
 40
0.5764137321
 41
0.7861517754352774
 42
2.356948102230032
  0
LINE
  5
3C9
330
1F
100
AcDbEntity
  8
0
  6
Continuous
 62
     7
370
    25
100
AcDbLine
 10
549.3464351408
 20
328.2841489685
 30
0.0
 11
549.3464351408
 21
329.1006883933
 31
0.0
  0
ELLIPSE
  5
3CA
330
1F
100
AcDbEntity
  8
0
  6
Continuous
 62
     7
370
    25
100
AcDbEllipse
 10
549.3450141919
 20
328.1216599755
 30
0.0
 11
0.101483457416407
 21
0.1723458975385483
 31
0.0
210
0.0
220
0.0
230
1.0
 40
0.5715509263
 41
0.7902427941214487
 42
2.361039120915857
  0
ELLIPSE
  5
3CB
330
1F
100
AcDbEntity
  8
0
  6
Continuous
 62
     7
370
    25
100
AcDbEllipse
 10
445.68316007
 20
387.9643745721
 30
0.0
 11
0.5984407171154089
 21
1.040130151506105
 31
0.0
210
0.0
220
0.0
230
1.0
 40
0.5783477379
 41
0.7844764109641413
 42
2.355272737759005
  0
LINE
  5
3CC
330
1F
100
AcDbEntity
  8
0
  6
Continuous
 62
     7
370
    25
100
AcDbLine
 10
445.6817409787
 20
388.9450425101
 30
0.0
 11
549.3464351408
 21
329.1006883933
 31
0.0
  0
LINE
  5
3CD
330
1F
100
AcDbEntity
  8
0
  6
Continuous
 62
     7
370
    25
100
AcDbLine
 10
548.496484013
 20
327.6318170745
 30
0.0
 11
444.8346294949
 21
387.4745318998
 31
0.0
  0
LINE
  5
3CE
330
1F
100
AcDbEntity
  8
0
  6
Continuous
 62
     7
370
    25
100
AcDbLine
 10
555.0018704956
 20
330.4092421585
 30
0.0
 11
550.193544649
 21
327.6334547316
 31
0.0
  0
LINE
  5
3CF
330
1F
100
AcDbEntity
  8
0
  6
Continuous
 62
     7
370
    25
100
AcDbLine
 10
554.2947622814
 20
330.8174470417
 30
0.0
 11
549.4864364348
 21
328.0416596148
 31
0.0
  0
LINE
  5
3D0
330
1F
100
AcDbEntity
  8
0
  6
Continuous
 62
     7
370
    25
100
AcDbLine
 10
554.2947622814
 20
330.8174470417
 30
0.0
 11
555.0018704956
 21
330.4092421585
 31
0.0
  0
LINE
  5
3D1
330
1F
100
AcDbEntity
  8
0
  6
Continuous
 62
     7
370
    25
100
AcDbLine
 10
555.0018704956
 20
302.9701889391
 30
0.0
 11
555.0018704956
 21
330.4092421585
 31
0.0
  0
LINE
  5
3D2
330
1F
100
AcDbEntity
  8
0
  6
Continuous
 62
     7
370
    25
100
AcDbLine
 10
550.193544649
 20
300.1944015122
 30
0.0
 11
555.0018704956
 21
302.9701889391
 31
0.0
  0
LINE
  5
3D3
330
1F
100
AcDbEntity
  8
0
  6
Continuous
 62
     7
370
    25
100
AcDbLine
 10
554.1547609873
 20
331.8764758202
 30
0.0
 11
450.4900668253
 21
391.720829937
 31
0.0
  0
LINE
  5
3D4
330
1F
100
AcDbEntity
  8
0
  6
Continuous
 62
     7
370
    25
100
AcDbLine
 10
549.3464351408
 20
329.1006883933
 30
0.0
 11
554.1547609873
 21
331.8764758202
 31
0.0
  0
LINE
  5
3D5
330
1F
100
AcDbEntity
  8
0
  6
Continuous
 62
     7
370
    25
100
AcDbLine
 10
450.4900668253
 20
391.720829937
 30
0.0
 11
445.6817409787
 21
388.9450425101
 31
0.0
  0
LWPOLYLINE
  5
3D6
330
1F
100
AcDbEntity
  8
0
  6
Continuous
 62
     7
370
    25
100
AcDbPolyline
 90
        9
 70
   128
 43
0.0
 10
499.1404328694
 20
359.9617350862
 10
499.5671657593
 20
359.7892407099
 10
500.0703596179
 20
359.7114047753
 10
500.5893216661
 20
359.7376151918
 10
501.0614579071
 20
359.8647116091
 10
501.4298207046
 20
360.0773629257
 10
501.6499820117
 20
360.349921376
 10
501.6953850336
 20
360.6495119796
 10
501.5974989779
 20
360.890261255
  0
LWPOLYLINE
  5
3D7
330
1F
100
AcDbEntity
  8
0
  6
Continuous
 62
     7
370
    25
100
AcDbPolyline
 90
        5
 70
   128
 43
0.0
 10
498.8046871229
 20
360.8902614451
 10
498.7522037598
 20
360.7981607848
 10
498.7068010672
 20
360.4985703713
 10
498.8416314698
 20
360.2080827399
 10
499.1404328694
 20
359.9617350862
  0
LINE
  5
3D8
330
1F
100
AcDbEntity
  8
0
  6
Continuous
 62
     7
370
    25
100
AcDbLine
 10
554.1547609873
 20
331.0599363954
 30
0.0
 11
554.1547609873
 21
331.8764758202
 31
0.0
  0
LINE
  5
3D9
330
1F
100
AcDbEntity
  8
0
  6
Continuous
 62
     7
370
    25
100
AcDbLine
 10
549.3464351408
 20
328.2841489685
 30
0.0
 11
554.1547609873
 21
331.0599363954
 31
0.0
  0
LINE
  5
3DA
330
1F
100
AcDbEntity
  8
0
  6
Continuous
 62
     7
370
    25
100
AcDbLine
 10
444.8346294949
 20
360.0387596975
 30
0.0
 11
548.496484013
 21
300.1960448722
 31
0.0
  0
LINE
  5
3DB
330
1F
100
AcDbEntity
  8
0
  6
Continuous
 62
     7
370
    25
100
AcDbLine
 10
444.8346294949
 20
387.4745318998
 30
0.0
 11
444.8346294949
 21
360.0387596975
 31
0.0
  0
ELLIPSE
  5
3DC
330
1F
100
AcDbEntity
  8
0
  6
Continuous
 62
     7
370
    25
100
AcDbEllipse
 10
549.3450141919
 20
300.6858886961
 30
0.0
 11
0.5984407171154089
 21
1.040130151506048
 31
0.0
210
0.0
220
0.0
230
1.0
 40
0.5783477379
 41
2.355272737759108
 42
3.926069064553768
  0
ELLIPSE
  5
3DD
330
1F
100
AcDbEntity
  8
0
  6
Continuous
 62
     7
370
    25
100
AcDbEllipse
 10
445.68316007
 20
360.5286032927
 30
0.0
 11
0.6014562897307202
 21
1.038389305004444
 31
0.0
210
0.0
220
0.0
230
1.0
 40
0.5764137321
 41
2.356948102229938
 42
3.14242752968945
  0
LINE
  5
3DE
330
1F
100
AcDbEntity
  8
0
  6
Continuous
 62
     7
370
    25
100
AcDbLine
 10
554.1547609873
 20
302.4810070972
 30
0.0
 11
549.3464351408
 21
299.7052196703
 31
0.0
  0
LINE
  5
3DF
330
1F
100
AcDbEntity
  8
0
  6
Continuous
 62
     7
370
    25
100
AcDbLine
 10
554.1547609873
 20
302.481166034
 30
0.0
 11
554.1547609873
 21
302.4810070972
 31
0.0
  0
ELLIPSE
  5
3E0
330
1F
100
AcDbEntity
  8
0
  6
Continuous
 62
     7
370
    25
100
AcDbEllipse
 10
445.68316007
 20
387.9643745721
 30
0.0
 11
1.199999576422783
 21
-0.001743625312997211
 31
0.0
210
0.0
220
0.0
230
1.0
 40
0.5782540623
 41
2.35703470564148
 42
3.927831032436317
  0
ELLIPSE
  5
3E1
330
1F
100
AcDbEntity
  8
0
  6
Continuous
 62
     7
370
    25
100
AcDbEllipse
 10
445.68316007
 20
360.5286032927
 30
0.0
 11
1.199999582061139
 21
0.001737794604991904
 31
0.0
210
0.0
220
0.0
230
1.0
 40
0.5763197421
 41
3.140758049044142
 42
3.926156212441558
  0
LINE
  5
3E2
330
1F
100
AcDbEntity
  8
0
  6
Continuous
 62
     7
370
    25
100
AcDbLine
 10
444.8346314705
 20
388.4558606682
 30
0.0
 11
445.6664666974
 21
388.9360689232
 31
0.0
  0
LINE
  5
3E3
330
1F
100
AcDbEntity
  8
0
  6
Continuous
 62
     7
370
    25
100
AcDbLine
 10
474.2149190275
 20
408.2320623457
 30
0.0
 11
457.5979102386
 21
398.6392673602
 31
0.0
  0
LINE
  5
3E4
330
1F
100
AcDbEntity
  8
0
  6
Continuous
 62
     7
370
    25
100
AcDbLine
 10
474.2149190275
 20
392.9625834653
 30
0.0
 11
474.2149190275
 21
408.2320623457
 31
0.0
  0
LINE
  5
3E5
330
1F
100
AcDbEntity
  8
0
  6
Continuous
 62
     7
370
    25
100
AcDbLine
 10
431.7885131046
 20
353.5278106303
 30
0.0
 11
444.4831609983
 21
360.8562748685
 31
0.0
  0
LINE
  5
3E6
330
1F
100
AcDbEntity
  8
0
  6
Continuous
 62
     7
370
    25
100
AcDbLine
 10
431.7885131046
 20
383.7398195385
 30
0.0
 11
431.7885131046
 21
353.5278106303
 31
0.0
  0
LINE
  5
3E7
330
1F
100
AcDbEntity
  8
0
  6
Continuous
 62
     7
370
    25
100
AcDbLine
 10
448.4055218935
 20
393.3326145239
 30
0.0
 11
431.7885131046
 21
383.7398195385
 31
0.0
  0
LINE
  5
3E8
330
1F
100
AcDbEntity
  8
0
  6
Continuous
 62
     7
370
    25
100
AcDbLine
 10
448.4055218935
 20
393.3326145239
 30
0.0
 11
448.4055218935
 21
390.5174508633
 31
0.0
  0
LINE
  5
3E9
330
1F
100
AcDbEntity
  8
0
  6
Continuous
 62
     7
370
    25
100
AcDbLine
 10
457.2456784889
 20
387.8208990467
 30
0.0
 11
457.4211335143
 21
387.9221870769
 31
0.0
  0
LINE
  5
3EA
330
1F
100
AcDbEntity
  8
0
  6
Continuous
 62
     7
370
    25
100
AcDbLine
 10
457.5979102386
 20
395.8239424815
 30
0.0
 11
457.5979102386
 21
398.6392673602
 31
0.0
  0
LWPOLYLINE
  5
3EB
330
1F
100
AcDbEntity
  8
0
  6
Continuous
 62
     7
370
    25
100
AcDbPolyline
 90
       35
 70
   128
 43
0.0
 10
433.0613044657
 20
370.5933933158
 10
433.1239122921
 20
369.8493330577
 10
433.3096007699
 20
369.2028963207
 10
433.612049189
 20
368.6760937753
 10
434.0209579133
 20
368.2868702705
 10
434.5224000434
 20
368.0484758974
 10
435.0992995204
 20
367.9690286788
 10
435.7320132786
 20
368.0512377058
 10
436.3989937417
 20
368.292301934
 10
437.0775263926
 20
368.6840104956
 10
437.7445068557
 20
369.2130255185
 10
438.3772206139
 20
369.8613322473
 10
438.9541200909
 20
370.6068534242
 10
439.4555622211
 20
371.4242005574
 10
439.8644709453
 20
372.285540026
 10
440.1669193644
 20
373.1615420831
 10
440.3526078422
 20
374.0223701732
 10
440.4152156686
 20
374.838715889
 10
440.3526078422
 20
375.582776147
 10
440.1669193644
 20
376.229214405
 10
439.8644709453
 20
376.7560154294
 10
439.4555622211
 20
377.1452404552
 10
438.9541200909
 20
377.3836348283
 10
438.3772206139
 20
377.4630805259
 10
437.7445068557
 20
377.3808730198
 10
437.0775263926
 20
377.1398087916
 10
436.3989937417
 20
376.74810023
 10
435.7320132786
 20
376.2190852071
 10
435.0992995204
 20
375.5707769574
 10
434.5224000434
 20
374.8252573014
 10
434.0209579133
 20
374.0079101682
 10
433.612049189
 20
373.1465691787
 10
433.3096007699
 20
372.2705686425
 10
433.1239122921
 20
371.4097390315
 10
433.0613044657
 20
370.5933933158
  0
LWPOLYLINE
  5
3EC
330
1F
100
AcDbEntity
  8
0
  6
Continuous
 62
     7
370
    25
100
AcDbPolyline
 90
       10
 70
   128
 43
0.0
 10
472.941441463
 20
393.6977466182
 10
472.87951984
 20
394.3601627555
 10
472.6938313622
 20
395.0066010134
 10
472.3913829431
 20
395.5334020378
 10
471.9824742189
 20
395.9226270636
 10
471.4810320887
 20
396.1610214367
 10
470.9041326117
 20
396.2404671343
 10
470.2714188535
 20
396.1582596283
 10
469.6044383904
 20
395.9171954
 10
469.3356192052
 20
395.7793433788
  0
LINE
  5
3ED
330
1F
100
AcDbEntity
  8
0
  6
Continuous
 62
     7
370
    25
100
AcDbLine
 10
431.7885131046
 20
383.7398195385
 30
0.0
 11
429.6671937304
 21
384.9644311466
 31
0.0
  0
LINE
  5
3EE
330
1F
100
AcDbEntity
  8
0
  6
Continuous
 62
     7
370
    25
100
AcDbLine
 10
446.2842025193
 20
394.557226132
 30
0.0
 11
429.6671937304
 21
384.9644311466
 31
0.0
  0
LINE
  5
3EF
330
1F
100
AcDbEntity
  8
0
  6
Continuous
 62
     7
370
    25
100
AcDbLine
 10
446.2842025193
 20
394.557226132
 30
0.0
 11
448.4055218935
 21
393.3326145239
 31
0.0
  0
LINE
  5
3F0
330
1F
100
AcDbEntity
  8
0
  6
Continuous
 62
     7
370
    25
100
AcDbLine
 10
431.7885131046
 20
353.5278106303
 30
0.0
 11
429.6671937304
 21
354.7524222384
 31
0.0
  0
LINE
  5
3F1
330
1F
100
AcDbEntity
  8
0
  6
Continuous
 62
     7
370
    25
100
AcDbLine
 10
429.6671937304
 20
384.9644311466
 30
0.0
 11
429.6671937304
 21
354.7524222384
 31
0.0
  0
LWPOLYLINE
  5
3F2
330
1F
100
AcDbEntity
  8
0
  6
Continuous
 62
     7
370
    25
100
AcDbPolyline
 90
       18
 70
   128
 43
0.0
 10
433.9680372766
 20
368.3248260794
 10
434.169551896
 20
368.2521707971
 10
434.746451373
 20
368.1727235785
 10
435.3791651312
 20
368.2549326055
 10
436.0461455943
 20
368.4959968337
 10
436.7246782452
 20
368.8877053953
 10
437.3916587084
 20
369.4167204182
 10
438.0243724666
 20
370.065027147
 10
438.6012719435
 20
370.8105483239
 10
439.1027140737
 20
371.6278954571
 10
439.5116227979
 20
372.4892349257
 10
439.814071217
 20
373.3652369828
 10
439.9997596949
 20
374.2260650729
 10
440.0623675212
 20
375.0424107887
 10
439.9997596949
 20
375.7864710468
 10
439.814071217
 20
376.4329093047
 10
439.5116227979
 20
376.9597103291
 10
439.1556333933
 20
377.3109794887
  0
LWPOLYLINE
  5
3F3
330
1F
100
AcDbEntity
  8
0
  6
Continuous
 62
     7
370
    25
100
AcDbPolyline
 90
       15
 70
   128
 43
0.0
 10
433.1677213069
 20
371.6689498588
 10
433.2676462164
 20
371.6019908505
 10
433.6630521441
 20
371.4798918497
 10
434.1235117324
 20
371.5254627284
 10
434.6176466527
 20
371.7355991798
 10
435.111781573
 20
372.0959787636
 10
435.5722411613
 20
372.5820432094
 10
435.967647089
 20
373.1606681769
 10
436.2710517147
 20
373.7924201101
 10
436.4617806922
 20
374.4342473423
 10
436.5268343529
 20
375.042409268
 10
436.4617806922
 20
375.5754633567
 10
436.2710517147
 20
375.9970795989
 10
435.967647089
 20
376.2785280077
 10
435.8594719339
 20
376.3317036397
  0
LWPOLYLINE
  5
3F4
330
1F
100
AcDbEntity
  8
0
  6
Continuous
 62
     7
370
    25
100
AcDbPolyline
 90
       14
 70
   128
 43
0.0
 10
433.2670508922
 20
371.6023345031
 10
433.6623461843
 20
371.4802993915
 10
434.1228057727
 20
371.5258702703
 10
434.616940693
 20
371.7360067217
 10
435.1110756133
 20
372.0963863055
 10
435.5715352016
 20
372.5824507512
 10
435.9669411293
 20
373.1610757187
 10
436.270345755
 20
373.7928276519
 10
436.4610747325
 20
374.4346548842
 10
436.5261283932
 20
375.0428168099
 10
436.4610747325
 20
375.5758708986
 10
436.270345755
 20
375.9974871408
 10
435.9669411293
 20
376.2789355495
 10
435.9668304938
 20
376.2789979179
  0
LINE
  5
3F5
330
1F
100
AcDbEntity
  8
0
  6
Continuous
 62
     7
370
    25
100
AcDbLine
 10
455.4765908644
 20
389.2488497158
 30
0.0
 11
457.4211305509
 21
388.1262908491
 31
0.0
  0
LINE
  5
3F6
330
1F
100
AcDbEntity
  8
0
  6
Continuous
 62
     7
370
    25
100
AcDbLine
 10
455.1243591147
 20
389.0455106548
 30
0.0
 11
455.4765908644
 21
389.2488497158
 31
0.0
  0
LINE
  5
3F7
330
1F
100
AcDbEntity
  8
0
  6
Continuous
 62
     7
370
    25
100
AcDbLine
 10
474.2149190275
 20
408.2320623457
 30
0.0
 11
472.0935996533
 21
409.4566739538
 31
0.0
  0
LINE
  5
3F8
330
1F
100
AcDbEntity
  8
0
  6
Continuous
 62
     7
370
    25
100
AcDbLine
 10
455.4765908644
 20
399.8638789684
 30
0.0
 11
457.5979102386
 21
398.6392673602
 31
0.0
  0
LINE
  5
3F9
330
1F
100
AcDbEntity
  8
0
  6
Continuous
 62
     7
370
    25
100
AcDbLine
 10
472.0935996533
 20
409.4566739538
 30
0.0
 11
455.4765908644
 21
399.8638789684
 31
0.0
  0
LINE
  5
3FA
330
1F
100
AcDbEntity
  8
0
  6
Continuous
 62
     7
370
    25
100
AcDbLine
 10
455.4765908644
 20
389.2488497158
 30
0.0
 11
455.4765908644
 21
399.8638789684
 31
0.0
  0
ARC
  5
3FB
330
1F
100
AcDbEntity
  8
0
  6
Continuous
 62
     7
370
    25
100
AcDbCircle
 10
469.8946090214
 20
394.0664669655
 30
0.0
 40
2.699034045021677
100
AcDbArc
 50
356.4946115236
 51
48.5141424801
  0
LWPOLYLINE
  5
3FC
330
1F
100
AcDbEntity
  8
0
  6
Continuous
 62
     7
370
    25
100
AcDbPolyline
 90
       20
 70
   128
 43
0.0
 10
487.6957106837
 20
325.6243501374
 10
487.7054554961
 20
325.4270198479
 10
487.8558173416
 20
324.8295248833
 10
488.1836220291
 20
324.2561801958
 10
488.6789087438
 20
323.7244068697
 10
489.3266284264
 20
323.2503621152
 10
490.1071004744
 20
322.8484498001
 10
490.9966103708
 20
322.5308819241
 10
491.9681311196
 20
322.307307383
 10
492.992143628
 20
322.1845197135
 10
494.0375338083
 20
322.1662494253
 10
495.0725374245
 20
322.2530517562
 10
496.0657071655
 20
322.4422893743
 10
496.9868655585
 20
322.7282122136
 10
497.8080240297
 20
323.1021327678
 10
498.5042318711
 20
323.5526896076
 10
499.0543352543
 20
324.0661927881
 10
499.4416195172
 20
324.6270398735
 10
499.6543172102
 20
325.2181896166
 10
499.6957106838
 20
325.6243501374
  0
ARC
  5
3FD
330
1F
100
AcDbEntity
  8
0
  6
Continuous
 62
     7
370
    25
100
AcDbCircle
 10
493.695710527
 20
329.519075032
 30
0.0
 40
7.621873246466021
100
AcDbArc
 50
242.3582160205
 51
297.6417825358
  0
LWPOLYLINE
  5
3FE
330
1F
100
AcDbEntity
  8
0
  6
Continuous
 62
     7
370
    25
100
AcDbPolyline
 90
       18
 70
   128
 43
0.0
 10
501.3929461634
 20
361.2564014827
 10
501.0471322592
 20
361.4763180314
 10
500.5870552852
 20
361.609268301
 10
500.0748525378
 20
361.6372959285
 10
499.5796991784
 20
361.5566161348
 10
499.1684690847
 20
361.3781245822
 10
498.8966996201
 20
361.1259283985
 10
498.8010960797
 20
360.8340873632
 10
498.8945698872
 20
360.5420167055
 10
499.1644960857
 20
360.2891616878
 10
499.5744216027
 20
360.1096721899
 10
500.0689819427
 20
360.0277889692
 10
500.5813848877
 20
360.0545711608
 10
501.0424272879
 20
360.1864014506
 10
501.3898424431
 20
360.4054757335
 10
501.5767103742
 20
360.6822061656
 10
501.5777936799
 20
360.979219409
 10
501.3929461634
 20
361.2564014827
  0
LINE
  5
3FF
330
1F
100
AcDbEntity
  8
0
  6
Continuous
 62
     7
370
    25
100
AcDbLine
 10
499.3238822959
 20
360.8178506976
 30
0.0
 11
499.7842924934
 21
360.3865600123
 31
0.0
  0
LINE
  5
400
330
1F
100
AcDbEntity
  8
0
  6
Continuous
 62
     7
370
    25
100
AcDbLine
 10
499.7842924934
 20
360.3865600123
 30
0.0
 11
500.6615034125
 21
360.4010950386
 31
0.0
  0
LINE
  5
401
330
1F
100
AcDbEntity
  8
0
  6
Continuous
 62
     7
370
    25
100
AcDbLine
 10
500.6615034125
 20
360.4010950386
 30
0.0
 11
501.0783034756
 21
360.84692037
 31
0.0
  0
LINE
  5
402
330
1F
100
AcDbEntity
  8
0
  6
Continuous
 62
     7
370
    25
100
AcDbLine
 10
501.0783034756
 20
360.84692037
 30
0.0
 11
500.6178942659
 21
361.2782108652
 31
0.0
  0
LINE
  5
403
330
1F
100
AcDbEntity
  8
0
  6
Continuous
 62
     7
370
    25
100
AcDbLine
 10
500.6178942659
 20
361.2782108652
 30
0.0
 11
499.740682359
 21
361.263676029
 31
0.0
  0
LINE
  5
404
330
1F
100
AcDbEntity
  8
0
  6
Continuous
 62
     7
370
    25
100
AcDbLine
 10
499.740682359
 20
361.263676029
 30
0.0
 11
499.3238822959
 21
360.8178506976
 31
0.0
  0
LINE
  5
405
330
1F
100
AcDbEntity
  8
0
  6
Continuous
 62
     7
370
    25
100
AcDbLine
 10
499.740682359
 20
360.4274132387
 30
0.0
 11
499.740682359
 21
361.263676029
 31
0.0
  0
LINE
  5
406
330
1F
100
AcDbEntity
  8
0
  6
Continuous
 62
     7
370
    25
100
AcDbLine
 10
500.6178942659
 20
360.4003720477
 30
0.0
 11
500.6178942659
 21
361.2782108652
 31
0.0
  0
LWPOLYLINE
  5
407
330
1F
100
AcDbEntity
  8
0
  6
Continuous
 62
     7
370
    25
100
AcDbPolyline
 90
        3
 70
   128
 43
0.0
 10
510.9287845672
 20
367.5014365779
 10
510.8223005544
 20
367.2108539042
 10
510.8219083911
 20
367.1917216764
  0
LWPOLYLINE
  5
408
330
1F
100
AcDbEntity
  8
0
  6
Continuous
 62
     7
370
    25
100
AcDbPolyline
 90
        9
 70
   128
 43
0.0
 10
513.6219082595
 20
367.1917218664
 10
513.6037745779
 20
367.321380247
 10
513.4293254792
 20
367.6007999993
 10
513.0918075894
 20
367.8249712166
 10
512.6368047009
 20
367.9636183285
 10
512.1257682358
 20
367.9980164588
 10
511.6277156342
 20
367.9235203146
 10
511.2099126078
 20
367.7501903254
 10
510.9287845672
 20
367.5014365779
  0
LINE
  5
409
330
1F
100
AcDbEntity
  8
0
  6
Continuous
 62
     7
370
    25
100
AcDbLine
 10
512.7557404732
 20
366.7896225079
 30
0.0
 11
513.0920387385
 21
367.2575592667
 31
0.0
  0
LINE
  5
40A
330
1F
100
AcDbEntity
  8
0
  6
Continuous
 62
     7
370
    25
100
AcDbLine
 10
513.0920387385
 20
367.2575592667
 30
0.0
 11
512.5582067553
 21
367.6596586252
 31
0.0
  0
LINE
  5
40B
330
1F
100
AcDbEntity
  8
0
  6
Continuous
 62
     7
370
    25
100
AcDbLine
 10
512.5582067553
 20
367.6596586252
 30
0.0
 11
511.6880758482
 21
367.5938208448
 31
0.0
  0
LINE
  5
40C
330
1F
100
AcDbEntity
  8
0
  6
Continuous
 62
     7
370
    25
100
AcDbLine
 10
511.6880758482
 20
367.5938208448
 30
0.0
 11
511.3517779121
 21
367.1258842761
 31
0.0
  0
LINE
  5
40D
330
1F
100
AcDbEntity
  8
0
  6
Continuous
 62
     7
370
    25
100
AcDbLine
 10
511.3517779121
 20
367.1258842761
 30
0.0
 11
511.8856098953
 21
366.7237849176
 31
0.0
  0
LINE
  5
40E
330
1F
100
AcDbEntity
  8
0
  6
Continuous
 62
     7
370
    25
100
AcDbLine
 10
511.8856098953
 20
366.7237849176
 30
0.0
 11
512.7557404732
 21
366.7896225079
 31
0.0
  0
ARC
  5
40F
330
1F
100
AcDbEntity
  8
0
  6
Continuous
 62
     7
370
    25
100
AcDbCircle
 10
511.8045418968
 20
366.4736515251
 30
0.0
 40
1.856912285592761
100
AcDbArc
 50
217.7877504962
 51
262.2176260365
  0
LINE
  5
410
330
1F
100
AcDbEntity
  8
0
  6
Continuous
 62
     7
370
    25
100
AcDbLine
 10
511.6880758482
 20
366.872573504
 30
0.0
 11
511.6880758482
 21
367.5938208448
 31
0.0
  0
LINE
  5
411
330
1F
100
AcDbEntity
  8
0
  6
Continuous
 62
     7
370
    25
100
AcDbLine
 10
512.5582067553
 20
366.7746775402
 30
0.0
 11
512.5582067553
 21
367.6596586252
 31
0.0
  0
LINE
  5
412
330
1F
100
AcDbEntity
  8
0
  6
Continuous
 62
     7
370
    25
100
AcDbLine
 10
561.1890548573
 20
320.0571335917
 30
0.0
 11
560.128392536
 21
320.6694409165
 31
0.0
  0
LINE
  5
413
330
1F
100
AcDbEntity
  8
0
  6
Continuous
 62
     7
370
    25
100
AcDbLine
 10
561.1890548573
 20
312.7082666011
 30
0.0
 11
561.1890548573
 21
320.0571335917
 31
0.0
  0
ARC
  5
414
330
1F
100
AcDbEntity
  8
0
  6
Continuous
 62
     7
370
    25
100
AcDbCircle
 10
559.0336801123
 20
312.358635353
 30
0.0
 40
2.183548099101098
100
AcDbArc
 50
230.7967942105
 51
9.2139020931
  0
LINE
  5
415
330
1F
100
AcDbEntity
  8
0
  6
Continuous
 62
     7
370
    25
100
AcDbLine
 10
555.0018658857
 20
312.1973507985
 30
0.0
 11
557.6535190547
 21
310.6665840074
 31
0.0
  0
LINE
  5
416
330
1F
100
AcDbEntity
  8
0
  6
Continuous
 62
     7
370
    25
100
AcDbLine
 10
458.3050151601
 20
390.882395677
 30
0.0
 11
458.3050151601
 21
387.2093568706
 31
0.0
  0
ARC
  5
417
330
1F
100
AcDbEntity
  8
0
  6
Continuous
 62
     7
370
    25
100
AcDbCircle
 10
460.4603882117
 20
391.2320317482
 30
0.0
 40
2.183547199822932
100
AcDbArc
 50
50.7967176209
 51
189.2140341339
  0
LINE
  5
418
330
1F
100
AcDbEntity
  8
0
  6
Continuous
 62
     7
370
    25
100
AcDbLine
 10
507.9792671074
 20
366.2887666703
 30
0.0
 11
461.8405509626
 21
392.9240805521
 31
0.0
  0
LINE
  5
419
330
1F
100
AcDbEntity
  8
0
  6
Continuous
 62
     7
370
    25
100
AcDbLine
 10
507.9792671074
 20
365.4722242036
 30
0.0
 11
507.9792671074
 21
366.2887666703
 31
0.0
  0
LINE
  5
41A
330
1F
100
AcDbEntity
  8
0
  6
Continuous
 62
     7
370
    25
100
AcDbLine
 10
511.5148015929
 20
364.2477460562
 30
0.0
 11
511.5148015929
 21
363.4312035895
 31
0.0
  0
LINE
  5
41B
330
1F
100
AcDbEntity
  8
0
  6
Continuous
 62
     7
370
    25
100
AcDbLine
 10
557.6535190547
 20
337.6124314141
 30
0.0
 11
511.5148015929
 21
364.2477460562
 31
0.0
  0
ARC
  5
41C
330
1F
100
AcDbEntity
  8
0
  6
Continuous
 62
     7
370
    25
100
AcDbCircle
 10
553.5129561193
 20
331.139391193
 30
0.0
 40
7.684042629084049
100
AcDbArc
 50
2.6055343969
 51
57.39446574870001
  0
LINE
  5
41D
330
1F
100
AcDbEntity
  8
0
  6
Continuous
 62
     7
370
    25
100
AcDbLine
 10
561.1890548573
 20
324.1398383204
 30
0.0
 11
561.1890548573
 21
331.4887037901
 31
0.0
  0
LINE
  5
41E
330
1F
100
AcDbEntity
  8
0
  6
Continuous
 62
     7
370
    25
100
AcDbLine
 10
560.128392536
 20
324.7521456451
 30
0.0
 11
561.1890548573
 21
324.1398383204
 31
0.0
  0
LINE
  5
41F
330
1F
100
AcDbEntity
  8
0
  6
Continuous
 62
     7
370
    25
100
AcDbLine
 10
560.128392536
 20
320.6694409165
 30
0.0
 11
560.128392536
 21
324.7521456451
 31
0.0
  0
ARC
  5
420
330
1F
100
AcDbEntity
  8
0
  6
Continuous
 62
     7
370
    25
100
AcDbCircle
 10
553.7849072278
 20
331.324950921
 30
0.0
 40
7.813404858527433
100
AcDbArc
 50
2.8923842002
 51
51.77274238770001
  0
LINE
  5
421
330
1F
100
AcDbEntity
  8
0
  6
Continuous
 62
     7
370
    25
100
AcDbLine
 10
561.5883583806
 20
331.7192168075
 30
0.0
 11
561.1890548573
 21
331.4887037901
 31
0.0
  0
LINE
  5
422
330
1F
100
AcDbEntity
  8
0
  6
Continuous
 62
     7
370
    25
100
AcDbLine
 10
561.5883583806
 20
324.3703513378
 30
0.0
 11
561.5883583806
 21
331.7192168075
 31
0.0
  0
LINE
  5
423
330
1F
100
AcDbEntity
  8
0
  6
Continuous
 62
     7
370
    25
100
AcDbLine
 10
561.1890548573
 20
324.1398383204
 30
0.0
 11
561.5883583806
 21
324.3703513378
 31
0.0
  0
LINE
  5
424
330
1F
100
AcDbEntity
  8
0
  6
Continuous
 62
     7
370
    25
100
AcDbLine
 10
511.5148015929
 20
364.2477460562
 30
0.0
 11
511.8683550414
 21
364.4518481176
 31
0.0
  0
LINE
  5
425
330
1F
100
AcDbEntity
  8
0
  6
Continuous
 62
     7
370
    25
100
AcDbLine
 10
562.0729351859
 20
324.6921596261
 30
0.0
 11
561.5883583806
 21
324.3703513378
 31
0.0
  0
LINE
  5
426
330
1F
100
AcDbEntity
  8
0
  6
Continuous
 62
     7
370
    25
100
AcDbLine
 10
560.128392536
 20
320.6694409165
 30
0.0
 11
562.0729361737
 21
321.7920020641
 31
0.0
  0
LINE
  5
427
330
1F
100
AcDbEntity
  8
0
  6
Continuous
 62
     7
370
    25
100
AcDbLine
 10
561.5883583806
 20
312.9387796185
 30
0.0
 11
561.5883583806
 21
320.2876466091
 31
0.0
  0
LINE
  5
428
330
1F
100
AcDbEntity
  8
0
  6
Continuous
 62
     7
370
    25
100
AcDbLine
 10
561.5883583806
 20
312.9387796185
 30
0.0
 11
561.1890548573
 21
312.7082666011
 31
0.0
  0
LINE
  5
429
330
1F
100
AcDbEntity
  8
0
  6
Continuous
 62
     7
370
    25
100
AcDbLine
 10
561.1890548573
 20
320.0571335917
 30
0.0
 11
561.5883583806
 21
320.2876466091
 31
0.0
  0
LINE
  5
42A
330
1F
100
AcDbEntity
  8
0
  6
Continuous
 62
     7
370
    25
100
AcDbLine
 10
561.5883583806
 20
320.2876466091
 30
0.0
 11
562.0729351859
 21
320.6094548974
 31
0.0
  0
ARC
  5
42B
330
1F
100
AcDbEntity
  8
0
  6
Continuous
 62
     7
370
    25
100
AcDbCircle
 10
559.1237122466
 20
312.6749689461
 30
0.0
 40
2.478724800478525
100
AcDbArc
 50
305.2025834673
 51
6.109561044
  0
LINE
  5
42C
330
1F
100
AcDbEntity
  8
0
  6
Continuous
 62
     7
370
    25
100
AcDbLine
 10
508.3328781786
 20
365.2680913384
 30
0.0
 11
509.393653111
 21
365.8804636722
 31
0.0
  0
LINE
  5
42D
330
1F
100
AcDbEntity
  8
0
  6
Continuous
 62
     7
370
    25
100
AcDbLine
 10
507.9792671074
 20
366.2887666703
 30
0.0
 11
508.3328205559
 21
366.4928687317
 31
0.0
  0
ARC
  5
42E
330
1F
100
AcDbEntity
  8
0
  6
Continuous
 62
     7
370
    25
100
AcDbCircle
 10
460.7356211289
 20
391.3235519487
 30
0.0
 40
2.304701367987029
100
AcDbArc
 50
66.0015281598
 51
115.5927254255
  0
LINE
  5
42F
330
1F
100
AcDbEntity
  8
0
  6
Continuous
 62
     7
370
    25
100
AcDbLine
 10
552.8705889893
 20
330.3185984515
 30
0.0
 11
552.9956544939
 21
330.0674901308
 31
0.0
  0
LINE
  5
430
330
1F
100
AcDbEntity
  8
0
  6
Continuous
 62
     7
370
    25
100
AcDbLine
 10
553.2698925127
 20
330.5491114689
 30
0.0
 11
553.3949580173
 21
330.2980031482
 31
0.0
  0
LINE
  5
431
330
1F
100
AcDbEntity
  8
0
  6
Continuous
 62
     8
370
    25
100
AcDbLine
 10
566.8812607032
 20
338.0834817968
 30
0.0
 11
566.8812607032
 21
338.2451227471
 31
0.0
  0
LINE
  5
432
330
1F
100
AcDbEntity
  8
0
  6
Continuous
 62
     8
370
    25
100
AcDbLine
 10
566.8812607032
 20
338.2451227471
 30
0.0
 11
566.7412383357
 21
338.3259559393
 31
0.0
  0
LINE
  5
433
330
1F
100
AcDbEntity
  8
0
  6
Continuous
 62
     8
370
    25
100
AcDbLine
 10
566.7412613848
 20
309.7471980516
 30
0.0
 11
566.7412613848
 21
309.7470391148
 31
0.0
  0
LINE
  5
434
330
1F
100
AcDbEntity
  8
0
  6
Continuous
 62
     8
370
    25
100
AcDbLine
 10
549.3464351408
 20
299.991982622
 30
0.0
 11
549.3464351408
 21
299.7052196703
 31
0.0
  0
LINE
  5
435
330
1F
100
AcDbEntity
  8
0
  6
Continuous
 62
     8
370
    25
100
AcDbLine
 10
445.0828184563
 20
388.312585371
 30
0.0
 11
444.8346314705
 21
388.4558606682
 31
0.0
  0
LINE
  5
436
330
1F
100
AcDbEntity
  8
0
  6
Continuous
 62
     8
370
    25
100
AcDbLine
 10
558.0070725033
 20
337.8165334755
 30
0.0
 11
557.6535190547
 21
337.6124314141
 31
0.0
  0
LINE
  5
437
330
1F
100
AcDbEntity
  8
0
  6
Continuous
 62
     8
370
    25
100
AcDbLine
 10
564.5636055036
 20
336.7455230833
 30
0.0
 11
564.4397991361
 21
336.9973615664
 31
0.0
  0
LINE
  5
438
330
1F
100
AcDbEntity
  8
0
  6
Continuous
 62
     8
370
    25
100
AcDbLine
 10
561.5883583806
 20
331.7192168075
 30
0.0
 11
562.0729351859
 21
332.0410250958
 31
0.0
  0
LINE
  5
439
330
1F
100
AcDbEntity
  8
0
  6
Continuous
 62
     8
370
    25
100
AcDbLine
 10
562.0729351859
 20
313.2605879068
 30
0.0
 11
561.5883583806
 21
312.9387796185
 31
0.0
  0
LINE
  5
43A
330
1F
100
AcDbEntity
  8
0
  6
Continuous
 62
     8
370
    25
100
AcDbLine
 10
462.1941044111
 20
393.1281826135
 30
0.0
 11
461.8405509626
 21
392.9240805521
 31
0.0
  0
LINE
  5
45E
330
1F
100
AcDbEntity
  8
0
  6
HIDDEN
 62
     1
100
AcDbLine
 10
418.3896682189
 20
205.7745576251
 30
0.0
 11
418.3896682189
 21
189.7745576251
 31
0.0
  0
LINE
  5
461
102
{ACAD_REACTORS
330
476
102
}
330
1F
100
AcDbEntity
  8
0
  6
HIDDEN
 62
     1
100
AcDbLine
 10
409.3896682189
 20
214.7745576251
 30
0.0
 11
284.3896682189
 21
214.7745576251
 31
0.0
  0
ARC
  5
462
102
{ACAD_REACTORS
330
466
102
}
330
1F
100
AcDbEntity
  8
0
  6
HIDDEN
 62
     1
100
AcDbCircle
 10
409.3896682189
 20
205.7745576251
 30
0.0
 40
9.0
100
AcDbArc
 50
0.0
 51
90.0
  0
ENDSEC
  0
SECTION
  2
OBJECTS
  0
DICTIONARY
  5
C
330
0
100
AcDbDictionary
281
     1
  3
ACAD_GROUP
350
D
  3
ACAD_LAYOUT
350
1A
  3
ACAD_MLINESTYLE
350
17
  3
ACAD_PLOTSETTINGS
350
19
  3
ACAD_PLOTSTYLENAME
350
E
  3
ACAD_SCALELIST
350
47
  3
APPDATA
350
45C
  3
DWGPROPS
350
485
  0
DICTIONARY
  5
D
102
{ACAD_REACTORS
330
C
102
}
330
C
100
AcDbDictionary
281
     1
  0
DICTIONARY
  5
1A
102
{ACAD_REACTORS
330
C
102
}
330
C
100
AcDbDictionary
281
     1
  3
Layout1
350
1E
  3
Layout2
350
26
  3
Model
350
22
  0
DICTIONARY
  5
17
102
{ACAD_REACTORS
330
C
102
}
330
C
100
AcDbDictionary
281
     1
  3
Standard
350
18
  0
DICTIONARY
  5
19
102
{ACAD_REACTORS
330
C
102
}
330
C
100
AcDbDictionary
281
     1
  0
ACDBDICTIONARYWDFLT
  5
E
102
{ACAD_REACTORS
330
C
102
}
330
C
100
AcDbDictionary
281
     1
  3
Normal
350
F
100
AcDbDictionaryWithDefault
340
F
  0
DICTIONARY
  5
47
102
{ACAD_REACTORS
330
C
102
}
330
C
100
AcDbDictionary
281
     1
  3
A0
350
48
  3
A1
350
49
  3
A2
350
4A
  3
A3
350
4B
  3
A4
350
4C
  3
A5
350
4D
  3
A6
350
4E
  3
A7
350
4F
  3
A8
350
50
  3
A9
350
51
  3
B0
350
52
  3
B1
350
53
  3
B2
350
54
  3
B3
350
55
  3
B4
350
56
  3
B5
350
57
  3
B6
350
58
  3
B7
350
59
  3
B8
350
5A
  3
B9
350
5B
  3
C0
350
5C
  3
C1
350
5D
  3
C2
350
5E
  3
C3
350
5F
  3
C4
350
60
  3
C5
350
61
  3
C6
350
62
  3
C7
350
63
  3
C8
350
64
  3
C9
350
65
  3
D0
350
66
  3
D1
350
67
  3
D2
350
68
  0
DICTIONARY
  5
45C
102
{ACAD_REACTORS
330
C
102
}
330
C
100
AcDbDictionary
281
     1
  0
XRECORD
  5
485
102
{ACAD_REACTORS
330
C
102
}
330
C
100
AcDbXrecord
280
     1
  1
DWGPROPS COOKIE
  2

  3

  4

  6

  7

  8
raffaele
  9

300
=
301
=
302
=
303
=
304
=
305
=
306
=
307
=
308
=
309
=
 40
0.0
 41
2458829.361098924
 42
2458829.363481921
  1

 90
        0
  0
LAYOUT
  5
1E
102
{ACAD_REACTORS
330
1A
102
}
330
1A
100
AcDbPlotSettings
  1

  2
none_device
  4

  6

 40
0.0
 41
0.0
 42
0.0
 43
0.0
 44
0.0
 45
0.0
 46
0.0
 47
0.0
 48
0.0
 49
0.0
140
0.0
141
0.0
142
1.0
143
1.0
 70
   688
 72
     1
 73
     0
 74
     5
  7

 75
    16
147
1.0
148
0.0
149
0.0
100
AcDbLayout
  1
Layout1
 70
     1
 71
     1
 10
0.0
 20
0.0
 11
420.0
 21
297.0
 12
0.0
 22
0.0
 32
0.0
 14
1.000000000000000E+20
 24
1.000000000000000E+20
 34
1.000000000000000E+20
 15
-1.000000000000000E+20
 25
-1.000000000000000E+20
 35
-1.000000000000000E+20
146
0.0
 13
0.0
 23
0.0
 33
0.0
 16
1.0
 26
0.0
 36
0.0
 17
0.0
 27
1.0
 37
0.0
 76
     0
330
1B
  0
LAYOUT
  5
26
102
{ACAD_REACTORS
330
1A
102
}
330
1A
100
AcDbPlotSettings
  1

  2
none_device
  4

  6

 40
0.0
 41
0.0
 42
0.0
 43
0.0
 44
0.0
 45
0.0
 46
0.0
 47
0.0
 48
0.0
 49
0.0
140
0.0
141
0.0
142
1.0
143
1.0
 70
   688
 72
     1
 73
     0
 74
     5
  7

 75
    16
147
1.0
148
0.0
149
0.0
100
AcDbLayout
  1
Layout2
 70
     1
 71
     2
 10
0.0
 20
0.0
 11
0.0
 21
0.0
 12
0.0
 22
0.0
 32
0.0
 14
0.0
 24
0.0
 34
0.0
 15
0.0
 25
0.0
 35
0.0
146
0.0
 13
0.0
 23
0.0
 33
0.0
 16
1.0
 26
0.0
 36
0.0
 17
0.0
 27
1.0
 37
0.0
 76
     0
330
23
  0
LAYOUT
  5
22
102
{ACAD_REACTORS
330
1A
102
}
330
1A
100
AcDbPlotSettings
  1

  2
none_device
  4
Letter_(8.50_x_11.00_Inches)
  6

 40
6.35
 41
6.35
 42
6.35000508
 43
6.35000508
 44
215.9
 45
279.4
 46
0.0
 47
0.0
 48
0.0
 49
0.0
140
0.0
141
0.0
142
1.0
143
1.0
 70
  1712
 72
     1
 73
     0
 74
     0
  7

 75
     0
147
1.0
148
0.0
149
0.0
100
AcDbLayout
  1
Model
 70
     1
 71
     0
 10
0.0
 20
0.0
 11
420.0
 21
297.0
 12
0.0
 22
0.0
 32
0.0
 14
25.88556755549999
 24
90.4630623702
 34
0.0
 15
567.9398420238
 25
409.4566739538
 35
0.0
146
0.0
 13
0.0
 23
0.0
 33
0.0
 16
1.0
 26
0.0
 36
0.0
 17
0.0
 27
1.0
 37
0.0
 76
     0
330
1F
331
29
  0
MLINESTYLE
  5
18
102
{ACAD_REACTORS
330
17
102
}
330
17
100
AcDbMlineStyle
  2
Standard
 70
     0
  3

 62
   256
 51
90.0
 52
90.0
 71
     2
 49
0.5
 62
   256
  6
BYLAYER
 49
-0.5
 62
   256
  6
BYLAYER
  0
ACDBPLACEHOLDER
  5
F
102
{ACAD_REACTORS
330
E
102
}
330
E
  0
SCALE
  5
48
102
{ACAD_REACTORS
330
47
102
}
330
47
100
AcDbScale
 70
     0
300
1:1
140
1.0
141
1.0
290
     1
  0
SCALE
  5
49
102
{ACAD_REACTORS
330
47
102
}
330
47
100
AcDbScale
 70
     0
300
1:2
140
1.0
141
2.0
290
     0
  0
SCALE
  5
4A
102
{ACAD_REACTORS
330
47
102
}
330
47
100
AcDbScale
 70
     0
300
1:4
140
1.0
141
4.0
290
     0
  0
SCALE
  5
4B
102
{ACAD_REACTORS
330
47
102
}
330
47
100
AcDbScale
 70
     0
300
1:5
140
1.0
141
5.0
290
     0
  0
SCALE
  5
4C
102
{ACAD_REACTORS
330
47
102
}
330
47
100
AcDbScale
 70
     0
300
1:8
140
1.0
141
8.0
290
     0
  0
SCALE
  5
4D
102
{ACAD_REACTORS
330
47
102
}
330
47
100
AcDbScale
 70
     0
300
1:10
140
1.0
141
10.0
290
     0
  0
SCALE
  5
4E
102
{ACAD_REACTORS
330
47
102
}
330
47
100
AcDbScale
 70
     0
300
1:16
140
1.0
141
16.0
290
     0
  0
SCALE
  5
4F
102
{ACAD_REACTORS
330
47
102
}
330
47
100
AcDbScale
 70
     0
300
1:20
140
1.0
141
20.0
290
     0
  0
SCALE
  5
50
102
{ACAD_REACTORS
330
47
102
}
330
47
100
AcDbScale
 70
     0
300
1:30
140
1.0
141
30.0
290
     0
  0
SCALE
  5
51
102
{ACAD_REACTORS
330
47
102
}
330
47
100
AcDbScale
 70
     0
300
1:40
140
1.0
141
40.0
290
     0
  0
SCALE
  5
52
102
{ACAD_REACTORS
330
47
102
}
330
47
100
AcDbScale
 70
     0
300
1:50
140
1.0
141
50.0
290
     0
  0
SCALE
  5
53
102
{ACAD_REACTORS
330
47
102
}
330
47
100
AcDbScale
 70
     0
300
1:100
140
1.0
141
100.0
290
     0
  0
SCALE
  5
54
102
{ACAD_REACTORS
330
47
102
}
330
47
100
AcDbScale
 70
     0
300
2:1
140
2.0
141
1.0
290
     0
  0
SCALE
  5
55
102
{ACAD_REACTORS
330
47
102
}
330
47
100
AcDbScale
 70
     0
300
4:1
140
4.0
141
1.0
290
     0
  0
SCALE
  5
56
102
{ACAD_REACTORS
330
47
102
}
330
47
100
AcDbScale
 70
     0
300
8:1
140
8.0
141
1.0
290
     0
  0
SCALE
  5
57
102
{ACAD_REACTORS
330
47
102
}
330
47
100
AcDbScale
 70
     0
300
10:1
140
10.0
141
1.0
290
     0
  0
SCALE
  5
58
102
{ACAD_REACTORS
330
47
102
}
330
47
100
AcDbScale
 70
     0
300
100:1
140
100.0
141
1.0
290
     0
  0
SCALE
  5
59
102
{ACAD_REACTORS
330
47
102
}
330
47
100
AcDbScale
 70
     0
300
1/128" = 1'-0"
140
0.0078125
141
12.0
290
     0
  0
SCALE
  5
5A
102
{ACAD_REACTORS
330
47
102
}
330
47
100
AcDbScale
 70
     0
300
1/64" = 1'-0"
140
0.015625
141
12.0
290
     0
  0
SCALE
  5
5B
102
{ACAD_REACTORS
330
47
102
}
330
47
100
AcDbScale
 70
     0
300
1/32" = 1'-0"
140
0.03125
141
12.0
290
     0
  0
SCALE
  5
5C
102
{ACAD_REACTORS
330
47
102
}
330
47
100
AcDbScale
 70
     0
300
1/16" = 1'-0"
140
0.0625
141
12.0
290
     0
  0
SCALE
  5
5D
102
{ACAD_REACTORS
330
47
102
}
330
47
100
AcDbScale
 70
     0
300
3/32" = 1'-0"
140
0.09375
141
12.0
290
     0
  0
SCALE
  5
5E
102
{ACAD_REACTORS
330
47
102
}
330
47
100
AcDbScale
 70
     0
300
1/8" = 1'-0"
140
0.125
141
12.0
290
     0
  0
SCALE
  5
5F
102
{ACAD_REACTORS
330
47
102
}
330
47
100
AcDbScale
 70
     0
300
3/16" = 1'-0"
140
0.1875
141
12.0
290
     0
  0
SCALE
  5
60
102
{ACAD_REACTORS
330
47
102
}
330
47
100
AcDbScale
 70
     0
300
1/4" = 1'-0"
140
0.25
141
12.0
290
     0
  0
SCALE
  5
61
102
{ACAD_REACTORS
330
47
102
}
330
47
100
AcDbScale
 70
     0
300
3/8" = 1'-0"
140
0.375
141
12.0
290
     0
  0
SCALE
  5
62
102
{ACAD_REACTORS
330
47
102
}
330
47
100
AcDbScale
 70
     0
300
1/2" = 1'-0"
140
0.5
141
12.0
290
     0
  0
SCALE
  5
63
102
{ACAD_REACTORS
330
47
102
}
330
47
100
AcDbScale
 70
     0
300
3/4" = 1'-0"
140
0.75
141
12.0
290
     0
  0
SCALE
  5
64
102
{ACAD_REACTORS
330
47
102
}
330
47
100
AcDbScale
 70
     0
300
1" = 1'-0"
140
1.0
141
12.0
290
     0
  0
SCALE
  5
65
102
{ACAD_REACTORS
330
47
102
}
330
47
100
AcDbScale
 70
     0
300
1-1/2" = 1'-0"
140
1.5
141
12.0
290
     0
  0
SCALE
  5
66
102
{ACAD_REACTORS
330
47
102
}
330
47
100
AcDbScale
 70
     0
300
3" = 1'-0"
140
3.0
141
12.0
290
     0
  0
SCALE
  5
67
102
{ACAD_REACTORS
330
47
102
}
330
47
100
AcDbScale
 70
     0
300
6" = 1'-0"
140
6.0
141
12.0
290
     0
  0
SCALE
  5
68
102
{ACAD_REACTORS
330
47
102
}
330
47
100
AcDbScale
 70
     0
300
1'-0" = 1'-0"
140
12.0
141
12.0
290
     0
  0
ENDSEC
  0
EOF
