  0
SECTION
  2
HEADER
  9
$ACADVER
  1
AC1027
  9
$ACADMAINTVER
 70
   105
  9
$DWGCODEPAGE
  3
ANSI_1252
  9
$REQUIREDVERSIONS
160
                 0
  9
$LASTSAVEDBY
  1
cesare
  9
$INSBASE
 10
0.0
 20
0.0
 30
0.0
  9
$EXTMIN
 10
22.08818294190351
 20
34.69504326282416
 30
0.0
  9
$EXTMAX
 10
254.9129535016712
 20
277.8830239076281
 30
0.0
  9
$LIMMIN
 10
0.0
 20
0.0
  9
$LIMMAX
 10
210.0
 20
297.0
  9
$ORTHOMODE
 70
     0
  9
$REGENMODE
 70
     1
  9
$FILLMODE
 70
     1
  9
$QTEXTMODE
 70
     0
  9
$MIRRTEXT
 70
     1
  9
$LTSCALE
 40
1.0
  9
$ATTMODE
 70
     1
  9
$TEXTSIZE
 40
2.8
  9
$TRACEWID
 40
1.0
  9
$TEXTSTYLE
  7
Standard
  9
$CLAYER
  8
0
  9
$CELTYPE
  6
ByLayer
  9
$CECOLOR
 62
   256
  9
$CELTSCALE
 40
1.0
  9
$DISPSILH
 70
     0
  9
$DIMSCALE
 40
1.0
  9
$DIMASZ
 40
3.2
  9
$DIMEXO
 40
0.1
  9
$DIMDLI
 40
3.75
  9
$DIMRND
 40
0.0
  9
$DIMDLE
 40
0.0
  9
$DIMEXE
 40
1.0
  9
$DIMTP
 40
0.0
  9
$DIMTM
 40
0.0
  9
$DIMTXT
 40
3.2
  9
$DIMCEN
 40
2.5
  9
$DIMTSZ
 40
0.0
  9
$DIMTOL
 70
     0
  9
$DIMLIM
 70
     0
  9
$DIMTIH
 70
     1
  9
$DIMTOH
 70
     1
  9
$DIMSE1
 70
     0
  9
$DIMSE2
 70
     0
  9
$DIMTAD
 70
     1
  9
$DIMZIN
 70
     0
  9
$DIMBLK
  1

  9
$DIMASO
 70
     1
  9
$DIMSHO
 70
     1
  9
$DIMPOST
  1

  9
$DIMAPOST
  1

  9
$DIMALT
 70
     0
  9
$DIMALTD
 70
     3
  9
$DIMALTF
 40
0.0393700787401575
  9
$DIMLFAC
 40
1.0
  9
$DIMTOFL
 70
     1
  9
$DIMTVP
 40
0.0
  9
$DIMTIX
 70
     0
  9
$DIMSOXD
 70
     0
  9
$DIMSAH
 70
     0
  9
$DIMBLK1
  1

  9
$DIMBLK2
  1

  9
$DIMSTYLE
  2
ISO-25
  9
$DIMCLRD
 70
     0
  9
$DIMCLRE
 70
     0
  9
$DIMCLRT
 70
     0
  9
$DIMTFAC
 40
1.0
  9
$DIMGAP
 40
2.0
  9
$DIMJUST
 70
     0
  9
$DIMSD1
 70
     0
  9
$DIMSD2
 70
     0
  9
$DIMTOLJ
 70
     0
  9
$DIMTZIN
 70
     0
  9
$DIMALTZ
 70
     0
  9
$DIMALTTZ
 70
     0
  9
$DIMUPT
 70
     0
  9
$DIMDEC
 70
     2
  9
$DIMTDEC
 70
     2
  9
$DIMALTU
 70
     2
  9
$DIMALTTD
 70
     3
  9
$DIMTXSTY
  7
Standard
  9
$DIMAUNIT
 70
     0
  9
$DIMADEC
 70
     2
  9
$DIMALTRND
 40
0.0
  9
$DIMAZIN
 70
     0
  9
$DIMDSEP
 70
    44
  9
$DIMATFIT
 70
     3
  9
$DIMFRAC
 70
     0
  9
$DIMLDRBLK
  1

  9
$DIMLUNIT
 70
     2
  9
$DIMLWD
 70
    -2
  9
$DIMLWE
 70
    -2
  9
$DIMTMOVE
 70
     0
  9
$DIMFXL
 40
1.0
  9
$DIMFXLON
 70
     0
  9
$DIMJOGANG
 40
0.7853981633974483
  9
$DIMTFILL
 70
     0
  9
$DIMTFILLCLR
 70
     0
  9
$DIMARCSYM
 70
     0
  9
$DIMLTYPE
  6

  9
$DIMLTEX1
  6

  9
$DIMLTEX2
  6

  9
$DIMTXTDIRECTION
 70
     0
  9
$LUNITS
 70
     2
  9
$LUPREC
 70
     2
  9
$SKETCHINC
 40
1.0
  9
$FILLETRAD
 40
10.0
  9
$AUNITS
 70
     0
  9
$AUPREC
 70
     2
  9
$MENU
  1
.
  9
$ELEVATION
 40
0.0
  9
$PELEVATION
 40
0.0
  9
$THICKNESS
 40
0.0
  9
$LIMCHECK
 70
     0
  9
$CHAMFERA
 40
0.0
  9
$CHAMFERB
 40
0.0
  9
$CHAMFERC
 40
0.0
  9
$CHAMFERD
 40
0.0
  9
$SKPOLY
 70
     0
  9
$TDCREATE
 40
2457819.592040324
  9
$TDUCREATE
 40
2457819.550373658
  9
$TDUPDATE
 40
2457819.596695764
  9
$TDUUPDATE
 40
2457819.555029097
  9
$TDINDWG
 40
0.0031741551
  9
$TDUSRTIMER
 40
2457819.551854479
  9
$USRTIMER
 70
     1
  9
$ANGBASE
 50
0.0
  9
$ANGDIR
 70
     0
  9
$PDMODE
 70
     0
  9
$PDSIZE
 40
-1.0
  9
$PLINEWID
 40
0.0
  9
$SPLFRAME
 70
     0
  9
$SPLINETYPE
 70
     6
  9
$SPLINESEGS
 70
     8
  9
$HANDSEED
  5
271
  9
$SURFTAB1
 70
     6
  9
$SURFTAB2
 70
     6
  9
$SURFTYPE
 70
     6
  9
$SURFU
 70
     6
  9
$SURFV
 70
     6
  9
$UCSBASE
  2

  9
$UCSNAME
  2

  9
$UCSORG
 10
0.0
 20
0.0
 30
0.0
  9
$UCSXDIR
 10
1.0
 20
0.0
 30
0.0
  9
$UCSYDIR
 10
0.0
 20
1.0
 30
0.0
  9
$UCSORTHOREF
  2

  9
$UCSORTHOVIEW
 70
     0
  9
$UCSORGTOP
 10
0.0
 20
0.0
 30
0.0
  9
$UCSORGBOTTOM
 10
0.0
 20
0.0
 30
0.0
  9
$UCSORGLEFT
 10
0.0
 20
0.0
 30
0.0
  9
$UCSORGRIGHT
 10
0.0
 20
0.0
 30
0.0
  9
$UCSORGFRONT
 10
0.0
 20
0.0
 30
0.0
  9
$UCSORGBACK
 10
0.0
 20
0.0
 30
0.0
  9
$PUCSBASE
  2

  9
$PUCSNAME
  2

  9
$PUCSORG
 10
0.0
 20
0.0
 30
0.0
  9
$PUCSXDIR
 10
1.0
 20
0.0
 30
0.0
  9
$PUCSYDIR
 10
0.0
 20
1.0
 30
0.0
  9
$PUCSORTHOREF
  2

  9
$PUCSORTHOVIEW
 70
     0
  9
$PUCSORGTOP
 10
0.0
 20
0.0
 30
0.0
  9
$PUCSORGBOTTOM
 10
0.0
 20
0.0
 30
0.0
  9
$PUCSORGLEFT
 10
0.0
 20
0.0
 30
0.0
  9
$PUCSORGRIGHT
 10
0.0
 20
0.0
 30
0.0
  9
$PUCSORGFRONT
 10
0.0
 20
0.0
 30
0.0
  9
$PUCSORGBACK
 10
0.0
 20
0.0
 30
0.0
  9
$USERI1
 70
     0
  9
$USERI2
 70
     0
  9
$USERI3
 70
     0
  9
$USERI4
 70
     0
  9
$USERI5
 70
     0
  9
$USERR1
 40
0.0
  9
$USERR2
 40
0.0
  9
$USERR3
 40
0.0
  9
$USERR4
 40
0.0
  9
$USERR5
 40
0.0
  9
$WORLDVIEW
 70
     1
  9
$SHADEDGE
 70
     3
  9
$SHADEDIF
 70
    70
  9
$TILEMODE
 70
     1
  9
$MAXACTVP
 70
    64
  9
$PINSBASE
 10
0.0
 20
0.0
 30
0.0
  9
$PLIMCHECK
 70
     0
  9
$PEXTMIN
 10
1.000000000000000E+20
 20
1.000000000000000E+20
 30
1.000000000000000E+20
  9
$PEXTMAX
 10
-1.000000000000000E+20
 20
-1.000000000000000E+20
 30
-1.000000000000000E+20
  9
$PLIMMIN
 10
-5.0
 20
-5.0
  9
$PLIMMAX
 10
205.0
 20
292.0
  9
$UNITMODE
 70
     0
  9
$VISRETAIN
 70
     1
  9
$PLINEGEN
 70
     0
  9
$PSLTSCALE
 70
     1
  9
$TREEDEPTH
 70
  3020
  9
$CMLSTYLE
  2
Standard
  9
$CMLJUST
 70
     0
  9
$CMLSCALE
 40
20.0
  9
$PROXYGRAPHICS
 70
     1
  9
$MEASUREMENT
 70
     1
  9
$CELWEIGHT
370
    -1
  9
$ENDCAPS
280
     0
  9
$JOINSTYLE
280
     0
  9
$LWDISPLAY
290
     1
  9
$INSUNITS
 70
     4
  9
$HYPERLINKBASE
  1

  9
$STYLESHEET
  1

  9
$XEDIT
290
     1
  9
$CEPSNTYPE
380
     0
  9
$PSTYLEMODE
290
     1
  9
$FINGERPRINTGUID
  2
{07AEF559-60C2-46C8-8FB4-A7B6529D92F7}
  9
$VERSIONGUID
  2
{FAEB1C32-E019-11D5-929B-00C0DF256EC4}
  9
$EXTNAMES
290
     1
  9
$PSVPSCALE
 40
0.0
  9
$OLESTARTUP
290
     0
  9
$SORTENTS
280
   127
  9
$INDEXCTL
280
     0
  9
$HIDETEXT
280
     1
  9
$XCLIPFRAME
280
     2
  9
$HALOGAP
280
     0
  9
$OBSCOLOR
 70
   257
  9
$OBSLTYPE
280
     0
  9
$INTERSECTIONDISPLAY
280
     0
  9
$INTERSECTIONCOLOR
 70
   257
  9
$DIMASSOC
280
     2
  9
$PROJECTNAME
  1

  9
$CAMERADISPLAY
290
     0
  9
$LENSLENGTH
 40
50.0
  9
$CAMERAHEIGHT
 40
0.0
  9
$STEPSPERSEC
 40
2.0
  9
$STEPSIZE
 40
6.0
  9
$3DDWFPREC
 40
2.0
  9
$PSOLWIDTH
 40
0.25
  9
$PSOLHEIGHT
 40
4.0
  9
$LOFTANG1
 40
1.570796326794897
  9
$LOFTANG2
 40
1.570796326794897
  9
$LOFTMAG1
 40
0.0
  9
$LOFTMAG2
 40
0.0
  9
$LOFTPARAM
 70
     7
  9
$LOFTNORMALS
280
     1
  9
$LATITUDE
 40
37.795
  9
$LONGITUDE
 40
-122.394
  9
$NORTHDIRECTION
 40
0.0
  9
$TIMEZONE
 70
 -8000
  9
$LIGHTGLYPHDISPLAY
280
     1
  9
$TILEMODELIGHTSYNCH
280
     1
  9
$SOLIDHIST
280
     0
  9
$SHOWHIST
280
     1
  9
$DWFFRAME
280
     2
  9
$DGNFRAME
280
     2
  9
$REALWORLDSCALE
290
     1
  9
$INTERFERECOLOR
 62
   256
  9
$CSHADOW
280
     0
  9
$SHADOWPLANELOCATION
 40
0.0
  0
ENDSEC
  0
SECTION
  2
CLASSES
  0
CLASS
  1
ACDBDICTIONARYWDFLT
  2
AcDbDictionaryWithDefault
  3
ObjectDBX Classes
 90
        0
 91
        6
280
     0
281
     0
  0
CLASS
  1
VISUALSTYLE
  2
AcDbVisualStyle
  3
ObjectDBX Classes
 90
     4095
 91
        6
280
     0
281
     0
  0
CLASS
  1
MATERIAL
  2
AcDbMaterial
  3
ObjectDBX Classes
 90
     1153
 91
        6
280
     0
281
     0
  0
CLASS
  1
SCALE
  2
AcDbScale
  3
ObjectDBX Classes
 90
     1153
 91
        6
280
     0
281
     0
  0
CLASS
  1
TABLESTYLE
  2
AcDbTableStyle
  3
ObjectDBX Classes
 90
     4095
 91
        6
280
     0
281
     0
  0
CLASS
  1
MLEADERSTYLE
  2
AcDbMLeaderStyle
  3
ACDB_MLEADERSTYLE_CLASS
 90
     4095
 91
        6
280
     0
281
     0
  0
CLASS
  1
SUN
  2
AcDbSun
  3
SCENEOE
 90
     1153
 91
        6
280
     0
281
     0
  0
CLASS
  1
ACDBPLACEHOLDER
  2
AcDbPlaceHolder
  3
ObjectDBX Classes
 90
        0
 91
        1
280
     0
281
     0
  0
CLASS
  1
LAYOUT
  2
AcDbLayout
  3
ObjectDBX Classes
 90
        0
 91
        1
280
     0
281
     0
  0
CLASS
  1
RASTERVARIABLES
  2
AcDbRasterVariables
  3
ISM
 90
        0
 91
        6
280
     0
281
     0
  0
CLASS
  1
DICTIONARYVAR
  2
AcDbDictionaryVar
  3
ObjectDBX Classes
 90
        0
 91
        6
280
     0
281
     0
  0
CLASS
  1
CELLSTYLEMAP
  2
AcDbCellStyleMap
  3
ObjectDBX Classes
 90
     1152
 91
        6
280
     0
281
     0
  0
ENDSEC
  0
SECTION
  2
TABLES
  0
TABLE
  2
VPORT
  5
8
330
0
100
AcDbSymbolTable
 70
     1
  0
VPORT
  5
29
330
8
100
AcDbSymbolTableRecord
100
AcDbViewportTableRecord
  2
*Active
 70
     0
 10
0.0
 20
0.0
 11
1.0
 21
1.0
 12
180.6482879066534
 22
162.5301444771968
 13
0.0
 23
0.0
 14
10.0
 24
10.0
 15
10.0
 25
10.0
 16
0.0
 26
0.0
 36
1.0
 17
0.0
 27
0.0
 37
0.0
 40
387.5776477168781
 41
2.128133704735376
 42
50.0
 43
0.0
 44
0.0
 50
0.0
 51
0.0
 71
    16
 72
  2000
 73
     1
 74
     3
 75
     0
 76
     0
 77
     0
 78
     0
281
     0
 65
     1
110
0.0
120
0.0
130
0.0
111
1.0
121
0.0
131
0.0
112
0.0
122
1.0
132
0.0
 79
     0
146
0.0
348
21B
 60
     3
 61
     5
292
     1
282
     1
141
0.0
142
0.0
 63
   256
361
238
  0
ENDTAB
  0
TABLE
  2
LTYPE
  5
5
330
0
100
AcDbSymbolTable
 70
     6
  0
LTYPE
  5
14
330
5
100
AcDbSymbolTableRecord
100
AcDbLinetypeTableRecord
  2
ByBlock
 70
     0
  3

 72
    65
 73
     0
 40
0.0
  0
LTYPE
  5
15
330
5
100
AcDbSymbolTableRecord
100
AcDbLinetypeTableRecord
  2
ByLayer
 70
     0
  3

 72
    65
 73
     0
 40
0.0
  0
LTYPE
  5
16
330
5
100
AcDbSymbolTableRecord
100
AcDbLinetypeTableRecord
  2
Continuous
 70
     0
  3
Solid line
 72
    65
 73
     0
 40
0.0
  0
LTYPE
  5
6E
330
5
100
AcDbSymbolTableRecord
100
AcDbLinetypeTableRecord
  2
HIDDEN
 70
     0
  3
Hidden __ __ __ __ __ __ __ __ __ __ __ __ __ __
 72
    65
 73
     2
 40
1.905
 49
1.27
 74
     0
 49
-0.635
 74
     0
  0
LTYPE
  5
6F
330
5
100
AcDbSymbolTableRecord
100
AcDbLinetypeTableRecord
  2
PHANTOM
 70
     0
  3
Phantom ______  __  __  ______  __  __  ______
 72
    65
 73
     6
 40
12.7
 49
6.35
 74
     0
 49
-1.27
 74
     0
 49
1.27
 74
     0
 49
-1.27
 74
     0
 49
1.27
 74
     0
 49
-1.27
 74
     0
  0
LTYPE
  5
70
330
5
100
AcDbSymbolTableRecord
100
AcDbLinetypeTableRecord
  2
CENTER
 70
     0
  3
Center ____ _ ____ _ ____ _ ____ _ ____ _ ____
 72
    65
 73
     4
 40
10.16
 49
6.35
 74
     0
 49
-1.27
 74
     0
 49
1.27
 74
     0
 49
-1.27
 74
     0
  0
LTYPE
  5
71
330
5
100
AcDbSymbolTableRecord
100
AcDbLinetypeTableRecord
  2
CENTERX2
 70
     0
  3
Center (2x) ________  __  ________  __  _____
 72
    65
 73
     4
 40
20.32
 49
12.7
 74
     0
 49
-2.54
 74
     0
 49
2.54
 74
     0
 49
-2.54
 74
     0
  0
LTYPE
  5
72
330
5
100
AcDbSymbolTableRecord
100
AcDbLinetypeTableRecord
  2
DOT2
 70
     0
  3
Dot (.5x) ........................................
 72
    65
 73
     2
 40
0.635
 49
0.0
 74
     0
 49
-0.635
 74
     0
  0
ENDTAB
  0
TABLE
  2
LAYER
  5
2
330
0
100
AcDbSymbolTable
 70
     3
  0
LAYER
  5
10
330
2
100
AcDbSymbolTableRecord
100
AcDbLayerTableRecord
  2
0
 70
     0
 62
     7
  6
Continuous
370
    -3
390
F
347
232
348
0
  0
LAYER
  5
73
330
2
100
AcDbSymbolTableRecord
100
AcDbLayerTableRecord
  2
FORMAT
 70
     0
 62
     7
  6
Continuous
370
    -3
390
F
347
232
348
0
  0
LAYER
  5
26A
330
2
100
AcDbSymbolTableRecord
100
AcDbLayerTableRecord
  2
Defpoints
 70
     0
 62
     7
  6
Continuous
290
     0
370
    -3
390
F
347
232
348
0
  0
ENDTAB
  0
TABLE
  2
STYLE
  5
3
330
0
100
AcDbSymbolTable
 70
     2
  0
STYLE
  5
11
330
3
100
AcDbSymbolTableRecord
100
AcDbTextStyleTableRecord
  2
Standard
 70
     0
 40
0.0
 41
1.0
 50
0.0
 71
     0
 42
2.8
  3
txt
  4

  0
STYLE
  5
DA
330
3
100
AcDbSymbolTableRecord
100
AcDbTextStyleTableRecord
  2
SLDTEXTSTYLE0
 70
     0
 40
0.0
 41
0.75
 50
0.0
 71
     0
 42
2.8
  3
TXT
  4

  0
ENDTAB
  0
TABLE
  2
VIEW
  5
6
330
0
100
AcDbSymbolTable
 70
     0
  0
ENDTAB
  0
TABLE
  2
UCS
  5
7
330
0
100
AcDbSymbolTable
 70
     0
  0
ENDTAB
  0
TABLE
  2
APPID
  5
9
330
0
100
AcDbSymbolTable
 70
     1
  0
APPID
  5
12
330
9
100
AcDbSymbolTableRecord
100
AcDbRegAppTableRecord
  2
ACAD
 70
     0
  0
ENDTAB
  0
TABLE
  2
DIMSTYLE
  5
A
330
0
100
AcDbSymbolTable
 70
     1
100
AcDbDimStyleTable
  0
DIMSTYLE
105
27
330
A
100
AcDbSymbolTableRecord
100
AcDbDimStyleTableRecord
  2
ISO-25
 70
     0
 41
2.5
 42
0.625
 43
3.75
 44
1.25
 73
     0
 74
     0
 77
     1
 78
     8
140
2.5
141
2.5
143
0.03937007874016
147
0.625
171
     3
172
     1
178
     0
271
     2
272
     2
274
     3
278
    44
283
     0
284
     8
340
11
  0
ENDTAB
  0
TABLE
  2
BLOCK_RECORD
  5
1
330
0
100
AcDbSymbolTable
 70
     2
  0
BLOCK_RECORD
  5
1F
330
1
100
AcDbSymbolTableRecord
100
AcDbBlockTableRecord
  2
*Model_Space
340
22
 70
     0
280
     1
281
     0
  0
BLOCK_RECORD
  5
1B
330
1
100
AcDbSymbolTableRecord
100
AcDbBlockTableRecord
  2
*Paper_Space
340
1E
 70
     0
280
     1
281
     0
  0
BLOCK_RECORD
  5
23
330
1
100
AcDbSymbolTableRecord
100
AcDbBlockTableRecord
  2
*Paper_Space0
340
26
 70
     0
280
     1
281
     0
  0
ENDTAB
  0
ENDSEC
  0
SECTION
  2
BLOCKS
  0
BLOCK
  5
20
330
1F
100
AcDbEntity
  8
0
100
AcDbBlockBegin
  2
*Model_Space
 70
     0
 10
0.0
 20
0.0
 30
0.0
  3
*Model_Space
  1

  0
ENDBLK
  5
21
330
1F
100
AcDbEntity
  8
0
100
AcDbBlockEnd
  0
BLOCK
  5
1C
330
1B
100
AcDbEntity
 67
     1
  8
0
100
AcDbBlockBegin
  2
*Paper_Space
 70
     0
 10
0.0
 20
0.0
 30
0.0
  3
*Paper_Space
  1

  0
ENDBLK
  5
1D
330
1B
100
AcDbEntity
 67
     1
  8
0
100
AcDbBlockEnd
  0
BLOCK
  5
24
330
23
100
AcDbEntity
  8
0
100
AcDbBlockBegin
  2
*Paper_Space0
 70
     0
 10
0.0
 20
0.0
 30
0.0
  3
*Paper_Space0
  1

  0
ENDBLK
  5
25
330
23
100
AcDbEntity
  8
0
100
AcDbBlockEnd
  0
ENDSEC
  0
SECTION
  2
ENTITIES
  0
SPLINE
  5
74
330
1F
100
AcDbEntity
  8
0
  6
Continuous
 62
     7
370
    15
100
AcDbSpline
210
0.0
220
0.0
230
1.0
 70
     8
 71
     3
 72
    26
 73
    22
 74
     0
 42
0.000000001
 43
0.00000001
 40
0.0
 40
0.0
 40
0.0
 40
0.0
 40
0.0198095713550215
 40
0.0721356496772521
 40
0.1244786804933864
 40
0.1771239134095132
 40
0.2303403408633516
 40
0.2843466698829759
 40
0.339290445813617
 40
0.3952309769850053
 40
0.4521326566825323
 40
0.5098748731198282
 40
0.5682791140270996
 40
0.6271455389001874
 40
0.6862866779697536
 40
0.7455489315989455
 40
0.8047985746428402
 40
0.8639663296079676
 40
0.923017581728004
 40
0.9819373832585161
 40
1.0
 40
1.0
 40
1.0
 40
1.0
 10
70.69665723760626
 20
242.9153299953044
 30
0.0
 10
70.69886817195805
 20
243.0037941816923
 30
0.0
 10
70.7069191884592
 20
243.3259324775641
 30
0.0
 10
70.64634349115519
 20
243.8808196545532
 30
0.0
 10
70.51660256730663
 20
244.5741707805621
 30
0.0
 10
70.31253130129289
 20
245.2586106481784
 30
0.0
 10
70.0404608534007
 20
245.9330462498427
 30
0.0
 10
69.69875761485568
 20
246.5964438694197
 30
0.0
 10
69.28763144797236
 20
247.2474807928921
 30
0.0
 10
68.80688506687409
 20
247.8843793576233
 30
0.0
 10
68.25701122503004
 20
248.5048456128504
 30
0.0
 10
67.63930334326504
 20
249.1061735247013
 30
0.0
 10
66.95602105896037
 20
249.6854790348766
 30
0.0
 10
66.21027329447719
 20
250.2399899456068
 30
0.0
 10
65.40572733856139
 20
250.7672480833455
 30
0.0
 10
64.546513967901
 20
251.265258181255
 30
0.0
 10
63.63649534735942
 20
251.732209812242
 30
0.0
 10
62.68057840520883
 20
252.1677631271226
 30
0.0
 10
61.67904685331646
 20
252.5679315119601
 30
0.0
 10
60.88569259684074
 20
252.8571259137021
 30
0.0
 10
60.41520412831594
 20
253.0014951369712
 30
0.0
 10
60.30481200139905
 20
253.0353689228005
 30
0.0
  0
SPLINE
  5
75
330
1F
100
AcDbEntity
  8
0
  6
Continuous
 62
     7
370
    15
100
AcDbSpline
210
0.0
220
0.0
230
1.0
 70
     8
 71
     3
 72
    25
 73
    21
 74
     0
 42
0.000000001
 43
0.00000001
 40
0.0
 40
0.0
 40
0.0
 40
0.0
 40
0.0491365027097858
 40
0.1080804624326238
 40
0.1671844238666927
 40
0.2264536448605078
 40
0.2858831939510152
 40
0.3454518302725069
 40
0.405113727507288
 40
0.4647604801717873
 40
0.5242436216526039
 40
0.5833754609634763
 40
0.6419340318666141
 40
0.6996948207351898
 40
0.7564760737967327
 40
0.8121820320582418
 40
0.8668268752551588
 40
0.9205327685562528
 40
0.973508582459938
 40
1.0
 40
1.0
 40
1.0
 40
1.0
 10
38.10758609800791
 20
253.0377685239043
 30
0.0
 10
37.81183468366712
 20
252.9415805275919
 30
0.0
 10
37.16130100983513
 20
252.7300057807418
 30
0.0
 10
36.20232103377133
 20
252.3626972030064
 30
0.0
 10
35.22451511883605
 20
251.9442307219845
 30
0.0
 10
34.29148130886382
 20
251.4918126092037
 30
0.0
 10
33.40514095123889
 20
251.0071077152874
 30
0.0
 10
32.56921361552475
 20
250.4903164933543
 30
0.0
 10
31.78725602244034
 20
249.9422818961078
 30
0.0
 10
31.06323227625964
 20
249.364120418091
 30
0.0
 10
30.40127581376225
 20
248.7575389359688
 30
0.0
 10
29.80549460079476
 20
248.1248845611896
 30
0.0
 10
29.27970503664695
 20
247.4692592329153
 30
0.0
 10
28.82713779887211
 20
246.7944820200496
 30
0.0
 10
28.44992038309627
 20
246.1048484597009
 30
0.0
 10
28.14950936867557
 20
245.4047687664332
 30
0.0
 10
27.92453476714422
 20
244.6984124250999
 30
0.0
 10
27.77913054600847
 20
243.9894549086804
 30
0.0
 10
27.70783375808388
 20
243.3968079039908
 30
0.0
 10
27.71254269313344
 20
243.0419925754945
 30
0.0
 10
27.71411247683297
 20
242.9237103496507
 30
0.0
  0
LINE
  5
76
330
1F
100
AcDbEntity
  8
0
  6
Continuous
 62
     7
370
    15
100
AcDbLine
 10
27.70511742892456
 20
242.9163620984468
 30
0.0
 11
27.70511742892456
 21
239.8852731852012
 31
0.0
  0
LINE
  5
77
330
1F
100
AcDbEntity
  8
0
  6
Continuous
 62
     7
370
    15
100
AcDbLine
 10
70.70511742892455
 20
239.8852731852012
 30
0.0
 11
70.70511742892455
 21
242.9163620984468
 31
0.0
  0
LINE
  5
78
330
1F
100
AcDbEntity
  8
0
  6
Continuous
 62
     7
370
    15
100
AcDbLine
 10
37.78137448663225
 20
246.3020991652795
 30
0.0
 11
37.70844545677604
 21
244.786736408009
 31
0.0
  0
LINE
  5
79
330
1F
100
AcDbEntity
  8
0
  6
Continuous
 62
     7
370
    15
100
AcDbLine
 10
37.82909609729612
 20
247.2936871743284
 30
0.0
 11
37.78137448663225
 21
246.3020991652795
 31
0.0
  0
LINE
  5
7A
330
1F
100
AcDbEntity
  8
0
  6
Continuous
 62
     7
370
    15
100
AcDbLine
 10
60.70178940107307
 20
244.786736408009
 30
0.0
 11
59.95200644636773
 21
260.3661725781728
 31
0.0
  0
LINE
  5
7B
330
1F
100
AcDbEntity
  8
0
  6
Continuous
 62
     7
370
    15
100
AcDbLine
 10
39.20511742892455
 20
230.3688400298641
 30
0.0
 11
39.20511742892455
 21
228.8867505571389
 31
0.0
  0
LINE
  5
7C
330
1F
100
AcDbEntity
  8
0
  6
Continuous
 62
     7
370
    15
100
AcDbLine
 10
58.20511742892456
 20
224.5566235382167
 30
0.0
 11
58.20511742892456
 21
226.7073010853686
 31
0.0
  0
LINE
  5
7D
330
1F
100
AcDbEntity
  8
0
  6
Continuous
 62
     7
370
    15
100
AcDbLine
 10
40.20511742892455
 20
226.7073010853686
 30
0.0
 11
40.20511742892455
 21
224.5566235382167
 31
0.0
  0
LINE
  5
7E
330
1F
100
AcDbEntity
  8
0
  6
Continuous
 62
     7
370
    15
100
AcDbLine
 10
39.20511742892455
 20
224.5566235382167
 30
0.0
 11
39.20511742892455
 21
220.6595092211867
 31
0.0
  0
LINE
  5
7F
330
1F
100
AcDbEntity
  8
0
  6
Continuous
 62
     7
370
    15
100
AcDbLine
 10
59.20511742892456
 20
228.8867505571389
 30
0.0
 11
59.20511742892456
 21
230.3688400298641
 31
0.0
  0
LINE
  5
80
330
1F
100
AcDbEntity
  8
0
  6
Continuous
 62
     7
370
    15
100
AcDbLine
 10
43.54710461275398
 20
216.5368010405108
 30
0.0
 11
46.37527251669135
 21
215.5664552419794
 31
0.0
  0
LINE
  5
81
330
1F
100
AcDbEntity
  8
0
  6
Continuous
 62
     7
370
    15
100
AcDbLine
 10
52.03496234115776
 20
215.5664552419794
 30
0.0
 11
54.3127814645971
 21
216.3479761032997
 31
0.0
  0
LINE
  5
82
330
1F
100
AcDbEntity
  8
0
  6
Continuous
 62
     7
370
    15
100
AcDbLine
 10
59.20511742892456
 20
220.6595092211867
 30
0.0
 11
59.20511742892456
 21
224.5566235382167
 31
0.0
  0
LWPOLYLINE
  5
83
330
1F
100
AcDbEntity
  8
0
  6
Continuous
 62
     7
370
    15
100
AcDbPolyline
 90
       44
 70
   128
 43
0.0
 10
30.58557124755914
 20
234.5102731852012
 10
31.27556692062762
 20
233.9527101098849
 10
32.03226169920364
 20
233.4172165588607
 10
32.85284062901103
 20
232.9057846033098
 10
33.73425110253513
 20
232.4203168036979
 10
34.67321421492317
 20
231.9626191321251
 10
35.66623696172579
 20
231.5343942539913
 10
36.70962523310292
 20
231.1372351939691
 10
37.7994975561551
 20
230.7726194098473
 10
38.93179953425751
 20
230.4419032962909
 10
40.10231892968179
 20
230.1463171389637
 10
41.30670133339699
 20
229.8869605377853
 10
42.5404663637572
 20
229.6647983163465
 10
43.79902433381552
 20
229.4806569327028
 10
45.077693325261
 20
229.3352214048959
 10
46.37171660546219
 20
229.2290327626413
 10
47.67628032282503
 20
229.1624860346627
 10
48.98653141463691
 20
229.1358287791591
 10
50.29759566077871
 20
229.1491601628718
 10
51.60459581614381
 20
229.2024305921777
 10
52.90266975431021
 20
229.295441897581
 10
54.18698855497016
 20
229.4278480709167
 10
55.45277446783086
 20
229.5991565525234
 10
56.69531868615938
 20
229.808730063598
 10
57.90999886385298
 20
230.0557889769144
 10
59.0922963108702
 20
230.3394142170883
 10
60.23781280305455
 20
230.6585506795976
 10
61.34228694381738
 20
231.0120111558408
 10
62.40161001681294
 20
231.398480749631
 10
63.41184127063311
 20
231.8165217686958
 10
64.36922257866148
 20
232.2645790729874
 10
65.2701924195512
 20
232.7409858599052
 10
66.11139912631823
 20
233.2439698649114
 10
66.8897133547628
 20
233.7716599544713
 10
67.60223972483524
 20
234.3220930867929
 10
68.24632759163998
 20
234.8932216144715
 10
68.81958090600871
 20
235.4829209018721
 10
69.31986712796053
 20
236.0889972289142
 10
69.74532515989092
 20
236.7091959518539
 10
70.09437226997693
 20
237.3412098907071
 10
70.36570998004352
 20
237.9826879121104
 10
70.55832889598773
 20
238.6312436756918
 10
70.67151246279099
 20
239.2844645114135
 10
70.70511742892455
 20
239.8852731852012
  0
ARC
  5
84
330
1F
100
AcDbEntity
  8
0
  6
Continuous
 62
     7
370
    15
100
AcDbCircle
 10
34.98167490594472
 20
240.3254533099553
 30
0.0
 40
7.289859207049654
100
AcDbArc
 50
183.4617697956745
 51
232.9118010683542
  0
ARC
  5
85
330
1F
100
AcDbEntity
  8
0
  6
Continuous
 62
     7
370
    15
100
AcDbCircle
 10
49.87133610387678
 20
250.6380712874561
 30
0.0
 40
9.322933691240099
100
AcDbArc
 50
273.9202670627503
 51
298.2839604412242
  0
ELLIPSE
  5
86
330
1F
100
AcDbEntity
  8
0
  6
Continuous
 62
     7
370
    15
100
AcDbEllipse
 10
70.8545519563277
 20
-497.7670072230337
 30
0.0
 11
-23.10043131395236
 21
920.0152420262986
 31
0.0
210
0.0
220
0.0
230
1.0
 40
0.0155845648106824
 41
0.6109430281372634
 42
0.6378005292710424
  0
SPLINE
  5
87
330
1F
100
AcDbEntity
  8
0
  6
Continuous
 62
     7
370
    15
100
AcDbSpline
210
0.0
220
0.0
230
1.0
 70
     8
 71
     3
 72
    10
 73
     6
 74
     0
 42
0.000000001
 43
0.00000001
 40
0.0
 40
0.0
 40
0.0
 40
0.0
 40
0.3802008209481725
 40
0.7713555381988354
 40
1.0
 40
1.0
 40
1.0
 40
1.0
 10
43.75820132300139
 20
241.1656216797571
 30
0.0
 10
43.76913592375615
 20
240.9549535736505
 30
0.0
 10
43.79132016004777
 20
240.5275478411694
 30
0.0
 10
43.93111095902601
 20
239.9599420546356
 30
0.0
 10
44.06693149548786
 20
239.6179794306132
 30
0.0
 10
44.11703581074103
 20
239.4918291181115
 30
0.0
  0
LWPOLYLINE
  5
88
330
1F
100
AcDbEntity
  8
0
  6
Continuous
 62
     7
370
    15
100
AcDbPolyline
 90
       15
 70
   128
 43
0.0
 10
44.11703581074103
 20
239.4918291181115
 10
43.26845320288457
 20
239.7238312520257
 10
42.46186008928688
 20
239.9906645108299
 10
41.70296143078505
 20
240.2904416067877
 10
40.99712484960779
 20
240.6210422433537
 10
40.34934266466428
 20
240.980128111841
 10
39.76419658131967
 20
241.3651594300691
 10
39.24582528540352
 20
241.7734129060156
 10
38.79789517065564
 20
242.2020009994169
 10
38.42357440665165
 20
242.6478923450817
 10
38.12551053062333
 20
243.1079331934654
 10
37.90581172166499
 20
243.5788697168583
 10
37.76603188977157
 20
244.0573710234175
 10
37.70715968517242
 20
244.5400527162661
 10
37.70844545677604
 20
244.786736408009
  0
ELLIPSE
  5
89
330
1F
100
AcDbEntity
  8
0
  6
Continuous
 62
     7
370
    15
100
AcDbEllipse
 10
27.55568290152142
 20
-460.2690866664356
 30
0.0
 11
23.23100670632094
 21
879.9035910000013
 31
0.0
210
0.0
220
0.0
230
1.0
 40
0.0160534558042812
 41
0.6119619170955806
 42
0.6369985225528693
  0
LWPOLYLINE
  5
8A
330
1F
100
AcDbEntity
  8
0
  6
Continuous
 62
     7
370
    15
100
AcDbPolyline
 90
       12
 70
   128
 43
0.0
 10
43.70794330232467
 20
255.6177908118101
 10
42.87548591341859
 20
255.8923832977048
 10
42.09750454094623
 20
256.2043666392752
 10
41.38069488684976
 20
256.5510557497826
 10
40.73122617826365
 20
256.9294668470536
 10
40.15468807201945
 20
257.3363431334208
 10
39.65604254722664
 20
257.7681828253747
 10
39.23958119996573
 20
258.221269291687
 10
38.9088883076377
 20
258.6917030406218
 10
38.66680998085621
 20
259.1754352809382
 10
38.51542966837743
 20
259.6683027678395
 10
38.45605022588422
 20
260.1660636339672
  0
LINE
  5
8B
330
1F
100
AcDbEntity
  8
0
  6
Continuous
 62
     7
370
    15
100
AcDbLine
 10
59.95418463196489
 20
260.3076767143039
 30
0.0
 11
43.70794330232467
 21
255.6177908118101
 31
0.0
  0
ELLIPSE
  5
8C
330
1F
100
AcDbEntity
  8
0
  6
Continuous
 62
     7
370
    15
100
AcDbEllipse
 10
70.8545519563277
 20
-497.7670072230337
 30
0.0
 11
-23.10043131395236
 21
920.0152420262986
 31
0.0
210
0.0
220
0.0
230
1.0
 40
0.0155845648106824
 41
5.653540750519831
 42
5.680398251653638
  0
LINE
  5
8D
330
1F
100
AcDbEntity
  8
0
  6
Continuous
 62
     7
370
    15
100
AcDbLine
 10
54.70229155552445
 20
264.8559495364609
 30
0.0
 11
38.45605022588422
 21
260.1660636339672
 31
0.0
  0
LWPOLYLINE
  5
8E
330
1F
100
AcDbEntity
  8
0
  6
Continuous
 62
     7
370
    15
100
AcDbPolyline
 90
       12
 70
   128
 43
0.0
 10
54.70229155552445
 20
264.8559495364609
 10
55.53474894443052
 20
264.5813570505662
 10
56.31273031690289
 20
264.2693737089959
 10
57.02953997099934
 20
263.9226845984884
 10
57.67900867958546
 20
263.5442735012175
 10
58.25554678582966
 20
263.1373972148503
 10
58.75419231062247
 20
262.7055575228963
 10
59.17065365788338
 20
262.2524710565841
 10
59.50134655021142
 20
261.7820373076493
 10
59.7434248769929
 20
261.2983050673328
 10
59.89480518947168
 20
260.8054375804315
 10
59.95418463196489
 20
260.3076767143039
  0
LWPOLYLINE
  5
8F
330
1F
100
AcDbEntity
  8
0
  6
Continuous
 62
     7
370
    15
100
AcDbPolyline
 90
       42
 70
   128
 43
0.0
 10
50.90511742892455
 20
258.7646269877019
 10
50.43572041214075
 20
258.6521291623532
 10
49.93747910444109
 20
258.5767763231564
 10
49.4220718597883
 20
258.5403346767962
 10
48.9015793871581
 20
258.5436583845769
 10
48.38820158895999
 20
258.5866695416051
 10
47.8939716056649
 20
258.6683600028146
 10
47.43047376919134
 20
258.7868150130323
 10
47.00857207598371
 20
258.9392580872164
 10
46.63815554414352
 20
259.122116088913
 10
46.32790642322657
 20
259.3311029815454
 10
46.08509668967223
 20
259.5613202894795
 10
45.91541759783901
 20
259.8073719141403
 10
45.82284628182615
 20
260.0634906139896
 10
45.80955253482119
 20
260.323673183779
 10
45.87584795098666
 20
260.5818211645932
 10
46.02017862195704
 20
260.831883786558
 10
46.23916155913378
 20
261.0679997937578
 10
46.52766398807079
 20
261.2846348271063
 10
46.87892365635711
 20
261.4767111450334
 10
47.284707335082
 20
261.6397266414432
 10
47.73550379874244
 20
261.7698603712652
 10
48.22074676030759
 20
261.8640621101688
 10
48.72906253603124
 20
261.9201238492356
 10
49.24853663495889
 20
261.9367315488178
 10
49.7669930244975
 20
261.9134959385132
 10
50.27227952629956
 20
261.8509616413336
 10
50.7525526530238
 20
261.7505944082034
 10
51.19655520964044
 20
261.6147467619998
 10
51.59388015254147
 20
261.4466028564107
 10
51.93521452182234
 20
261.2501038420709
 10
52.21255772916867
 20
261.0298554893318
 10
52.41940908486548
 20
260.7910202329076
 10
52.5509201684543
 20
260.5391961687817
 10
52.60400847159946
 20
260.2802858395809
 10
52.57742964947077
 20
260.0203578839794
 10
52.47180668713177
 20
259.7655047929519
 10
52.28961529729783
 20
259.5217001069486
 10
52.03512589172838
 20
259.2946584011701
 10
51.71430348639475
 20
259.0897013407683
 10
51.3346678865615
 20
258.9116329455253
 10
50.90511742892455
 20
258.7646269877019
  0
SPLINE
  5
90
330
1F
100
AcDbEntity
  8
0
  6
Continuous
 62
     7
370
    15
100
AcDbSpline
210
0.0
220
0.0
230
1.0
 70
     8
 71
     3
 72
    10
 73
     6
 74
     0
 42
0.000000001
 43
0.00000001
 40
0.0
 40
0.0
 40
0.0
 40
0.0
 40
0.3813058720845837
 40
0.7736923221353456
 40
1.0
 40
1.0
 40
1.0
 40
1.0
 10
60.68062335215225
 20
244.2733249810014
 30
0.0
 10
60.67702110797917
 20
244.506894917583
 30
0.0
 10
60.66971194002975
 20
244.9808222285549
 30
0.0
 10
60.64772431661979
 20
245.5708428559396
 30
0.0
 10
60.63254500796511
 20
245.9108525811546
 30
0.0
 10
60.62699267776148
 20
246.0352222945443
 30
0.0
  0
LINE
  5
91
330
1F
100
AcDbEntity
  8
0
  6
Continuous
 62
     7
370
    15
100
AcDbLine
 10
54.28893091748616
 20
242.4282023071355
 30
0.0
 11
60.68062335215225
 21
244.2733249810014
 31
0.0
  0
LINE
  5
92
330
1F
100
AcDbEntity
  8
0
  6
Continuous
 62
     7
370
    15
100
AcDbLine
 10
44.11703581074103
 20
239.4918291181115
 30
0.0
 11
50.50872824540712
 21
241.3369517919774
 31
0.0
  0
LWPOLYLINE
  5
93
330
1F
100
AcDbEntity
  8
0
  6
Continuous
 62
     7
370
    15
100
AcDbPolyline
 90
        3
 70
   128
 43
0.0
 10
60.70178940107307
 20
244.786736408009
 10
60.70307517267669
 20
244.7567730957651
 10
60.68062335215225
 20
244.2733249810014
  0
ARC
  5
94
330
1F
100
AcDbEntity
  8
0
  6
Continuous
 62
     7
370
    15
100
AcDbCircle
 10
49.21214893237489
 20
245.5513927800848
 30
0.0
 40
16.84198808988213
100
AcDbArc
 50
253.4816946519797
 51
285.4722636587715
  0
LINE
  5
95
330
1F
100
AcDbEntity
  8
0
  6
Continuous
 62
     7
370
    15
100
AcDbLine
 10
53.98662797347502
 20
229.4044912855485
 30
0.0
 11
53.70511742892457
 21
229.3197632590311
 31
0.0
  0
ARC
  5
96
330
1F
100
AcDbEntity
  8
0
  6
Continuous
 62
     7
370
    15
100
AcDbCircle
 10
48.95478945801335
 20
244.5810646614894
 30
0.0
 40
16.38009407526098
100
AcDbArc
 50
244.7939501434522
 51
273.4138999113743
  0
LINE
  5
97
330
1F
100
AcDbEntity
  8
0
  6
Continuous
 62
     7
370
    15
100
AcDbLine
 10
49.9302002112892
 20
228.2300385231459
 30
0.0
 11
53.70511742892457
 21
229.3197632590311
 31
0.0
  0
LWPOLYLINE
  5
98
330
1F
100
AcDbEntity
  8
0
  6
Continuous
 62
     7
370
    15
100
AcDbPolyline
 90
       20
 70
   128
 43
0.0
 10
49.9302002112892
 20
223.8999115042237
 10
49.03502965703678
 20
223.8874738557086
 10
48.14122312014295
 20
223.9151278617872
 10
47.2559484741004
 20
223.9826517514063
 10
46.38630517097978
 20
224.0895040173397
 10
45.53926730743763
 20
224.2348277588007
 10
44.72162769601086
 20
224.4174575533502
 10
43.93994339021763
 20
224.6359288029916
 10
43.20048310032566
 20
224.8884894795011
 10
42.50917692148641
 20
225.1731141748025
 10
41.87156877739044
 20
225.4875203437088
 10
41.29277196082107
 20
225.8291866087732
 10
40.77742812764885
 20
226.1953729804524
 10
40.32967007311412
 20
226.5831428304286
 10
39.95308858891254
 20
226.9893864418736
 10
39.65070366687349
 20
227.4108459477951
 10
39.42494028016264
 20
227.8441414574717
 10
39.27760893623144
 20
228.2857981614564
 10
39.20989115746896
 20
228.7322741977792
 10
39.20511742892455
 20
228.8867505571389
  0
LINE
  5
99
330
1F
100
AcDbEntity
  8
0
  6
Continuous
 62
     7
370
    15
100
AcDbLine
 10
49.9302002112892
 20
228.2300385231459
 30
0.0
 11
49.9302002112892
 21
223.8999115042237
 31
0.0
  0
LINE
  5
9A
330
1F
100
AcDbEntity
  8
0
  6
Continuous
 62
     7
370
    15
100
AcDbLine
 10
57.48003464655994
 20
226.0793609759941
 30
0.0
 11
53.70511742892457
 21
224.9896362401089
 31
0.0
  0
LINE
  5
9B
330
1F
100
AcDbEntity
  8
0
  6
Continuous
 62
     7
370
    15
100
AcDbLine
 10
49.9302002112892
 20
223.8999115042237
 30
0.0
 11
53.70511742892457
 21
224.9896362401089
 31
0.0
  0
LINE
  5
9C
330
1F
100
AcDbEntity
  8
0
  6
Continuous
 62
     7
370
    15
100
AcDbLine
 10
53.70511742892457
 20
229.3197632590311
 30
0.0
 11
54.00648746335313
 21
229.4067612942826
 31
0.0
  0
LINE
  5
9D
330
1F
100
AcDbEntity
  8
0
  6
Continuous
 62
     7
370
    15
100
AcDbLine
 10
57.48003464655994
 20
229.9633814169788
 30
0.0
 11
57.48003464655994
 21
226.0793609759941
 31
0.0
  0
LWPOLYLINE
  5
9E
330
1F
100
AcDbEntity
  8
0
  6
Continuous
 62
     7
370
    15
100
AcDbPolyline
 90
       23
 70
   128
 43
0.0
 10
40.20511742892455
 20
224.5566235382167
 10
40.24587012576679
 20
224.1288713433479
 10
40.3677591535602
 20
223.7049929385948
 10
40.56968066639409
 20
223.2888270324302
 10
40.84980603177991
 20
222.8841424877452
 10
41.20559839103026
 20
222.4946041904433
 10
41.63383563344394
 20
222.1237398596665
 10
42.1306395762395
 20
221.7749081002239
 10
42.69151108597895
 20
221.4512679865472
 10
43.31137082341703
 20
221.1557504536225
 10
43.98460524278381
 20
220.8910317539902
 10
44.7051174289246
 20
220.6595092211867
 10
45.46638231190762
 20
220.4632795591213
 10
46.26150575906782
 20
220.3041198540007
 10
47.08328700933976
 20
220.1834714807607
 10
47.92428388446505
 20
220.1024270497525
 10
48.77688018651094
 20
220.0617205118932
 10
49.6333546713383
 20
220.0617205118932
 10
50.48595097338418
 20
220.1024270497525
 10
51.32694784850947
 20
220.1834714807607
 10
52.14872909878142
 20
220.3041198540007
 10
52.9438525459416
 20
220.4632795591214
 10
53.70511742892457
 20
220.6595092211867
  0
LWPOLYLINE
  5
9F
330
1F
100
AcDbEntity
  8
0
  6
Continuous
 62
     7
370
    15
100
AcDbPolyline
 90
       12
 70
   128
 43
0.0
 10
58.20511742892456
 20
224.5566235382167
 10
58.16436473208231
 20
224.1288713433479
 10
58.04247570428891
 20
223.7049929385948
 10
57.84055419145502
 20
223.2888270324302
 10
57.5604288260692
 20
222.8841424877452
 10
57.20463646681885
 20
222.4946041904433
 10
56.77639922440516
 20
222.1237398596665
 10
56.27959528160961
 20
221.7749081002239
 10
55.71872377187015
 20
221.4512679865472
 10
55.09886403443208
 20
221.1557504536225
 10
54.42562961506529
 20
220.8910317539902
 10
53.70511742892457
 20
220.6595092211867
  0
LWPOLYLINE
  5
A0
330
1F
100
AcDbEntity
  8
0
  6
Continuous
 62
     7
370
    15
100
AcDbPolyline
 90
       25
 70
   128
 43
0.0
 10
49.9302002112892
 20
219.5697844853015
 10
49.03502965703678
 20
219.5573468367864
 10
48.14122312014295
 20
219.585000842865
 10
47.2559484741004
 20
219.6525247324842
 10
46.38630517097978
 20
219.7593769984175
 10
45.53926730743763
 20
219.9047007398785
 10
44.72162769601086
 20
220.087330534428
 10
43.93994339021763
 20
220.3058017840694
 10
43.20048310032566
 20
220.5583624605789
 10
42.50917692148641
 20
220.8429871558803
 10
41.87156877739044
 20
221.1573933247867
 10
41.29277196082107
 20
221.499059589851
 10
40.77742812764885
 20
221.8652459615302
 10
40.32967007311412
 20
222.2530158115064
 10
39.95308858891254
 20
222.6592594229514
 10
39.65070366687349
 20
223.0807189288729
 10
39.42494028016264
 20
223.5140144385495
 10
39.27760893623144
 20
223.9556711425342
 10
39.20989115746896
 20
224.4021471788571
 10
39.22233000599359
 20
224.849862036956
 10
39.31482572857136
 20
225.2952252715488
 10
39.48663655658601
 20
225.7346652961767
 10
39.73638465464582
 20
226.1646580255101
 10
40.06206717012216
 20
226.5817551367192
 10
40.19123924026458
 20
226.7216870476778
  0
LINE
  5
A1
330
1F
100
AcDbEntity
  8
0
  6
Continuous
 62
     7
370
    15
100
AcDbLine
 10
49.9302002112892
 20
219.5697844853015
 30
0.0
 11
53.70511742892457
 21
220.6595092211867
 31
0.0
  0
LWPOLYLINE
  5
A2
330
1F
100
AcDbEntity
  8
0
  6
Continuous
 62
     7
370
    15
100
AcDbPolyline
 90
       20
 70
   128
 43
0.0
 10
39.20511742892455
 20
220.6595092211867
 10
39.20989115746897
 20
220.5050328618271
 10
39.27760893623145
 20
220.0585568255042
 10
39.42494028016264
 20
219.6169001215195
 10
39.65070366687349
 20
219.1836046118429
 10
39.95308858891254
 20
218.7621451059214
 10
40.32967007311412
 20
218.3559014944764
 10
40.77742812764885
 20
217.9681316445002
 10
41.29277196082106
 20
217.601945272821
 10
41.87156877739044
 20
217.2602790077567
 10
42.50917692148641
 20
216.9458728388504
 10
43.20048310032565
 20
216.661248143549
 10
43.93994339021762
 20
216.4086874670394
 10
44.72162769601085
 20
216.190216217398
 10
45.53926730743763
 20
216.0075864228485
 10
46.38630517097977
 20
215.8622626813875
 10
47.25594847410039
 20
215.7554104154542
 10
48.14122312014294
 20
215.6878865258351
 10
49.03502965703677
 20
215.6602325197564
 10
49.9302002112892
 20
215.6726701682716
  0
LINE
  5
A3
330
1F
100
AcDbEntity
  8
0
  6
Continuous
 62
     7
370
    15
100
AcDbLine
 10
49.9302002112892
 20
219.5697844853015
 30
0.0
 11
49.9302002112892
 21
215.6726701682716
 31
0.0
  0
ARC
  5
A4
330
1F
100
AcDbEntity
  8
0
  6
Continuous
 62
     7
370
    15
100
AcDbCircle
 10
55.5065819480613
 20
229.2257154272899
 30
0.0
 40
3.714035794981117
100
AcDbArc
 50
302.0967103164618
 51
354.7635616479446
  0
ARC
  5
A5
330
1F
100
AcDbEntity
  8
0
  6
Continuous
 62
     7
370
    15
100
AcDbCircle
 10
49.20511742892455
 20
224.2797393005774
 30
0.0
 40
9.161295831546461
100
AcDbArc
 50
252.0075700224416
 51
287.9924299775601
  0
SPLINE
  5
A6
330
1F
100
AcDbEntity
  8
0
  6
Continuous
 62
     7
370
    15
100
AcDbSpline
210
0.0
220
0.0
230
1.0
 70
     8
 71
     3
 72
    14
 73
    10
 74
     0
 42
0.000000001
 43
0.00000001
 40
0.0
 40
0.0
 40
0.0
 40
0.0
 40
0.2499999999999999
 40
0.2499999999999999
 40
0.4999999999999999
 40
0.4999999999999999
 40
0.7499999999999999
 40
0.7499999999999999
 40
1.0
 40
1.0
 40
1.0
 40
1.0
 10
57.48003464655994
 20
217.8521196400419
 30
0.0
 10
56.86482273773785
 20
217.4867523472869
 30
0.0
 10
56.24528987029865
 20
217.1560371515379
 30
0.0
 10
54.99480964419203
 20
216.5861457198783
 30
0.0
 10
54.36381226424853
 20
216.347370631552
 30
0.0
 10
53.0884771475052
 20
215.9768039696337
 30
0.0
 10
52.44013109655039
 20
215.8453863657139
 30
0.0
 10
51.17203198076044
 20
215.6895103178098
 30
0.0
 10
50.54759628705583
 20
215.6624595143732
 30
0.0
 10
49.9302002112892
 20
215.6726701682716
 30
0.0
  0
ARC
  5
A7
330
1F
100
AcDbEntity
  8
0
  6
Continuous
 62
     7
370
    15
100
AcDbCircle
 10
55.68081673798128
 20
220.8914104197339
 30
0.0
 40
3.531922072479932
100
AcDbArc
 50
300.6249431669413
 51
356.2353287974648
  0
LINE
  5
A8
330
1F
100
AcDbEntity
  8
0
  6
Continuous
 62
     7
370
    15
100
AcDbLine
 10
53.70511742892457
 20
220.6595092211867
 30
0.0
 11
57.48003464655994
 21
221.7492339570719
 31
0.0
  0
LINE
  5
A9
330
1F
100
AcDbEntity
  8
0
  6
Continuous
 62
     7
370
    15
100
AcDbLine
 10
57.48003464655994
 20
221.7492339570719
 30
0.0
 11
57.48003464655994
 21
217.8521196400419
 31
0.0
  0
ARC
  5
AA
330
1F
100
AcDbEntity
  8
0
  6
Continuous
 62
     7
370
    15
100
AcDbCircle
 10
56.06480160940987
 20
224.5006884720864
 30
0.0
 40
3.094088960846906
100
AcDbArc
 50
297.2193933429213
 51
45.87477802990601
  0
LWPOLYLINE
  5
AB
330
1F
100
AcDbEntity
  8
0
  6
Continuous
 62
     8
370
     0
100
AcDbPolyline
 90
       57
 70
   128
 43
0.0
 10
32.31762205512802
 20
239.7734129060156
 10
32.97700387036363
 20
239.2424363445965
 10
33.70307048513082
 20
238.7336741004466
 10
34.49283833596869
 20
238.2492167867563
 10
35.3430620973735
 20
237.7910551425433
 10
36.25024801753719
 20
237.361071852279
 10
37.21066827492304
 20
236.9610338095343
 10
38.22037629668396
 20
236.5925848564347
 10
39.27522297597684
 20
236.2572390287604
 10
40.37087372153256
 20
235.956374334449
 10
41.5028262694213
 20
235.6912270910646
 10
42.6664291838207
 20
235.4628868455042
 10
43.85690097076347
 20
235.2722918968155
 10
45.06934972632165
 20
235.1202254405253
 10
46.29879323848922
 20
235.0073123503206
 10
47.54017946015987
 20
234.9340166103088
 10
48.78840726907224
 20
234.9006394084076
 10
50.03834742941551
 20
234.9073178986989
 10
51.28486366895948
 20
234.9540246378336
 10
52.52283378509897
 20
235.040567697802
 10
53.74717069308302
 20
235.1665914546073
 10
54.95284332993727
 20
235.3315780496008
 10
56.13489732818093
 20
235.534849517474
 10
57.28847537438541
 20
235.775570572164
 10
58.40883716891714
 20
236.0527520392226
 10
59.49137890484555
 20
236.3652549205462
 10
60.53165218597324
 20
236.711795074764
 10
61.52538230625013
 20
237.0909484940495
 10
62.46848581545757
 20
237.5011571556749
 10
63.35708729898113
 20
237.9407354242599
 10
64.18753530272062
 20
238.4078769784098
 10
64.95641733769813
 20
238.900662233277
 10
65.66057390270724
 20
239.4170662285471
 10
66.29711146738126
 20
239.9549669494353
 10
66.86341436233
 20
240.5121540465001
 10
67.35715552748658
 20
241.0863379184433
 10
67.77630607449622
 20
241.6751591205733
 10
68.11914362385373
 20
242.2761980602685
 10
68.38425938253037
 20
242.8869849396033
 10
68.5705639330066
 20
243.5050099042773
 10
68.67729170992229
 20
244.1277333571446
 10
68.7040041459491
 20
244.7525963939636
 10
68.65059147395756
 20
245.3770313184833
 10
68.51727317807388
 20
245.9984721936581
 10
68.30459709177254
 20
246.6143653856331
 10
68.013437146711
 20
247.2221800571739
 10
67.64498978155716
 20
247.8194185674193
 10
67.20076902556613
 20
248.4036267352234
 10
66.68260027710933
 20
248.9724039239124
 10
66.09261280272102
 20
249.5234129060157
 10
65.4332309874854
 20
250.0543894674348
 10
64.70716437271821
 20
250.5631517115847
 10
63.91739652188033
 20
251.047609025275
 10
63.06717276047552
 20
251.505770669488
 10
62.15998684031183
 20
251.9357539597523
 10
61.19956658292597
 20
252.3357920024971
 10
60.32295102060123
 20
252.6584655935419
  0
LWPOLYLINE
  5
AC
330
1F
100
AcDbEntity
  8
0
  6
Continuous
 62
     8
370
     0
100
AcDbPolyline
 90
       25
 70
   128
 43
0.0
 10
38.08857405465918
 20
252.6589132556829
 10
37.87858267187575
 20
252.5850307372673
 10
36.88485255159888
 20
252.2058773179818
 10
35.94174904239145
 20
251.7956686563564
 10
35.05314755886788
 20
251.3560903877714
 10
34.22269955512839
 20
250.8889488336214
 10
33.45381752015091
 20
250.3961635787543
 10
32.74966095514178
 20
249.8797595834841
 10
32.11312339046779
 20
249.3418588625959
 10
31.54682049551905
 20
248.7846717655312
 10
31.05307933036247
 20
248.2104878935879
 10
30.63392878335285
 20
247.621666691458
 10
30.29109123399535
 20
247.0206277517628
 10
30.02597547531872
 20
246.4098408724279
 10
29.8396709248425
 20
245.7918159077539
 10
29.7329431479268
 20
245.1690924548866
 10
29.70623071190001
 20
244.5442294180676
 10
29.75964338389155
 20
243.9197944935479
 10
29.89296167977524
 20
243.2983536183731
 10
30.1056377660766
 20
242.6824604263981
 10
30.39679771113814
 20
242.0746457548573
 10
30.765245076292
 20
241.4774072446119
 10
31.20946583228304
 20
240.8931990768078
 10
31.72763458073984
 20
240.3244218881188
 10
32.31762205512802
 20
239.7734129060156
  0
LWPOLYLINE
  5
AD
330
1F
100
AcDbEntity
  8
0
  6
Continuous
 62
     8
370
     0
100
AcDbPolyline
 90
       44
 70
   128
 43
0.0
 10
30.58557124755914
 20
237.5413620984468
 10
31.27556692062762
 20
236.9837990231304
 10
32.03226169920364
 20
236.4483054721062
 10
32.85284062901103
 20
235.9368735165554
 10
33.73425110253513
 20
235.4514057169434
 10
34.67321421492317
 20
234.9937080453706
 10
35.66623696172579
 20
234.5654831672368
 10
36.70962523310292
 20
234.1683241072147
 10
37.7994975561551
 20
233.8037083230928
 10
38.93179953425751
 20
233.4729922095364
 10
40.10231892968179
 20
233.1774060522093
 10
41.30670133339699
 20
232.9180494510308
 10
42.5404663637572
 20
232.695887229592
 10
43.79902433381552
 20
232.5117458459484
 10
45.077693325261
 20
232.3663103181414
 10
46.37171660546219
 20
232.2601216758868
 10
47.67628032282503
 20
232.1935749479083
 10
48.98653141463691
 20
232.1669176924047
 10
50.29759566077871
 20
232.1802490761173
 10
51.60459581614381
 20
232.2335195054233
 10
52.90266975431021
 20
232.3265308108266
 10
54.18698855497016
 20
232.4589369841622
 10
55.45277446783086
 20
232.630245465769
 10
56.69531868615938
 20
232.8398189768435
 10
57.90999886385298
 20
233.0868778901599
 10
59.0922963108702
 20
233.3705031303338
 10
60.23781280305455
 20
233.6896395928431
 10
61.34228694381738
 20
234.0431000690864
 10
62.40161001681294
 20
234.4295696628765
 10
63.41184127063311
 20
234.8476106819414
 10
64.36922257866148
 20
235.295667986233
 10
65.2701924195512
 20
235.7720747731507
 10
66.11139912631823
 20
236.2750587781569
 10
66.8897133547628
 20
236.8027488677168
 10
67.60223972483524
 20
237.3531820000384
 10
68.24632759163998
 20
237.924310527717
 10
68.81958090600871
 20
238.5140098151177
 10
69.31986712796053
 20
239.1200861421597
 10
69.74532515989092
 20
239.7402848650994
 10
70.09437226997693
 20
240.3722988039526
 10
70.36570998004352
 20
241.0137768253559
 10
70.55832889598773
 20
241.6623325889373
 10
70.67151246279099
 20
242.315553424659
 10
70.7051173668892
 20
242.9155454712195
  0
ARC
  5
AE
330
1F
100
AcDbEntity
  8
0
  6
Continuous
 62
     8
370
     0
100
AcDbCircle
 10
34.98016154143639
 20
243.3552589398664
 30
0.0
 40
7.287922909424144
100
AcDbArc
 50
183.407137040476
 51
232.9152079334446
  0
LINE
  5
AF
330
1F
100
AcDbEntity
  8
0
  6
Continuous
 62
     8
370
     0
100
AcDbLine
 10
60.62699267776148
 20
246.0352222945443
 30
0.0
 11
43.75820132300139
 21
241.1656216797571
 31
0.0
  0
ARC
  5
B0
330
1F
100
AcDbEntity
  8
0
  6
Continuous
 62
     7
370
    15
100
AcDbCircle
 10
24.08818294190352
 20
121.4579357231148
 30
0.0
 40
2.000000000000014
100
AcDbArc
 50
90.0
 51
180.0
  0
ARC
  5
B1
330
1F
100
AcDbEntity
  8
0
  6
Continuous
 62
     7
370
    15
100
AcDbCircle
 10
63.08818294190352
 20
121.4579357231148
 30
0.0
 40
2.000000000000014
100
AcDbArc
 50
0.0
 51
90.0
  0
LINE
  5
B2
330
1F
100
AcDbEntity
  8
0
  6
Continuous
 62
     7
370
    15
100
AcDbLine
 10
22.08818294190353
 20
121.4579357231148
 30
0.0
 11
22.08818294190353
 21
117.9579357231148
 31
0.0
  0
LINE
  5
B3
330
1F
100
AcDbEntity
  8
0
  6
Continuous
 62
     7
370
    15
100
AcDbLine
 10
65.08818294190353
 20
117.9579357231148
 30
0.0
 11
65.08818294190353
 21
121.4579357231148
 31
0.0
  0
LINE
  5
B4
330
1F
100
AcDbEntity
  8
0
  6
Continuous
 62
     7
370
    15
100
AcDbLine
 10
33.58818294190352
 20
117.9579357211958
 30
0.0
 11
33.58818294190352
 21
115.2579357231148
 31
0.0
  0
LINE
  5
B5
330
1F
100
AcDbEntity
  8
0
  6
Continuous
 62
     7
370
    15
100
AcDbLine
 10
53.58818294190353
 20
115.2579357231148
 30
0.0
 11
53.58818294190353
 21
117.9579357211958
 31
0.0
  0
LINE
  5
B6
330
1F
100
AcDbEntity
  8
0
  6
Continuous
 62
     7
370
    15
100
AcDbLine
 10
34.58818294190353
 20
95.0577281849051
 30
0.0
 11
38.58670096550092
 21
92.2579357231148
 31
0.0
  0
LINE
  5
B7
330
1F
100
AcDbEntity
  8
0
  6
Continuous
 62
     7
370
    15
100
AcDbLine
 10
48.58966491830612
 20
92.2579357231148
 30
0.0
 11
52.58818294190353
 21
95.0577281849051
 31
0.0
  0
LINE
  5
B8
330
1F
100
AcDbEntity
  8
0
  6
Continuous
 62
     7
370
    15
100
AcDbLine
 10
52.58818294190353
 20
110.2579357231148
 30
0.0
 11
52.58818294190353
 21
115.2579357231148
 31
0.0
  0
LINE
  5
B9
330
1F
100
AcDbEntity
  8
0
  6
Continuous
 62
     7
370
    15
100
AcDbLine
 10
34.58818294190353
 20
115.2579357231148
 30
0.0
 11
34.58818294190353
 21
110.2579357231148
 31
0.0
  0
LINE
  5
BA
330
1F
100
AcDbEntity
  8
0
  6
Continuous
 62
     7
370
    15
100
AcDbLine
 10
52.58818294190353
 20
100.2579357231148
 30
0.0
 11
52.58818294190353
 21
105.2579357231148
 31
0.0
  0
LINE
  5
BB
330
1F
100
AcDbEntity
  8
0
  6
Continuous
 62
     7
370
    15
100
AcDbLine
 10
34.58818294190353
 20
105.2579357231148
 30
0.0
 11
34.58818294190353
 21
100.2579357231148
 31
0.0
  0
LINE
  5
BC
330
1F
100
AcDbEntity
  8
0
  6
Continuous
 62
     7
370
    15
100
AcDbLine
 10
43.58818294190353
 20
123.4579357211487
 30
0.0
 11
63.08818294190349
 21
123.4579357231148
 31
0.0
  0
LINE
  5
BD
330
1F
100
AcDbEntity
  8
0
  6
Continuous
 62
     7
370
    15
100
AcDbLine
 10
24.08818294190359
 20
123.4579357231148
 30
0.0
 11
43.58818294190353
 21
123.4579357211487
 31
0.0
  0
LINE
  5
BE
330
1F
100
AcDbEntity
  8
0
  6
Continuous
 62
     7
370
    15
100
AcDbLine
 10
43.58818294190353
 20
117.957935720947
 30
0.0
 11
65.08818294190353
 21
117.9579357231148
 31
0.0
  0
LINE
  5
BF
330
1F
100
AcDbEntity
  8
0
  6
Continuous
 62
     7
370
    15
100
AcDbLine
 10
22.08818294190353
 20
117.9579357231148
 30
0.0
 11
43.58818294190353
 21
117.957935720947
 31
0.0
  0
LINE
  5
C0
330
1F
100
AcDbEntity
  8
0
  6
Continuous
 62
     7
370
    15
100
AcDbLine
 10
48.84007601833905
 20
141.4579357222794
 30
0.0
 11
49.56314208481727
 21
125.2352996153602
 31
0.0
  0
SPLINE
  5
C1
330
1F
100
AcDbEntity
  8
0
  6
Continuous
 62
     7
370
    15
100
AcDbSpline
210
0.0
220
0.0
230
1.0
 70
     8
 71
     3
 72
    10
 73
     6
 74
     0
 42
0.000000001
 43
0.00000001
 40
0.0
 40
0.0
 40
0.0
 40
0.0
 40
0.3802008209481725
 40
0.7713555381988354
 40
1.0
 40
1.0
 40
1.0
 40
1.0
 10
49.56314208481727
 20
125.2352996153598
 30
0.0
 10
49.58331751465187
 20
125.0018464594574
 30
0.0
 10
49.62424964493936
 20
124.5282141714831
 30
0.0
 10
49.78305940687495
 20
123.9320757058233
 30
0.0
 10
49.92371812297458
 20
123.5857102450126
 30
0.0
 10
49.97560724694768
 20
123.4579357221506
 30
0.0
  0
LINE
  5
C2
330
1F
100
AcDbEntity
  8
0
  6
Continuous
 62
     7
370
    15
100
AcDbLine
 10
49.97560724694768
 20
123.4579357221506
 30
0.0
 11
47.16514884919714
 21
123.4579357220128
 31
0.0
  0
LINE
  5
C3
330
1F
100
AcDbEntity
  8
0
  6
Continuous
 62
     7
370
    15
100
AcDbLine
 10
39.48124947067684
 20
123.4579357220318
 30
0.0
 11
37.20075863685937
 21
123.4579357221506
 31
0.0
  0
SPLINE
  5
C4
330
1F
100
AcDbEntity
  8
0
  6
Continuous
 62
     7
370
    15
100
AcDbSpline
210
0.0
220
0.0
230
1.0
 70
     8
 71
     3
 72
    10
 73
     6
 74
     0
 42
0.000000001
 43
0.00000001
 40
0.0
 40
0.0
 40
0.0
 40
0.0
 40
0.3802008209481267
 40
0.7713555381988255
 40
1.0
 40
1.0
 40
1.0
 40
1.0
 10
37.61322379898978
 20
125.2352996153598
 30
0.0
 10
37.59304836915518
 20
125.0018464594574
 30
0.0
 10
37.55211623886768
 20
124.528214171483
 30
0.0
 10
37.3933064769321
 20
123.9320757058234
 30
0.0
 10
37.25264776083247
 20
123.5857102450126
 30
0.0
 10
37.20075863685937
 20
123.4579357221506
 30
0.0
  0
LINE
  5
C5
330
1F
100
AcDbEntity
  8
0
  6
Continuous
 62
     7
370
    15
100
AcDbLine
 10
38.336289865468
 20
141.4579357222794
 30
0.0
 11
37.61322379899459
 21
125.2352996154679
 31
0.0
  0
LINE
  5
C6
330
1F
100
AcDbEntity
  8
0
  6
Continuous
 62
     7
370
    15
100
AcDbLine
 10
48.84007601834396
 20
141.4579357221691
 30
0.0
 11
38.33628986546309
 21
141.4579357221691
 31
0.0
  0
LINE
  5
C7
330
1F
100
AcDbEntity
  8
0
  6
Continuous
 62
     7
370
    15
100
AcDbLine
 10
53.58818294190353
 20
115.2579357231148
 30
0.0
 11
33.58818294190352
 21
115.2579357231148
 31
0.0
  0
LINE
  5
C8
330
1F
100
AcDbEntity
  8
0
  6
Continuous
 62
     7
370
    15
100
AcDbLine
 10
52.58818294190353
 20
105.2579357226753
 30
0.0
 11
34.58818294190353
 21
105.2579357226753
 31
0.0
  0
LINE
  5
C9
330
1F
100
AcDbEntity
  8
0
  6
Continuous
 62
     7
370
    15
100
AcDbLine
 10
34.58818294190353
 20
110.2579357226753
 30
0.0
 11
34.58818294190353
 21
105.2579357226753
 31
0.0
  0
LINE
  5
CA
330
1F
100
AcDbEntity
  8
0
  6
Continuous
 62
     7
370
    15
100
AcDbLine
 10
52.58818294190353
 20
110.2579357226753
 30
0.0
 11
34.58818294190353
 21
110.2579357226753
 31
0.0
  0
LINE
  5
CB
330
1F
100
AcDbEntity
  8
0
  6
Continuous
 62
     7
370
    15
100
AcDbLine
 10
52.58818294190353
 20
110.2579357226753
 30
0.0
 11
52.58818294190353
 21
105.2579357226753
 31
0.0
  0
LINE
  5
CC
330
1F
100
AcDbEntity
  8
0
  6
Continuous
 62
     7
370
    15
100
AcDbLine
 10
34.58818294190353
 20
95.75793572267531
 30
0.0
 11
52.58818294190353
 21
95.75793572267531
 31
0.0
  0
LINE
  5
CD
330
1F
100
AcDbEntity
  8
0
  6
Continuous
 62
     7
370
    15
100
AcDbLine
 10
34.58818294190353
 20
100.2579357226753
 30
0.0
 11
34.58818294190353
 21
95.75793572267531
 31
0.0
  0
LINE
  5
CE
330
1F
100
AcDbEntity
  8
0
  6
Continuous
 62
     7
370
    15
100
AcDbLine
 10
52.58818294190353
 20
100.2579357226753
 30
0.0
 11
34.58818294190353
 21
100.2579357226753
 31
0.0
  0
LINE
  5
CF
330
1F
100
AcDbEntity
  8
0
  6
Continuous
 62
     7
370
    15
100
AcDbLine
 10
52.58818294190353
 20
100.2579357226753
 30
0.0
 11
52.58818294190353
 21
95.75793572267531
 31
0.0
  0
LINE
  5
D0
330
1F
100
AcDbEntity
  8
0
  6
Continuous
 62
     7
370
    15
100
AcDbLine
 10
38.58670096550092
 20
92.2579357231148
 30
0.0
 11
48.58966491830612
 21
92.2579357231148
 31
0.0
  0
SPLINE
  5
D1
330
1F
100
AcDbEntity
  8
0
  6
Continuous
 62
     7
370
    15
100
AcDbSpline
210
0.0
220
0.0
230
1.0
 70
    24
 71
     3
 72
    10
 73
     6
 74
     0
 42
0.000000001
 43
0.00000001
 40
0.0
 40
0.0
 40
0.0
 40
0.0
 40
0.2444406875750754
 40
0.6199152670798525
 40
1.0
 40
1.0
 40
1.0
 40
1.0
 10
52.58818294190353
 20
95.07146913852094
 30
0.0
 10
52.58818294190353
 20
95.075259127699
 30
0.0
 10
52.58818294190353
 20
95.08487075241199
 30
0.0
 10
52.58818294190353
 20
95.31042428413875
 30
0.0
 10
52.58818294190353
 20
95.60815968475913
 30
0.0
 10
52.58818294190353
 20
95.75793572267531
 30
0.0
  0
SPLINE
  5
D2
330
1F
100
AcDbEntity
  8
0
  6
Continuous
 62
     7
370
    15
100
AcDbSpline
210
0.0
220
0.0
230
1.0
 70
    24
 71
     3
 72
    11
 73
     7
 74
     0
 42
0.000000001
 43
0.00000001
 40
0.0
 40
0.0
 40
0.0
 40
0.0
 40
0.30468359437676
 40
0.6113406589558823
 40
0.9260759340078216
 40
1.0
 40
1.0
 40
1.0
 40
1.0
 10
34.58818294190353
 20
95.75793572267531
 30
0.0
 10
34.58818294190353
 20
95.63426905561023
 30
0.0
 10
34.58818294190353
 20
95.38613471844943
 30
0.0
 10
34.58818294190353
 20
95.15595502937741
 30
0.0
 10
34.58818294190353
 20
95.04518730204151
 30
0.0
 10
34.58818294190353
 20
95.0672691170455
 30
0.0
 10
34.58818294190353
 20
95.07146913844522
 30
0.0
  0
LINE
  5
D3
330
1F
100
AcDbEntity
  8
0
  6
Continuous
 62
     8
370
     0
100
AcDbLine
 10
43.58818294190353
 20
121.457935720947
 30
0.0
 11
65.08818294190353
 21
121.4579357231148
 31
0.0
  0
LINE
  5
D4
330
1F
100
AcDbEntity
  8
0
  6
Continuous
 62
     8
370
     0
100
AcDbLine
 10
22.08818294190353
 20
121.4579357231148
 30
0.0
 11
43.58818294190353
 21
121.457935720947
 31
0.0
  0
LINE
  5
D5
330
1F
100
AcDbEntity
  8
0
  6
CENTER
 62
     7
370
     0
100
AcDbLine
 10
43.58818294190353
 20
147.3619357258028
 30
0.0
 11
43.58818294190353
 21
86.35393572042679
 31
0.0
  0
LINE
  5
D6
330
1F
100
AcDbEntity
  8
0
  6
Continuous
 62
     7
370
     0
100
AcDbLine
 10
38.26818294190353
 20
145.3619357258028
 30
0.0
 11
43.58818294190353
 21
145.3619357258028
 31
0.0
  0
SOLID
  5
D7
330
1F
100
AcDbEntity
  8
0
  6
Continuous
 62
     7
370
     0
100
AcDbTrace
 10
43.58818294190353
 20
145.3619357258028
 30
0.0
 11
40.08818294190353
 21
145.9219357258028
 31
0.0
 12
40.08818294190353
 22
144.8019357258028
 32
0.0
 13
40.08818294190353
 23
144.8019357258028
 33
0.0
  0
LINE
  5
D8
330
1F
100
AcDbEntity
  8
0
  6
Continuous
 62
     7
370
     0
100
AcDbLine
 10
38.26818294190353
 20
88.35393572042679
 30
0.0
 11
43.58818294190353
 21
88.35393572042679
 31
0.0
  0
SOLID
  5
D9
330
1F
100
AcDbEntity
  8
0
  6
Continuous
 62
     7
370
     0
100
AcDbTrace
 10
43.58818294190353
 20
88.35393572042679
 30
0.0
 11
40.08818294190353
 21
88.91393572042679
 31
0.0
 12
40.08818294190353
 22
87.79393572042679
 32
0.0
 13
40.08818294190353
 23
87.79393572042679
 33
0.0
  0
MTEXT
  5
DB
330
1F
100
AcDbEntity
  8
0
  6
Continuous
 62
     7
100
AcDbMText
 10
33.25328799526467
 20
145.3798570688022
 30
0.0
 40
3.5
 41
0.0
 46
3.5
 71
     1
 72
     1
  1
{A}
  7
SLDTEXTSTYLE0
 73
     1
 44
1.0
1001
ACAD
1000
ACAD_MTEXT_DEFINED_HEIGHT_BEGIN
1070
    46
1040
3.5
1000
ACAD_MTEXT_DEFINED_HEIGHT_END
  0
MTEXT
  5
DC
330
1F
100
AcDbEntity
  8
0
  6
Continuous
 62
     7
100
AcDbMText
 10
35.57897981321272
 20
89.74328419152526
 30
0.0
 40
3.5
 41
0.0
 46
3.5
 71
     1
 72
     1
  1
{A}
  7
SLDTEXTSTYLE0
 73
     1
 44
1.0
1001
ACAD
1000
ACAD_MTEXT_DEFINED_HEIGHT_BEGIN
1070
    46
1040
3.5
1000
ACAD_MTEXT_DEFINED_HEIGHT_END
  0
ARC
  5
DD
330
1F
100
AcDbEntity
  8
0
  6
Continuous
 62
     7
370
    15
100
AcDbCircle
 10
86.99784919700265
 20
121.4579357250809
 30
0.0
 40
2.0
100
AcDbArc
 50
89.99999999422269
 51
179.9999999942235
  0
ARC
  5
DE
330
1F
100
AcDbEntity
  8
0
  6
Continuous
 62
     7
370
    15
100
AcDbCircle
 10
125.9978491970027
 20
121.4579357211487
 30
0.0
 40
2.0
100
AcDbArc
 50
359.9999999942239
 51
89.9999999942235
  0
LINE
  5
DF
330
1F
100
AcDbEntity
  8
0
  6
Continuous
 62
     7
370
    15
100
AcDbLine
 10
84.99784919700265
 20
121.4579357252825
 30
0.0
 11
84.99784919664977
 21
117.9579357252825
 31
0.0
  0
LINE
  5
E0
330
1F
100
AcDbEntity
  8
0
  6
Continuous
 62
     7
370
    15
100
AcDbLine
 10
127.9978491966498
 20
117.957935720947
 30
0.0
 11
127.9978491970027
 21
121.457935720947
 31
0.0
  0
LINE
  5
E1
330
1F
100
AcDbEntity
  8
0
  6
Continuous
 62
     7
370
    15
100
AcDbLine
 10
95.74784919901917
 20
141.4579357241987
 30
0.0
 11
94.9978491972043
 21
123.4579357242743
 31
0.0
  0
LINE
  5
E2
330
1F
100
AcDbEntity
  8
0
  6
Continuous
 62
     7
370
    15
100
AcDbLine
 10
117.9978491972043
 20
123.4579357219553
 30
0.0
 11
117.2478491990192
 21
141.4579357220309
 31
0.0
  0
LINE
  5
E3
330
1F
100
AcDbEntity
  8
0
  6
Continuous
 62
     7
370
    15
100
AcDbLine
 10
96.49784919664977
 20
117.957935724123
 30
0.0
 11
96.49784919637753
 21
115.2579357241231
 31
0.0
  0
LINE
  5
E4
330
1F
100
AcDbEntity
  8
0
  6
Continuous
 62
     7
370
    15
100
AcDbLine
 10
116.4978491963775
 20
115.2579357221066
 30
0.0
 11
116.4978491966498
 21
117.9579357221065
 31
0.0
  0
LINE
  5
E5
330
1F
100
AcDbEntity
  8
0
  6
Continuous
 62
     7
370
    15
100
AcDbLine
 10
96.49784919587341
 20
110.2579357241231
 30
0.0
 11
96.49784919536928
 21
105.2579357241231
 31
0.0
  0
LINE
  5
E6
330
1F
100
AcDbEntity
  8
0
  6
Continuous
 62
     7
370
    15
100
AcDbLine
 10
96.49784919441144
 20
95.75793572412306
 30
0.0
 11
101.496367217656
 21
92.25793572361908
 31
0.0
  0
LINE
  5
E7
330
1F
100
AcDbEntity
  8
0
  6
Continuous
 62
     7
370
    15
100
AcDbLine
 10
111.4993311704611
 20
92.25793572261053
 30
0.0
 11
116.4978491944114
 21
95.75793572210654
 31
0.0
  0
LINE
  5
E8
330
1F
100
AcDbEntity
  8
0
  6
Continuous
 62
     7
370
    15
100
AcDbLine
 10
96.49784919486515
 20
100.2579357241231
 30
0.0
 11
96.49784919441144
 21
95.75793572412306
 31
0.0
  0
LINE
  5
E9
330
1F
100
AcDbEntity
  8
0
  6
Continuous
 62
     7
370
    15
100
AcDbLine
 10
115.4978491958734
 20
110.2579357222074
 30
0.0
 11
115.4978491963775
 21
115.2579357222074
 31
0.0
  0
LINE
  5
EA
330
1F
100
AcDbEntity
  8
0
  6
Continuous
 62
     7
370
    15
100
AcDbLine
 10
97.49784919637753
 20
115.2579357240222
 30
0.0
 11
97.49784919587341
 21
110.2579357240222
 31
0.0
  0
LINE
  5
EB
330
1F
100
AcDbEntity
  8
0
  6
Continuous
 62
     7
370
    15
100
AcDbLine
 10
115.4978491948652
 20
100.2579357222074
 30
0.0
 11
115.4978491953693
 21
105.2579357222074
 31
0.0
  0
LINE
  5
EC
330
1F
100
AcDbEntity
  8
0
  6
Continuous
 62
     7
370
    15
100
AcDbLine
 10
97.49784919536928
 20
105.2579357240222
 30
0.0
 11
97.49784919486515
 21
100.2579357240222
 31
0.0
  0
LINE
  5
ED
330
1F
100
AcDbEntity
  8
0
  6
Continuous
 62
     7
370
    15
100
AcDbLine
 10
116.4978491953693
 20
105.2579357221066
 30
0.0
 11
116.4978491958734
 21
110.2579357221065
 31
0.0
  0
LINE
  5
EE
330
1F
100
AcDbEntity
  8
0
  6
Continuous
 62
     7
370
    15
100
AcDbLine
 10
116.4978491944114
 20
95.75793572210654
 30
0.0
 11
116.4978491948652
 21
100.2579357221066
 31
0.0
  0
LINE
  5
EF
330
1F
100
AcDbEntity
  8
0
  6
Continuous
 62
     7
370
    15
100
AcDbLine
 10
125.9978491972043
 20
123.4579357211487
 30
0.0
 11
86.99784919720435
 21
123.4579357250809
 31
0.0
  0
LINE
  5
F0
330
1F
100
AcDbEntity
  8
0
  6
Continuous
 62
     7
370
    15
100
AcDbLine
 10
84.9978491966498
 20
117.9579357252825
 30
0.0
 11
127.9978491966498
 21
117.957935720947
 31
0.0
  0
SPLINE
  5
F1
330
1F
100
AcDbEntity
  8
0
  6
Continuous
 62
     7
370
    15
100
AcDbSpline
210
0.0
220
0.0
230
1.0
 70
     8
 71
     3
 72
    10
 73
     6
 74
     0
 42
0.000000001
 43
0.00000001
 40
0.0
 40
0.0
 40
0.0
 40
0.0
 40
0.3802008209481267
 40
0.7713555381988255
 40
1.0
 40
1.0
 40
1.0
 40
1.0
 10
116.2370504269543
 20
125.2352996153598
 30
0.0
 10
116.2360725273998
 20
125.0018464594574
 30
0.0
 10
116.2340885542057
 20
124.528214171483
 30
0.0
 10
116.1643609021072
 20
123.9320757058234
 30
0.0
 10
116.0887382031009
 20
123.5857102450126
 30
0.0
 10
116.060840922984
 20
123.4579357221506
 30
0.0
  0
SPLINE
  5
F2
330
1F
100
AcDbEntity
  8
0
  6
Continuous
 62
     7
370
    15
100
AcDbSpline
210
0.0
220
0.0
230
1.0
 70
     8
 71
     3
 72
    10
 73
     6
 74
     0
 42
0.000000001
 43
0.00000001
 40
0.0
 40
0.0
 40
0.0
 40
0.0
 40
0.3813058720845869
 40
0.773692322135352
 40
1.0
 40
1.0
 40
1.0
 40
1.0
 10
96.9348574714246
 20
123.457935724079
 30
0.0
 10
96.8907295700874
 20
123.6730822999735
 30
0.0
 10
96.80119143035226
 20
124.1096275149562
 30
0.0
 10
96.75588849748613
 20
124.716625706608
 30
0.0
 10
96.7579089287746
 20
125.0963888037608
 30
0.0
 10
96.75864796781272
 20
125.2352996173238
 30
0.0
  0
LINE
  5
F3
330
1F
100
AcDbEntity
  8
0
  6
Continuous
 62
     7
370
    15
100
AcDbLine
 10
97.11807739403174
 20
141.4579357240605
 30
0.0
 11
95.74784919901917
 21
141.4579357241987
 31
0.0
  0
ELLIPSE
  5
F4
330
1F
100
AcDbEntity
  8
0
  6
Continuous
 62
     7
370
    15
100
AcDbEllipse
 10
106.4978491129526
 20
-712.1601150735543
 30
0.0
 11
1.047752249405676E-7
 21
1039.172857315453
 31
0.0
210
0.0
220
0.0
230
1.0
 40
0.0158272276089862
 41
0.6068650418319087
 42
0.6337225429655117
  0
ELLIPSE
  5
F5
330
1F
100
AcDbEntity
  8
0
  6
Continuous
 62
     7
370
    15
100
AcDbEllipse
 10
106.4978491129526
 20
-712.1601150735543
 30
0.0
 11
1.047752249405676E-7
 21
1039.172857315453
 31
0.0
210
0.0
220
0.0
230
1.0
 40
0.0158272276089862
 41
5.649462764214654
 42
5.676320265348277
  0
LINE
  5
F6
330
1F
100
AcDbEntity
  8
0
  6
Continuous
 62
     7
370
    15
100
AcDbLine
 10
117.2478491990192
 20
141.4579357220309
 30
0.0
 11
115.8776210040066
 21
141.4579357221691
 31
0.0
  0
LINE
  5
F7
330
1F
100
AcDbEntity
  8
0
  6
Continuous
 62
     7
370
    15
100
AcDbLine
 10
97.11807739403174
 20
141.4579357240605
 30
0.0
 11
115.8776210040066
 21
141.4579357221691
 31
0.0
  0
LINE
  5
F8
330
1F
100
AcDbEntity
  8
0
  6
Continuous
 62
     7
370
    15
100
AcDbLine
 10
116.4978491963775
 20
115.2579357221066
 30
0.0
 11
96.49784919637753
 21
115.2579357241231
 31
0.0
  0
LINE
  5
F9
330
1F
100
AcDbEntity
  8
0
  6
Continuous
 62
     7
370
    15
100
AcDbLine
 10
102.1389502523327
 20
110.2579357235543
 30
0.0
 11
102.1389502518286
 21
105.2579357235543
 31
0.0
  0
LINE
  5
FA
330
1F
100
AcDbEntity
  8
0
  6
Continuous
 62
     7
370
    15
100
AcDbLine
 10
102.1389502518286
 20
105.2579357235543
 30
0.0
 11
96.49784919536927
 21
105.2579357241231
 31
0.0
  0
LINE
  5
FB
330
1F
100
AcDbEntity
  8
0
  6
Continuous
 62
     7
370
    15
100
AcDbLine
 10
96.4978491958734
 20
110.2579357241231
 30
0.0
 11
102.1389502523327
 21
110.2579357235543
 31
0.0
  0
LINE
  5
FC
330
1F
100
AcDbEntity
  8
0
  6
Continuous
 62
     7
370
    15
100
AcDbLine
 10
106.4978491940585
 20
92.2579357231148
 30
0.0
 11
111.4993311704611
 21
92.25793572261053
 31
0.0
  0
LINE
  5
FD
330
1F
100
AcDbEntity
  8
0
  6
Continuous
 62
     7
370
    15
100
AcDbLine
 10
101.496367217656
 20
92.25793572361908
 30
0.0
 11
106.4978491940585
 21
92.2579357231148
 31
0.0
  0
LINE
  5
FE
330
1F
100
AcDbEntity
  8
0
  6
Continuous
 62
     7
370
    15
100
AcDbLine
 10
96.49784919441143
 20
95.75793572412306
 30
0.0
 11
102.1389502508708
 21
95.75793572355428
 31
0.0
  0
SPLINE
  5
FF
330
1F
100
AcDbEntity
  8
0
  6
Continuous
 62
     7
370
    15
100
AcDbSpline
210
0.0
220
0.0
230
1.0
 70
     8
 71
     3
 72
    14
 73
    10
 74
     0
 42
0.000000001
 43
0.00000001
 40
0.0
 40
0.0
 40
0.0
 40
0.0
 40
0.25
 40
0.25
 40
0.5
 40
0.5
 40
0.75
 40
0.75
 40
1.0
 40
1.0
 40
1.0
 40
1.0
 10
110.8567481379521
 20
95.75793572267531
 30
0.0
 10
110.146362615596
 20
95.54111654937059
 30
0.0
 10
109.4309876800027
 20
95.36575049067419
 30
0.0
 10
107.9870574896604
 20
95.12452328990021
 30
0.0
 10
107.2584444753172
 20
95.05914202691292
 30
0.0
 10
105.7858143293994
 20
95.05636020862009
 30
0.0
 10
105.0371687953123
 20
95.12072758101515
 30
0.0
 10
103.5728940636159
 20
95.36343712999084
 30
0.0
 10
102.8518578319298
 20
95.54034678400654
 30
0.0
 10
102.1389502508708
 20
95.75793572355428
 30
0.0
  0
LINE
  5
100
330
1F
100
AcDbEntity
  8
0
  6
Continuous
 62
     7
370
    15
100
AcDbLine
 10
110.8567481379521
 20
95.75793572267531
 30
0.0
 11
116.4978491944114
 21
95.75793572210654
 31
0.0
  0
LINE
  5
101
330
1F
100
AcDbEntity
  8
0
  6
Continuous
 62
     7
370
    15
100
AcDbLine
 10
102.1389502513245
 20
100.2579357235543
 30
0.0
 11
102.1389502508708
 21
95.75793572355428
 31
0.0
  0
LINE
  5
102
330
1F
100
AcDbEntity
  8
0
  6
Continuous
 62
     7
370
    15
100
AcDbLine
 10
96.49784919486515
 20
100.2579357241231
 30
0.0
 11
102.1389502513245
 21
100.2579357235543
 31
0.0
  0
LINE
  5
103
330
1F
100
AcDbEntity
  8
0
  6
Continuous
 62
     7
370
    15
100
AcDbLine
 10
110.8567481394141
 20
110.2579357226753
 30
0.0
 11
110.85674813891
 21
105.2579357226753
 31
0.0
  0
LINE
  5
104
330
1F
100
AcDbEntity
  8
0
  6
Continuous
 62
     7
370
    15
100
AcDbLine
 10
110.85674813891
 20
105.2579357226753
 30
0.0
 11
106.4978491953693
 21
105.2579357231148
 31
0.0
  0
LINE
  5
105
330
1F
100
AcDbEntity
  8
0
  6
Continuous
 62
     7
370
    15
100
AcDbLine
 10
106.4978491958734
 20
110.2579357231148
 30
0.0
 11
110.8567481394141
 21
110.2579357226753
 31
0.0
  0
LINE
  5
106
330
1F
100
AcDbEntity
  8
0
  6
Continuous
 62
     7
370
    15
100
AcDbLine
 10
102.1389502518286
 20
105.2579357235543
 30
0.0
 11
106.4978491953693
 21
105.2579357231148
 31
0.0
  0
LINE
  5
107
330
1F
100
AcDbEntity
  8
0
  6
Continuous
 62
     7
370
    15
100
AcDbLine
 10
102.1389502523327
 20
110.2579357235543
 30
0.0
 11
106.4978491958734
 21
110.2579357231148
 31
0.0
  0
LINE
  5
108
330
1F
100
AcDbEntity
  8
0
  6
Continuous
 62
     7
370
    15
100
AcDbLine
 10
110.8567481384058
 20
100.2579357226753
 30
0.0
 11
110.8567481379521
 21
95.75793572267531
 31
0.0
  0
LINE
  5
109
330
1F
100
AcDbEntity
  8
0
  6
Continuous
 62
     7
370
    15
100
AcDbLine
 10
106.4978491948652
 20
100.2579357231148
 30
0.0
 11
110.8567481384058
 21
100.2579357226753
 31
0.0
  0
LINE
  5
10A
330
1F
100
AcDbEntity
  8
0
  6
Continuous
 62
     7
370
    15
100
AcDbLine
 10
102.1389502513245
 20
100.2579357235543
 30
0.0
 11
106.4978491948652
 21
100.2579357231148
 31
0.0
  0
LINE
  5
10B
330
1F
100
AcDbEntity
  8
0
  6
Continuous
 62
     7
370
    15
100
AcDbLine
 10
116.4978491953693
 20
105.2579357221066
 30
0.0
 11
110.85674813891
 21
105.2579357226753
 31
0.0
  0
LINE
  5
10C
330
1F
100
AcDbEntity
  8
0
  6
Continuous
 62
     7
370
    15
100
AcDbLine
 10
116.4978491958734
 20
110.2579357221065
 30
0.0
 11
110.8567481394141
 21
110.2579357226753
 31
0.0
  0
LINE
  5
10D
330
1F
100
AcDbEntity
  8
0
  6
Continuous
 62
     7
370
    15
100
AcDbLine
 10
116.4978491948652
 20
100.2579357221066
 30
0.0
 11
110.8567481384058
 21
100.2579357226753
 31
0.0
  0
LINE
  5
10E
330
1F
100
AcDbEntity
  8
0
  6
Continuous
 62
     8
370
     0
100
AcDbLine
 10
84.99784919700268
 20
121.4579357252825
 30
0.0
 11
127.9978491970027
 21
121.457935720947
 31
0.0
  0
LINE
  5
10F
330
1F
100
AcDbEntity
  8
0
  6
Continuous
 62
     8
370
     0
100
AcDbLine
 10
96.75864796781272
 20
125.2352996173238
 30
0.0
 11
116.2370504269543
 21
125.2352996153598
 31
0.0
  0
CIRCLE
  5
110
330
1F
100
AcDbEntity
  8
0
  6
Continuous
 62
     7
370
    15
100
AcDbCircle
 10
43.58818294190353
 20
56.19504326282416
 30
0.0
 40
21.5
  0
ARC
  5
111
330
1F
100
AcDbEntity
  8
0
  6
Continuous
 62
     7
370
    15
100
AcDbCircle
 10
43.58818294190353
 20
56.19504326262251
 30
0.0
 40
6.750000000000002
100
AcDbArc
 50
341.1353597268792
 51
18.86464027312168
  0
ARC
  5
112
330
1F
100
AcDbEntity
  8
0
  6
Continuous
 62
     7
370
    15
100
AcDbCircle
 10
43.58818294190353
 20
56.19504326262251
 30
0.0
 40
6.750000000000008
100
AcDbArc
 50
161.1353597268783
 51
198.8646402731223
  0
LINE
  5
113
330
1F
100
AcDbEntity
  8
0
  6
Continuous
 62
     7
370
    15
100
AcDbLine
 10
45.88454955876828
 20
55.95002551837768
 30
0.0
 11
44.94855783997083
 21
58.06124621638058
 31
0.0
  0
LINE
  5
114
330
1F
100
AcDbEntity
  8
0
  6
Continuous
 62
     7
370
    15
100
AcDbLine
 10
44.94855783997083
 20
58.06124621638058
 30
0.0
 11
42.65219122310607
 21
58.30626395917158
 31
0.0
  0
LINE
  5
115
330
1F
100
AcDbEntity
  8
0
  6
Continuous
 62
     7
370
    15
100
AcDbLine
 10
42.65219122310607
 20
58.30626395917158
 30
0.0
 11
41.29181632503875
 21
56.44006100395966
 31
0.0
  0
LINE
  5
116
330
1F
100
AcDbEntity
  8
0
  6
Continuous
 62
     7
370
    15
100
AcDbLine
 10
41.29181632503875
 20
56.44006100395966
 30
0.0
 11
42.22780804383621
 21
54.32884030595675
 31
0.0
  0
LINE
  5
117
330
1F
100
AcDbEntity
  8
0
  6
Continuous
 62
     7
370
    15
100
AcDbLine
 10
42.22780804383621
 20
54.32884030595675
 30
0.0
 11
44.52417466070098
 21
54.08382256316576
 31
0.0
  0
LINE
  5
118
330
1F
100
AcDbEntity
  8
0
  6
Continuous
 62
     7
370
    15
100
AcDbLine
 10
44.52417466070098
 20
54.08382256316576
 30
0.0
 11
45.88454955876828
 21
55.95002551837768
 31
0.0
  0
ARC
  5
119
330
1F
100
AcDbEntity
  8
0
  6
Continuous
 62
     7
370
    15
100
AcDbCircle
 10
43.58818294190353
 20
56.19504326262251
 30
0.0
 40
11.50000000000001
100
AcDbArc
 50
56.25978677150859
 51
123.7402132284915
  0
SPLINE
  5
11A
330
1F
100
AcDbEntity
  8
0
  6
Continuous
 62
     7
370
    15
100
AcDbSpline
210
0.0
220
0.0
230
1.0
 70
     8
 71
     3
 72
    10
 73
     6
 74
     0
 42
0.000000001
 43
0.00000001
 40
0.0
 40
0.0
 40
0.0
 40
0.0
 40
0.3813058720845837
 40
0.7736923221353456
 40
1.0
 40
1.0
 40
1.0
 40
1.0
 10
49.97560724694767
 20
65.75803498840222
 30
0.0
 10
49.89197099141624
 20
65.80216288973959
 30
0.0
 10
49.72226804820409
 20
65.89170102947507
 30
0.0
 10
49.59982581982607
 20
65.93700396233893
 30
0.0
 10
49.57296669208846
 20
65.93498353105436
 30
0.0
 10
49.56314208481727
 20
65.93424449201768
 30
0.0
  0
ELLIPSE
  5
11B
330
1F
100
AcDbEntity
  8
0
  6
Continuous
 62
     7
370
    15
100
AcDbEllipse
 10
86.8870519967097
 20
56.19504334687712
 30
0.0
 11
46.31741878320296
 21
1.198972512383989E-7
 31
0.0
210
0.0
220
0.0
230
1.0
 40
0.3550980553298184
 41
2.507870109704899
 42
2.534727610838678
  0
ARC
  5
11C
330
1F
100
AcDbEntity
  8
0
  6
Continuous
 62
     7
370
    15
100
AcDbCircle
 10
43.58818294190353
 20
56.19504326080759
 30
0.0
 40
10.75
100
AcDbArc
 50
60.754796885511
 51
119.245203114489
  0
ELLIPSE
  5
11D
330
1F
100
AcDbEntity
  8
0
  6
Continuous
 62
     7
370
    15
100
AcDbEllipse
 10
0.2893138870973394
 20
56.19504334687711
 30
0.0
 11
46.31741878320297
 21
-1.198972512383989E-7
 31
0.0
210
0.0
220
0.0
230
1.0
 40
0.3550980553298183
 41
0.6068650427511157
 42
0.6337225438847195
  0
SPLINE
  5
11E
330
1F
100
AcDbEntity
  8
0
  6
Continuous
 62
     7
370
    15
100
AcDbSpline
210
0.0
220
0.0
230
1.0
 70
     8
 71
     3
 72
    10
 73
     6
 74
     0
 42
0.000000001
 43
0.00000001
 40
0.0
 40
0.0
 40
0.0
 40
0.0
 40
0.3813058720845869
 40
0.773692322135352
 40
1.0
 40
1.0
 40
1.0
 40
1.0
 10
37.20075863685936
 20
65.75803498840222
 30
0.0
 10
37.28439489239081
 20
65.80216288973942
 30
0.0
 10
37.45409783560296
 20
65.89170102947456
 30
0.0
 10
37.57654006398098
 20
65.9370039623407
 30
0.0
 10
37.60339919171858
 20
65.93498353105221
 30
0.0
 10
37.61322379898978
 20
65.9342444920141
 30
0.0
  0
LINE
  5
11F
330
1F
100
AcDbEntity
  8
0
  6
Continuous
 62
     7
370
    15
100
AcDbLine
 10
48.84007601834396
 20
65.57481506579501
 30
0.0
 11
48.84007601834396
 21
46.81527145582017
 31
0.0
  0
ARC
  5
120
330
1F
100
AcDbEntity
  8
0
  6
Continuous
 62
     7
370
    15
100
AcDbCircle
 10
43.58818294190353
 20
56.19504326080759
 30
0.0
 40
10.75
100
AcDbArc
 50
240.7547968855118
 51
299.2452031144899
  0
LINE
  5
121
330
1F
100
AcDbEntity
  8
0
  6
Continuous
 62
     7
370
    15
100
AcDbLine
 10
38.33628986546309
 20
65.57481506579501
 30
0.0
 11
38.33628986546309
 21
46.81527145582017
 31
0.0
  0
CIRCLE
  5
122
330
1F
100
AcDbEntity
  8
0
  6
Continuous
 62
     7
370
    15
100
AcDbCircle
 10
43.58818294190353
 20
56.19504326080759
 30
0.0
 40
3.399999999999977
  0
ELLIPSE
  5
123
330
1F
100
AcDbEntity
  8
0
  6
Continuous
 62
     7
370
    15
100
AcDbEllipse
 10
86.8870519967097
 20
56.19504334687712
 30
0.0
 11
46.31741878320296
 21
1.198972512383989E-7
 31
0.0
210
0.0
220
0.0
230
1.0
 40
0.3550980553298184
 41
3.748457694502524
 42
3.775315195636301
  0
ELLIPSE
  5
124
330
1F
100
AcDbEntity
  8
0
  6
Continuous
 62
     7
370
    15
100
AcDbEllipse
 10
0.2893138870973394
 20
56.19504334687711
 30
0.0
 11
46.31741878320297
 21
-1.198972512383989E-7
 31
0.0
210
0.0
220
0.0
230
1.0
 40
0.3550980553298183
 41
5.649462765133308
 42
5.676320266266912
  0
SPLINE
  5
125
330
1F
100
AcDbEntity
  8
0
  6
Continuous
 62
     7
370
    15
100
AcDbSpline
210
0.0
220
0.0
230
1.0
 70
     8
 71
     3
 72
    10
 73
     6
 74
     0
 42
0.000000001
 43
0.00000001
 40
0.0
 40
0.0
 40
0.0
 40
0.0
 40
0.3802008209481725
 40
0.7713555381988354
 40
1.0
 40
1.0
 40
1.0
 40
1.0
 10
49.56314208481727
 20
46.45584203286893
 30
0.0
 10
49.58331751465187
 20
46.45681993242493
 30
0.0
 10
49.62424964493936
 20
46.45880390562215
 30
0.0
 10
49.78305940687495
 20
46.52853155771945
 30
0.0
 10
49.92371812297458
 20
46.60415425672584
 30
0.0
 10
49.97560724694768
 20
46.6320515368428
 30
0.0
  0
ARC
  5
126
330
1F
100
AcDbEntity
  8
0
  6
Continuous
 62
     7
370
    15
100
AcDbCircle
 10
43.58818294190353
 20
56.19504326262251
 30
0.0
 40
11.49999999999999
100
AcDbArc
 50
236.2597867715093
 51
303.7402132284923
  0
SPLINE
  5
127
330
1F
100
AcDbEntity
  8
0
  6
Continuous
 62
     7
370
    15
100
AcDbSpline
210
0.0
220
0.0
230
1.0
 70
     8
 71
     3
 72
    10
 73
     6
 74
     0
 42
0.000000001
 43
0.00000001
 40
0.0
 40
0.0
 40
0.0
 40
0.0
 40
0.3802008209481267
 40
0.7713555381988255
 40
1.0
 40
1.0
 40
1.0
 40
1.0
 10
37.61322379898978
 20
46.4558420328725
 30
0.0
 10
37.59304836915518
 20
46.456819932427
 30
0.0
 10
37.55211623886768
 20
46.45880390562115
 30
0.0
 10
37.3933064769321
 20
46.52853155771958
 30
0.0
 10
37.25264776083247
 20
46.60415425672588
 30
0.0
 10
37.20075863685937
 20
46.6320515368428
 30
0.0
  0
LINE
  5
128
330
1F
100
AcDbEntity
  8
0
  6
Continuous
 62
     7
370
    15
100
AcDbLine
 10
49.97560724694768
 20
58.37754429293869
 30
0.0
 11
49.97560724694767
 21
65.75803498840222
 31
0.0
  0
SPLINE
  5
129
330
1F
100
AcDbEntity
  8
0
  6
Continuous
 62
     7
370
    15
100
AcDbSpline
210
0.0
220
0.0
230
1.0
 70
     8
 71
     3
 72
    10
 73
     6
 74
     0
 42
0.000000001
 43
0.00000001
 40
0.0
 40
0.0
 40
0.0
 40
0.0
 40
0.1593274494824234
 40
0.7640295548027886
 40
0.9999999999999999
 40
0.9999999999999999
 40
0.9999999999999999
 40
0.9999999999999999
 10
50.17908100815941
 20
57.63427632843494
 30
0.0
 10
50.17066562580228
 20
57.67768327931973
 30
0.0
 10
50.13031099226797
 20
57.88583443888194
 30
0.0
 10
50.05643979267206
 20
58.13328192587701
 30
0.0
 10
49.99332351118468
 20
58.32400872011661
 30
0.0
 10
49.97560724694768
 20
58.37754429293869
 30
0.0
  0
LINE
  5
12A
330
1F
100
AcDbEntity
  8
0
  6
Continuous
 62
     7
370
    15
100
AcDbLine
 10
49.97560724694768
 20
46.6320515368428
 30
0.0
 11
49.97560724694768
 21
54.01254223230634
 31
0.0
  0
LINE
  5
12B
330
1F
100
AcDbEntity
  8
0
  6
Continuous
 62
     7
370
    15
100
AcDbLine
 10
37.20075863685937
 20
46.6320515368428
 30
0.0
 11
37.20075863685936
 21
54.01254223230634
 31
0.0
  0
LINE
  5
12C
330
1F
100
AcDbEntity
  8
0
  6
Continuous
 62
     7
370
    15
100
AcDbLine
 10
37.20075863685936
 20
54.01254223230634
 30
0.0
 11
37.0963757127122
 21
54.35902721563134
 31
0.0
  0
SPLINE
  5
12D
330
1F
100
AcDbEntity
  8
0
  6
Continuous
 62
     7
370
    15
100
AcDbSpline
210
0.0
220
0.0
230
1.0
 70
     8
 71
     3
 72
     9
 73
     5
 74
     0
 42
0.000000001
 43
0.00000001
 40
0.0
 40
0.0
 40
0.0
 40
0.0
 40
0.545343948059021
 40
0.9999999999999999
 40
0.9999999999999999
 40
0.9999999999999999
 40
0.9999999999999999
 10
37.08943510316986
 20
58.00405377341743
 30
0.0
 10
37.10836256953711
 20
58.07612817789512
 30
0.0
 10
37.14306996188027
 20
58.20829138376588
 30
0.0
 10
37.18272791050814
 20
58.32464391187517
 30
0.0
 10
37.20075863685936
 20
58.37754429293869
 30
0.0
  0
LINE
  5
12E
330
1F
100
AcDbEntity
  8
0
  6
Continuous
 62
     7
370
    15
100
AcDbLine
 10
37.20075863685936
 20
58.37754429293869
 30
0.0
 11
37.20075863685936
 21
65.75803498840222
 31
0.0
  0
CIRCLE
  5
12F
330
1F
100
AcDbEntity
  8
0
  6
Continuous
 62
     8
370
     0
100
AcDbCircle
 10
43.58818294190353
 20
56.19504326262251
 30
0.0
 40
19.5
  0
LINE
  5
130
330
1F
100
AcDbEntity
  8
0
  6
Continuous
 62
     8
370
     0
100
AcDbLine
 10
49.56314208481727
 20
65.93424449201768
 30
0.0
 11
49.56314208481727
 21
46.45584203286893
 31
0.0
  0
LINE
  5
131
330
1F
100
AcDbEntity
  8
0
  6
Continuous
 62
     8
370
     0
100
AcDbLine
 10
37.61322379898978
 20
65.9342444920141
 30
0.0
 11
37.61322379898978
 21
46.4558420328725
 31
0.0
  0
LINE
  5
132
330
1F
100
AcDbEntity
  8
0
  6
Continuous
 62
     7
370
    15
100
AcDbLine
 10
150.4945265261875
 20
216.7195775336352
 30
0.0
 11
150.4215974963313
 21
215.2042147763648
 31
0.0
  0
LINE
  5
133
330
1F
100
AcDbEntity
  8
0
  6
Continuous
 62
     7
370
    15
100
AcDbLine
 10
150.5422481368514
 20
217.7111655426843
 30
0.0
 11
150.4945265261875
 21
216.7195775336352
 31
0.0
  0
LINE
  5
134
330
1F
100
AcDbEntity
  8
0
  6
Continuous
 62
     7
370
    15
100
AcDbLine
 10
173.4149414406283
 20
215.2042147763648
 30
0.0
 11
172.6651584859229
 21
230.7836509465286
 31
0.0
  0
LINE
  5
135
330
1F
100
AcDbEntity
  8
0
  6
Continuous
 62
     7
370
    15
100
AcDbLine
 10
168.6682694684798
 20
212.8781936868752
 30
0.0
 11
168.6682694684798
 21
213.3266672909409
 31
0.0
  0
LINE
  5
136
330
1F
100
AcDbEntity
  8
0
  6
Continuous
 62
     7
370
    15
100
AcDbLine
 10
145.9182694684798
 20
214.0266607898301
 30
0.0
 11
145.9182694684798
 21
211.4285845784769
 31
0.0
  0
LINE
  5
137
330
1F
100
AcDbEntity
  8
0
  6
Continuous
 62
     7
370
    15
100
AcDbLine
 10
177.9182694684798
 20
211.4285845784769
 30
0.0
 11
177.9182694684798
 21
214.0266607898302
 31
0.0
  0
LINE
  5
138
330
1F
100
AcDbEntity
  8
0
  6
Continuous
 62
     7
370
    15
100
AcDbLine
 10
170.9182694684798
 20
203.6343559444169
 30
0.0
 11
170.9182694684798
 21
204.8142063008154
 31
0.0
  0
LINE
  5
139
330
1F
100
AcDbEntity
  8
0
  6
Continuous
 62
     7
370
    15
100
AcDbLine
 10
152.9182694684798
 20
204.8142063008154
 30
0.0
 11
152.9182694684798
 21
203.6343559444169
 31
0.0
  0
LINE
  5
13A
330
1F
100
AcDbEntity
  8
0
  6
Continuous
 62
     7
370
    15
100
AcDbLine
 10
151.9182694684798
 20
203.6343559444169
 30
0.0
 11
151.9182694684798
 21
199.3042289254947
 31
0.0
  0
LINE
  5
13B
330
1F
100
AcDbEntity
  8
0
  6
Continuous
 62
     7
370
    15
100
AcDbLine
 10
170.9182694684798
 20
194.9741019065725
 30
0.0
 11
170.9182694684798
 21
197.1247794537244
 31
0.0
  0
LINE
  5
13C
330
1F
100
AcDbEntity
  8
0
  6
Continuous
 62
     7
370
    15
100
AcDbLine
 10
152.9182694684798
 20
197.1247794537244
 30
0.0
 11
152.9182694684798
 21
194.9741019065725
 31
0.0
  0
LINE
  5
13D
330
1F
100
AcDbEntity
  8
0
  6
Continuous
 62
     7
370
    15
100
AcDbLine
 10
151.9182694684798
 20
194.9741019065725
 30
0.0
 11
151.9182694684798
 21
191.0769875895426
 31
0.0
  0
LINE
  5
13E
330
1F
100
AcDbEntity
  8
0
  6
Continuous
 62
     7
370
    15
100
AcDbLine
 10
171.9182694684798
 20
199.3042289254947
 30
0.0
 11
171.9182694684798
 21
203.6343559444169
 31
0.0
  0
LINE
  5
13F
330
1F
100
AcDbEntity
  8
0
  6
Continuous
 62
     7
370
    15
100
AcDbLine
 10
156.2602566523092
 20
186.9542794088666
 30
0.0
 11
159.0884245562466
 21
185.9839336103352
 31
0.0
  0
LINE
  5
140
330
1F
100
AcDbEntity
  8
0
  6
Continuous
 62
     7
370
    15
100
AcDbLine
 10
164.748114380713
 20
185.9839336103352
 30
0.0
 11
167.0259335041523
 21
186.7654544716556
 31
0.0
  0
LINE
  5
141
330
1F
100
AcDbEntity
  8
0
  6
Continuous
 62
     7
370
    15
100
AcDbLine
 10
171.9182694684798
 20
191.0769875895426
 30
0.0
 11
171.9182694684798
 21
194.9741019065725
 31
0.0
  0
ELLIPSE
  5
142
330
1F
100
AcDbEntity
  8
0
  6
Continuous
 62
     7
370
    15
100
AcDbEllipse
 10
183.5677039958829
 20
-527.3495288546779
 30
0.0
 11
-23.10043131395239
 21
920.0152420262988
 31
0.0
210
0.0
220
0.0
230
1.0
 40
0.0155845648106824
 41
0.6109430281372629
 42
0.63780052927104
  0
SPLINE
  5
143
330
1F
100
AcDbEntity
  8
0
  6
Continuous
 62
     7
370
    15
100
AcDbSpline
210
0.0
220
0.0
230
1.0
 70
     8
 71
     3
 72
    10
 73
     6
 74
     0
 42
0.000000001
 43
0.00000001
 40
0.0
 40
0.0
 40
0.0
 40
0.0
 40
0.3802008209481725
 40
0.7713555381988354
 40
1.0
 40
1.0
 40
1.0
 40
1.0
 10
156.4713533625566
 20
211.583100048113
 30
0.0
 10
156.4822879633114
 20
211.3724319420063
 30
0.0
 10
156.504472199603
 20
210.9450262095252
 30
0.0
 10
156.6442629985812
 20
210.3774204229914
 30
0.0
 10
156.7800835350431
 20
210.0354577989691
 30
0.0
 10
156.8301878502963
 20
209.9093074864674
 30
0.0
  0
LWPOLYLINE
  5
144
330
1F
100
AcDbEntity
  8
0
  6
Continuous
 62
     7
370
    15
100
AcDbPolyline
 90
       15
 70
   128
 43
0.0
 10
156.8301878502963
 20
209.9093074864674
 10
155.9816052424398
 20
210.1413096203815
 10
155.1750121288421
 20
210.4081428791857
 10
154.4161134703403
 20
210.7079199751435
 10
153.710276889163
 20
211.0385206117095
 10
153.0624947042195
 20
211.3976064801969
 10
152.4773486208749
 20
211.782637798425
 10
151.9589773249587
 20
212.1908912743715
 10
151.5110472102109
 20
212.6194793677728
 10
151.1367264462069
 20
213.0653707134375
 10
150.8386625701785
 20
213.5254115618212
 10
150.6189637612202
 20
213.9963480852142
 10
150.4791839293268
 20
214.4748493917733
 10
150.4203117247276
 20
214.957531084622
 10
150.4215974963313
 20
215.2042147763648
  0
ELLIPSE
  5
145
330
1F
100
AcDbEntity
  8
0
  6
Continuous
 62
     7
370
    15
100
AcDbEllipse
 10
140.2688349410766
 20
-489.8516082980797
 30
0.0
 11
23.23100670632093
 21
879.9035910000013
 31
0.0
210
0.0
220
0.0
230
1.0
 40
0.0160534558042813
 41
0.6119619170955798
 42
0.6369985225528678
  0
LWPOLYLINE
  5
146
330
1F
100
AcDbEntity
  8
0
  6
Continuous
 62
     7
370
    15
100
AcDbPolyline
 90
       12
 70
   128
 43
0.0
 10
156.4210953418799
 20
226.035269180166
 10
155.5886379529738
 20
226.3098616660607
 10
154.8106565805014
 20
226.621845007631
 10
154.093846926405
 20
226.9685341181385
 10
153.4443782178189
 20
227.3469452154094
 10
152.8678401115747
 20
227.7538215017766
 10
152.3691945867818
 20
228.1856611937306
 10
151.952733239521
 20
228.6387476600428
 10
151.6220403471929
 20
229.1091814089776
 10
151.3799620204114
 20
229.5929136492941
 10
151.2285817079326
 20
230.0857811361953
 10
151.1692022654395
 20
230.583542002323
  0
LINE
  5
147
330
1F
100
AcDbEntity
  8
0
  6
Continuous
 62
     7
370
    15
100
AcDbLine
 10
172.6673366715201
 20
230.7251550826597
 30
0.0
 11
156.4210953418799
 21
226.035269180166
 31
0.0
  0
ELLIPSE
  5
148
330
1F
100
AcDbEntity
  8
0
  6
Continuous
 62
     7
370
    15
100
AcDbEllipse
 10
183.5677039958829
 20
-527.3495288546779
 30
0.0
 11
-23.10043131395239
 21
920.0152420262988
 31
0.0
210
0.0
220
0.0
230
1.0
 40
0.0155845648106824
 41
5.653540750519832
 42
5.680398251653639
  0
LINE
  5
149
330
1F
100
AcDbEntity
  8
0
  6
Continuous
 62
     7
370
    15
100
AcDbLine
 10
167.4154435950797
 20
235.2734279048167
 30
0.0
 11
151.1692022654395
 21
230.583542002323
 31
0.0
  0
LWPOLYLINE
  5
14A
330
1F
100
AcDbEntity
  8
0
  6
Continuous
 62
     7
370
    15
100
AcDbPolyline
 90
       12
 70
   128
 43
0.0
 10
167.4154435950797
 20
235.2734279048167
 10
168.2479009839857
 20
234.9988354189221
 10
169.0258823564581
 20
234.6868520773517
 10
169.7426920105546
 20
234.3401629668443
 10
170.3921607191407
 20
233.9617518695734
 10
170.9686988253849
 20
233.5548755832062
 10
171.4673443501777
 20
233.1230358912521
 10
171.8838056974386
 20
232.6699494249399
 10
172.2144985897666
 20
232.1995156760051
 10
172.4565769165481
 20
231.7157834356886
 10
172.6079572290269
 20
231.2229159487874
 10
172.6673366715201
 20
230.7251550826597
  0
LWPOLYLINE
  5
14B
330
1F
100
AcDbEntity
  8
0
  6
Continuous
 62
     7
370
    15
100
AcDbPolyline
 90
       42
 70
   128
 43
0.0
 10
163.6182694684798
 20
229.1821053560578
 10
163.148872451696
 20
229.0696075307091
 10
162.6506311439963
 20
228.9942546915123
 10
162.1352238993435
 20
228.9578130451521
 10
161.6147314267133
 20
228.9611367529328
 10
161.1013536285152
 20
229.0041479099609
 10
160.6071236452201
 20
229.0858383711704
 10
160.1436258087466
 20
229.2042933813881
 10
159.721724115539
 20
229.3567364555723
 10
159.3513075836987
 20
229.5395944572688
 10
159.0410584627818
 20
229.7485813499013
 10
158.7982487292275
 20
229.9787986578353
 10
158.6285696373942
 20
230.2248502824962
 10
158.5359983213814
 20
230.4809689823455
 10
158.5227045743764
 20
230.7411515521349
 10
158.5889999905419
 20
230.9992995329491
 10
158.7333306615123
 20
231.2493621549139
 10
158.952313598689
 20
231.4854781621136
 10
159.240816027626
 20
231.7021131954622
 10
159.5920756959123
 20
231.8941895133893
 10
159.9978593746372
 20
232.057205009799
 10
160.4486558382977
 20
232.1873387396211
 10
160.9338987998628
 20
232.2815404785246
 10
161.4422145755865
 20
232.3376022175915
 10
161.9616886745141
 20
232.3542099171737
 10
162.4801450640527
 20
232.330974306869
 10
162.9854315658548
 20
232.2684400096894
 10
163.465704692579
 20
232.1680727765592
 10
163.9097072491957
 20
232.0322251303556
 10
164.3070321920967
 20
231.8640812247665
 10
164.6483665613776
 20
231.6675822104267
 10
164.9257097687239
 20
231.4473338576876
 10
165.1325611244207
 20
231.2084986012635
 10
165.2640722080095
 20
230.9566745371375
 10
165.3171605111547
 20
230.6977642079367
 10
165.290581689026
 20
230.4378362523353
 10
165.184958726687
 20
230.1829831613078
 10
165.0027673368531
 20
229.9391784753044
 10
164.7482779312836
 20
229.7121367695259
 10
164.42745552595
 20
229.5071797091241
 10
164.0478199261167
 20
229.3291113138811
 10
163.6182694684798
 20
229.1821053560578
  0
SPLINE
  5
14C
330
1F
100
AcDbEntity
  8
0
  6
Continuous
 62
     7
370
    15
100
AcDbSpline
210
0.0
220
0.0
230
1.0
 70
     8
 71
     3
 72
    10
 73
     6
 74
     0
 42
0.000000001
 43
0.00000001
 40
0.0
 40
0.0
 40
0.0
 40
0.0
 40
0.3813058720845837
 40
0.7736923221353456
 40
1.0
 40
1.0
 40
1.0
 40
1.0
 10
173.3937753917075
 20
214.6908033493572
 30
0.0
 10
173.3901731475344
 20
214.9243732859388
 30
0.0
 10
173.382863979585
 20
215.3983005969108
 30
0.0
 10
173.360876356175
 20
215.9883212242954
 30
0.0
 10
173.3456970475203
 20
216.3283309495104
 30
0.0
 10
173.3401447173167
 20
216.4527006629002
 30
0.0
  0
LINE
  5
14D
330
1F
100
AcDbEntity
  8
0
  6
Continuous
 62
     7
370
    15
100
AcDbLine
 10
167.0020829570414
 20
212.8456806754913
 30
0.0
 11
173.3937753917075
 21
214.6908033493572
 31
0.0
  0
SPLINE
  5
14E
330
1F
100
AcDbEntity
  8
0
  6
Continuous
 62
     7
370
    15
100
AcDbSpline
210
0.0
220
0.0
230
1.0
 70
     8
 71
     3
 72
    16
 73
    12
 74
     0
 42
0.000000001
 43
0.00000001
 40
0.0
 40
0.0
 40
0.0
 40
0.0
 40
0.1202418954928181
 40
0.2405926168318269
 40
0.3602318241857652
 40
0.4799071727912307
 40
0.6056772226662179
 40
0.73141432050773
 40
0.8438262417591355
 40
0.9561632038092244
 40
0.9999999999999999
 40
0.9999999999999999
 40
0.9999999999999999
 40
0.9999999999999999
 10
163.2218802849623
 20
211.7544301603332
 30
0.0
 10
163.3768542390295
 20
211.6810577552038
 30
0.0
 10
163.686942407525
 20
211.5342465386892
 30
0.0
 10
164.1966461383742
 20
211.4380402263184
 30
0.0
 10
164.709556452734
 20
211.431684881666
 30
0.0
 10
165.2232479095974
 20
211.5172244703453
 30
0.0
 10
165.7212325750318
 20
211.6956398532015
 30
0.0
 10
166.1748985515093
 20
211.9572654296532
 30
0.0
 10
166.5664162596568
 20
212.2879761520924
 30
0.0
 10
166.8316381210973
 20
212.5918911800687
 30
0.0
 10
166.9647261507654
 20
212.7900570189407
 30
0.0
 10
167.0020829570414
 20
212.8456806754913
 30
0.0
  0
LINE
  5
14F
330
1F
100
AcDbEntity
  8
0
  6
Continuous
 62
     7
370
    15
100
AcDbLine
 10
156.8301878502963
 20
209.9093074864674
 30
0.0
 11
163.2218802849623
 21
211.7544301603332
 31
0.0
  0
LWPOLYLINE
  5
150
330
1F
100
AcDbEntity
  8
0
  6
Continuous
 62
     7
370
    15
100
AcDbPolyline
 90
        3
 70
   128
 43
0.0
 10
173.4149414406283
 20
215.2042147763648
 10
173.4162272122319
 20
215.174251464121
 10
173.3937753917075
 20
214.6908033493572
  0
LWPOLYLINE
  5
151
330
1F
100
AcDbEntity
  8
0
  6
Continuous
 62
     7
370
    15
100
AcDbPolyline
 90
       39
 70
   128
 43
0.0
 10
148.0618630079288
 20
207.4285845784769
 10
148.6606906402613
 20
206.9498402339766
 10
149.3255668634395
 20
206.4934087685129
 10
150.0531792975639
 20
206.0615641006876
 10
150.8399030140876
 20
205.6564576589134
 10
151.6818185950283
 20
205.2801076631056
 10
152.5747316593115
 20
204.9343890700123
 10
153.5141937589657
 20
204.6210242322744
 10
154.4955245410669
 20
204.3415743177504
 10
155.513835065021
 20
204.097431531858
 10
156.5640521590203
 20
203.8898121816757
 10
157.64094369433
 20
203.7197506163624
 10
158.7391446514906
 20
203.5880940740823
 10
159.8531838485745
 20
203.4954984611064
 10
160.9775111983398
 20
203.4424250841209
 10
162.1065253584854
 20
203.4291383520203
 10
163.2346016372566
 20
203.4557044586355
 10
164.3561200153764
 20
203.5219910529597
 10
165.4654931446992
 20
203.6276678985143
 10
166.5571941840978
 20
203.7722085185705
 10
167.6257843339082
 20
203.9548928190297
 10
168.6659399317558
 20
204.1748106758963
 10
169.6724789747735
 20
204.4308664694697
 10
170.6403869360794
 20
204.7217845426663
 10
171.5648417468975
 20
205.046115556279
 10
172.4412378198619
 20
205.4022437095123
 10
173.2652089938211
 20
205.7883947898206
 10
174.0326502858334
 20
206.2026450119459
 10
174.7397383419856
 20
206.6429306021189
 10
175.3829504851494
 20
207.1070580796764
 10
175.9590822647822
 20
207.5927151848716
 10
176.4652634213381
 20
208.0974823984356
 10
176.8989721857569
 20
208.618844995501
 10
177.2580478427905
 20
209.1542055738346
 10
177.5407014955775
 20
209.7008969939646
 10
177.7455249778377
 20
210.2561956667354
 10
177.8714978692855
 20
210.8173351220914
 10
177.9179925793122
 20
211.3815197914924
 10
177.9182694684798
 20
211.4285845784769
  0
ARC
  5
152
330
1F
100
AcDbEntity
  8
0
  6
Continuous
 62
     7
370
    15
100
AcDbCircle
 10
151.2761827055774
 20
211.7255074706736
 30
0.0
 40
5.366134312535987
100
AcDbArc
 50
183.1719522372473
 51
233.2016186267818
  0
LWPOLYLINE
  5
153
330
1F
100
AcDbEntity
  8
0
  6
Continuous
 62
     7
370
    15
100
AcDbPolyline
 90
       20
 70
   128
 43
0.0
 10
148.0618630079288
 20
210.0266607898301
 10
147.5320672955843
 20
210.5253329331243
 10
147.0739429188173
 20
211.0414485156784
 10
146.6897722302283
 20
211.5724362756216
 10
146.3814691488637
 20
212.1156508586434
 10
146.1505696251666
 20
212.6683859970156
 10
145.9982239889495
 20
213.2278879920823
 10
145.9251912185088
 20
213.7913694330479
 10
145.9318351594332
 20
214.3560230837175
 10
146.0181227119432
 20
214.9190358680064
 10
146.1836239957926
 20
215.4776028845436
 10
146.4275144919102
 20
216.0289413805495
 10
146.7485791501125
 20
216.5703046153703
 10
147.1452184424222
 20
217.0989955446014
 10
147.6154563318368
 20
217.6123802566273
 10
148.1569501168448
 20
218.1079010946369
 10
148.7670021026472
 20
218.5830893987405
 10
149.4425730409373
 20
219.0355778047098
 10
150.1802972712829
 20
219.4631120380672
 10
150.6381489930074
 20
219.700259340548
  0
LWPOLYLINE
  5
154
330
1F
100
AcDbEntity
  8
0
  6
Continuous
 62
     7
370
    15
100
AcDbPolyline
 90
       51
 70
   128
 43
0.0
 10
173.1985670127748
 20
219.7001713281162
 10
173.3971484080155
 20
219.5997061487763
 10
174.154788445911
 20
219.1809697472697
 10
174.8514667617765
 20
218.7365548378068
 10
175.4837125392864
 20
218.2686754731117
 10
176.04837596178
 20
217.7796626046444
 10
176.5426439044899
 20
217.2719524699173
 10
176.9640539493881
 20
216.7480744552832
 10
177.3105066528283
 20
216.2106384946591
 10
177.5802760048691
 20
215.6623220669669
 10
177.7720180281684
 20
215.1058568570683
 10
177.8847774736112
 20
214.544015146648
 10
177.9179925793121
 20
213.9795960028456
 10
177.8714978692854
 20
213.4154113334446
 10
177.7455249778377
 20
212.8542718780885
 10
177.5407014955774
 20
212.2989732053178
 10
177.2580478427904
 20
211.7522817851878
 10
176.8989721857568
 20
211.2169212068542
 10
176.465263421338
 20
210.6955586097888
 10
175.959082264782
 20
210.1907913962248
 10
175.3829504851492
 20
209.7051342910296
 10
174.7397383419854
 20
209.2410068134721
 10
174.0326502858333
 20
208.8007212232991
 10
173.2652089938209
 20
208.3864710011739
 10
172.4412378198617
 20
208.0003199208655
 10
171.5648417468973
 20
207.6441917676322
 10
170.6403869360792
 20
207.3198607540195
 10
169.6724789747733
 20
207.028942680823
 10
168.6659399317556
 20
206.7728868872496
 10
167.625784333908
 20
206.552969030383
 10
166.5571941840976
 20
206.3702847299238
 10
165.4654931446989
 20
206.2257441098677
 10
164.3561200153762
 20
206.1200672643131
 10
163.2346016372563
 20
206.0537806699889
 10
162.1065253584852
 20
206.0272145633736
 10
160.9775111983396
 20
206.0405012954743
 10
159.8531838485742
 20
206.0935746724598
 10
158.7391446514903
 20
206.1861702854357
 10
157.6409436943298
 20
206.3178268277158
 10
156.5640521590201
 20
206.4878883930291
 10
155.5138350650208
 20
206.6955077432114
 10
154.4955245410667
 20
206.9396505291038
 10
153.5141937589655
 20
207.2191004436277
 10
152.5747316593113
 20
207.5324652813657
 10
151.6818185950282
 20
207.878183874459
 10
150.8399030140875
 20
208.2545338702668
 10
150.0531792975638
 20
208.659640312041
 10
149.3255668634394
 20
209.0914849798664
 10
148.6606906402612
 20
209.54791644533
 10
148.0618630079288
 20
210.0266607898301
 10
148.0618630079288
 20
210.0266607898301
  0
LWPOLYLINE
  5
155
330
1F
100
AcDbEntity
  8
0
  6
Continuous
 62
     7
370
    15
100
AcDbPolyline
 90
       19
 70
   128
 43
0.0
 10
169.2405652868185
 20
213.4918748633278
 10
169.15656171391
 20
213.2573875338045
 10
168.9560876890639
 20
212.8832979106429
 10
168.678505855035
 20
212.5217352104497
 10
168.3268574564846
 20
212.1766607898302
 10
167.9049952268544
 20
211.851855356348
 10
167.4175411770125
 20
211.5508775463024
 10
166.8698359555353
 20
211.2770249355638
 10
166.2678803354441
 20
211.0332979106429
 10
165.6182694684798
 20
210.8223667958277
 10
164.9281206272407
 20
210.6465425965525
 10
164.2049952268544
 20
210.5077516795381
 10
163.4568159805312
 20
210.4075146671151
 10
162.6917800966604
 20
210.3469297769676
 10
161.9182694684798
 20
210.3266607898302
 10
161.1447588402991
 20
210.3469297769676
 10
160.3797229564284
 20
210.4075146671151
 10
159.6315437101051
 20
210.5077516795381
 10
159.1833979551853
 20
210.588620730226
  0
ARC
  5
156
330
1F
100
AcDbEntity
  8
0
  6
Continuous
 62
     7
370
    15
100
AcDbCircle
 10
161.9182694684798
 20
220.9881147302755
 30
0.0
 40
18.04332696699982
100
AcDbArc
 50
249.6827024496915
 51
290.3172975503101
  0
ARC
  5
157
330
1F
100
AcDbEntity
  8
0
  6
Continuous
 62
     7
370
    15
100
AcDbCircle
 10
166.2165996454328
 20
213.8997692209512
 30
0.0
 40
2.641159502014465
100
AcDbArc
 50
305.3715487224545
 51
348.3318355800807
  0
LWPOLYLINE
  5
158
330
1F
100
AcDbEntity
  8
0
  6
Continuous
 62
     7
370
    15
100
AcDbPolyline
 90
       23
 70
   128
 43
0.0
 10
152.9182694684798
 20
203.6343559444169
 10
152.959022165322
 20
203.2066037495481
 10
153.0809111931154
 20
202.782725344795
 10
153.2828327059493
 20
202.3665594386305
 10
153.5629580713351
 20
201.9618748939454
 10
153.9187504305855
 20
201.5723365966435
 10
154.3469876729992
 20
201.2014722658667
 10
154.8437916157947
 20
200.8526405064242
 10
155.4046631255342
 20
200.5290003927474
 10
156.0245228629722
 20
200.2334828598227
 10
156.697757282339
 20
199.9687641601904
 10
157.4182694684798
 20
199.7372416273869
 10
158.1795343514629
 20
199.5410119653216
 10
158.974657798623
 20
199.3818522602009
 10
159.796439048895
 20
199.261203886961
 10
160.6374359240203
 20
199.1801594559527
 10
161.4900322260662
 20
199.1394529180934
 10
162.3465067108936
 20
199.1394529180934
 10
163.1991030129394
 20
199.1801594559527
 10
164.0400998880647
 20
199.261203886961
 10
164.8618811383366
 20
199.3818522602009
 10
165.6570045854968
 20
199.5410119653216
 10
166.4182694684798
 20
199.7372416273869
  0
LWPOLYLINE
  5
159
330
1F
100
AcDbEntity
  8
0
  6
Continuous
 62
     7
370
    15
100
AcDbPolyline
 90
       12
 70
   128
 43
0.0
 10
170.9182694684798
 20
203.6343559444169
 10
170.8775167716375
 20
203.2066037495481
 10
170.7556277438441
 20
202.782725344795
 10
170.5537062310103
 20
202.3665594386305
 10
170.2735808656244
 20
201.9618748939454
 10
169.9177885063741
 20
201.5723365966435
 10
169.4895512639604
 20
201.2014722658667
 10
168.9927473211648
 20
200.8526405064242
 10
168.4318758114254
 20
200.5290003927474
 10
167.8120160739873
 20
200.2334828598227
 10
167.1387816546205
 20
199.9687641601904
 10
166.4182694684798
 20
199.7372416273869
  0
LWPOLYLINE
  5
15A
330
1F
100
AcDbEntity
  8
0
  6
Continuous
 62
     7
370
    15
100
AcDbPolyline
 90
       23
 70
   128
 43
0.0
 10
162.6433522508444
 20
198.6475168915018
 10
161.748181696592
 20
198.6350792429866
 10
160.8543751596982
 20
198.6627332490652
 10
159.9691005136556
 20
198.7302571386844
 10
159.099457210535
 20
198.8371094046177
 10
158.2524193469929
 20
198.9824331460787
 10
157.4347797355661
 20
199.1650629406282
 10
156.6530954297729
 20
199.3835341902696
 10
155.9136351398809
 20
199.6360948667792
 10
155.2223289610417
 20
199.9207195620805
 10
154.5847208169457
 20
200.2351257309869
 10
154.0059240003763
 20
200.5767919960512
 10
153.4905801672041
 20
200.9429783677304
 10
153.0428221126693
 20
201.3307482177066
 10
152.6662406284678
 20
201.7369918291516
 10
152.3638557064287
 20
202.1584513350731
 10
152.1380923197179
 20
202.5917468447497
 10
151.9907609757867
 20
203.0334035487344
 10
151.9230431970242
 20
203.4798795850573
 10
151.9354820455488
 20
203.9275944431562
 10
152.0279777681266
 20
204.372957677749
 10
152.1997885961412
 20
204.8123977023769
 10
152.3155113770269
 20
205.0296190949585
  0
LINE
  5
15B
330
1F
100
AcDbEntity
  8
0
  6
Continuous
 62
     7
370
    15
100
AcDbLine
 10
162.6433522508444
 20
198.6475168915018
 30
0.0
 11
166.4182694684798
 21
199.7372416273869
 31
0.0
  0
LWPOLYLINE
  5
15C
330
1F
100
AcDbEntity
  8
0
  6
Continuous
 62
     7
370
    15
100
AcDbPolyline
 90
       20
 70
   128
 43
0.0
 10
162.6433522508444
 20
194.3173898725796
 10
161.748181696592
 20
194.3049522240644
 10
160.8543751596982
 20
194.3326062301431
 10
159.9691005136556
 20
194.4001301197622
 10
159.099457210535
 20
194.5069823856956
 10
158.2524193469929
 20
194.6523061271565
 10
157.4347797355661
 20
194.834935921706
 10
156.6530954297729
 20
195.0534071713475
 10
155.9136351398809
 20
195.305967847857
 10
155.2223289610417
 20
195.5905925431584
 10
154.5847208169457
 20
195.9049987120647
 10
154.0059240003763
 20
196.246664977129
 10
153.4905801672041
 20
196.6128513488082
 10
153.0428221126693
 20
197.0006211987844
 10
152.6662406284678
 20
197.4068648102294
 10
152.3638557064287
 20
197.8283243161509
 10
152.1380923197179
 20
198.2616198258276
 10
151.9907609757867
 20
198.7032765298122
 10
151.9230431970242
 20
199.1497525661351
 10
151.9182694684798
 20
199.3042289254947
  0
LINE
  5
15D
330
1F
100
AcDbEntity
  8
0
  6
Continuous
 62
     7
370
    15
100
AcDbLine
 10
162.6433522508444
 20
198.6475168915018
 30
0.0
 11
162.6433522508444
 21
194.3173898725796
 31
0.0
  0
LINE
  5
15E
330
1F
100
AcDbEntity
  8
0
  6
Continuous
 62
     7
370
    15
100
AcDbLine
 10
170.1931866861152
 20
196.4968393443499
 30
0.0
 11
166.4182694684798
 21
195.4071146084648
 31
0.0
  0
LINE
  5
15F
330
1F
100
AcDbEntity
  8
0
  6
Continuous
 62
     7
370
    15
100
AcDbLine
 10
162.6433522508444
 20
194.3173898725796
 30
0.0
 11
166.4182694684798
 21
195.4071146084648
 31
0.0
  0
LINE
  5
160
330
1F
100
AcDbEntity
  8
0
  6
Continuous
 62
     7
370
    15
100
AcDbLine
 10
166.4182694684798
 20
199.7372416273869
 30
0.0
 11
170.1931866861152
 21
200.8269663632721
 31
0.0
  0
LINE
  5
161
330
1F
100
AcDbEntity
  8
0
  6
Continuous
 62
     7
370
    15
100
AcDbLine
 10
170.1931866861152
 20
200.8269663632721
 30
0.0
 11
170.1931866861152
 21
196.4968393443499
 31
0.0
  0
LWPOLYLINE
  5
162
330
1F
100
AcDbEntity
  8
0
  6
Continuous
 62
     7
370
    15
100
AcDbPolyline
 90
       23
 70
   128
 43
0.0
 10
152.9182694684798
 20
194.9741019065725
 10
152.959022165322
 20
194.5463497117037
 10
153.0809111931154
 20
194.1224713069507
 10
153.2828327059493
 20
193.7063054007861
 10
153.5629580713351
 20
193.301620856101
 10
153.9187504305855
 20
192.9120825587992
 10
154.3469876729992
 20
192.5412182280223
 10
154.8437916157947
 20
192.1923864685798
 10
155.4046631255342
 20
191.868746354903
 10
156.0245228629722
 20
191.5732288219783
 10
156.697757282339
 20
191.308510122346
 10
157.4182694684798
 20
191.0769875895425
 10
158.1795343514629
 20
190.8807579274772
 10
158.974657798623
 20
190.7215982223565
 10
159.796439048895
 20
190.6009498491166
 10
160.6374359240203
 20
190.5199054181083
 10
161.4900322260662
 20
190.479198880249
 10
162.3465067108936
 20
190.479198880249
 10
163.1991030129394
 20
190.5199054181084
 10
164.0400998880647
 20
190.6009498491166
 10
164.8618811383366
 20
190.7215982223565
 10
165.6570045854968
 20
190.8807579274772
 10
166.4182694684798
 20
191.0769875895426
  0
LWPOLYLINE
  5
163
330
1F
100
AcDbEntity
  8
0
  6
Continuous
 62
     7
370
    15
100
AcDbPolyline
 90
       12
 70
   128
 43
0.0
 10
170.9182694684798
 20
194.9741019065725
 10
170.8775167716375
 20
194.5463497117037
 10
170.7556277438441
 20
194.1224713069507
 10
170.5537062310103
 20
193.7063054007861
 10
170.2735808656244
 20
193.301620856101
 10
169.9177885063741
 20
192.9120825587992
 10
169.4895512639604
 20
192.5412182280223
 10
168.9927473211648
 20
192.1923864685798
 10
168.4318758114254
 20
191.868746354903
 10
167.8120160739873
 20
191.5732288219783
 10
167.1387816546205
 20
191.308510122346
 10
166.4182694684798
 20
191.0769875895426
  0
ARC
  5
164
330
1F
100
AcDbEntity
  8
0
  6
Continuous
 62
     7
370
    15
100
AcDbCircle
 10
168.7189569036783
 20
203.6038477741951
 30
0.0
 40
3.143950352940292
100
AcDbArc
 50
297.9635659775839
 51
26.96825521625292
  0
LWPOLYLINE
  5
165
330
1F
100
AcDbEntity
  8
0
  6
Continuous
 62
     7
370
    15
100
AcDbPolyline
 90
       25
 70
   128
 43
0.0
 10
162.6433522508444
 20
189.9872628536574
 10
161.748181696592
 20
189.9748252051423
 10
160.8543751596982
 20
190.0024792112209
 10
159.9691005136556
 20
190.07000310084
 10
159.099457210535
 20
190.1768553667734
 10
158.2524193469929
 20
190.3221791082343
 10
157.4347797355661
 20
190.5048089027839
 10
156.6530954297729
 20
190.7232801524253
 10
155.9136351398809
 20
190.9758408289348
 10
155.2223289610417
 20
191.2604655242362
 10
154.5847208169457
 20
191.5748716931425
 10
154.0059240003763
 20
191.9165379582068
 10
153.4905801672041
 20
192.2827243298861
 10
153.0428221126693
 20
192.6704941798622
 10
152.6662406284678
 20
193.0767377913072
 10
152.3638557064287
 20
193.4981972972287
 10
152.1380923197179
 20
193.9314928069054
 10
151.9907609757867
 20
194.37314951089
 10
151.9230431970242
 20
194.8196255472129
 10
151.9354820455488
 20
195.2673404053119
 10
152.0279777681266
 20
195.7127036399046
 10
152.1997885961412
 20
196.1521436645325
 10
152.449536694201
 20
196.582136393866
 10
152.7752192096774
 20
196.9992335050751
 10
152.9043912798198
 20
197.1391654160336
  0
LINE
  5
166
330
1F
100
AcDbEntity
  8
0
  6
Continuous
 62
     7
370
    15
100
AcDbLine
 10
162.6433522508444
 20
189.9872628536574
 30
0.0
 11
166.4182694684798
 21
191.0769875895426
 31
0.0
  0
LWPOLYLINE
  5
167
330
1F
100
AcDbEntity
  8
0
  6
Continuous
 62
     7
370
    15
100
AcDbPolyline
 90
       20
 70
   128
 43
0.0
 10
151.9182694684798
 20
191.0769875895426
 10
151.9230431970242
 20
190.9225112301829
 10
151.9907609757867
 20
190.47603519386
 10
152.1380923197179
 20
190.0343784898754
 10
152.3638557064287
 20
189.6010829801987
 10
152.6662406284678
 20
189.1796234742772
 10
153.0428221126693
 20
188.7733798628323
 10
153.4905801672041
 20
188.3856100128561
 10
154.0059240003763
 20
188.0194236411769
 10
154.5847208169457
 20
187.6777573761125
 10
155.2223289610417
 20
187.3633512072062
 10
155.9136351398809
 20
187.0787265119048
 10
156.6530954297729
 20
186.8261658353953
 10
157.4347797355661
 20
186.6076945857539
 10
158.2524193469929
 20
186.4250647912044
 10
159.099457210535
 20
186.2797410497434
 10
159.9691005136556
 20
186.17288878381
 10
160.8543751596982
 20
186.1053648941909
 10
161.748181696592
 20
186.0777108881123
 10
162.6433522508444
 20
186.0901485366274
  0
LINE
  5
168
330
1F
100
AcDbEntity
  8
0
  6
Continuous
 62
     7
370
    15
100
AcDbLine
 10
162.6433522508444
 20
189.9872628536574
 30
0.0
 11
162.6433522508444
 21
186.0901485366274
 31
0.0
  0
ARC
  5
169
330
1F
100
AcDbEntity
  8
0
  6
Continuous
 62
     7
370
    15
100
AcDbCircle
 10
168.2197339876167
 20
199.6431937956457
 30
0.0
 40
3.714035794980918
100
AcDbArc
 50
302.0967103164596
 51
354.7635616479452
  0
ARC
  5
16A
330
1F
100
AcDbEntity
  8
0
  6
Continuous
 62
     7
370
    15
100
AcDbCircle
 10
161.9182694684798
 20
194.6972176689339
 30
0.0
 40
9.16129583154716
100
AcDbArc
 50
252.0075700224432
 51
287.9924299775586
  0
SPLINE
  5
16B
330
1F
100
AcDbEntity
  8
0
  6
Continuous
 62
     7
370
    15
100
AcDbSpline
210
0.0
220
0.0
230
1.0
 70
     8
 71
     3
 72
    14
 73
    10
 74
     0
 42
0.000000001
 43
0.00000001
 40
0.0
 40
0.0
 40
0.0
 40
0.0
 40
0.2499999999999999
 40
0.2499999999999999
 40
0.4999999999999999
 40
0.4999999999999999
 40
0.7499999999999999
 40
0.7499999999999999
 40
1.0
 40
1.0
 40
1.0
 40
1.0
 10
170.1931866861152
 20
188.2695980083978
 30
0.0
 10
169.5779747772931
 20
187.9042307156427
 30
0.0
 10
168.9584419098539
 20
187.5735155198937
 30
0.0
 10
167.7079616837473
 20
187.0036240882341
 30
0.0
 10
167.0769643038037
 20
186.7648489999078
 30
0.0
 10
165.8016291870604
 20
186.3942823379896
 30
0.0
 10
165.1532831361056
 20
186.2628647340697
 30
0.0
 10
163.8851840203156
 20
186.1069886861657
 30
0.0
 10
163.2607483266111
 20
186.079937882729
 30
0.0
 10
162.6433522508444
 20
186.0901485366274
 30
0.0
  0
ARC
  5
16C
330
1F
100
AcDbEntity
  8
0
  6
Continuous
 62
     7
370
    15
100
AcDbCircle
 10
168.3939687775367
 20
191.3088887880897
 30
0.0
 40
3.53192207247979
100
AcDbArc
 50
300.6249431669395
 51
356.235328797466
  0
LINE
  5
16D
330
1F
100
AcDbEntity
  8
0
  6
Continuous
 62
     7
370
    15
100
AcDbLine
 10
166.4182694684798
 20
191.0769875895426
 30
0.0
 11
170.1931866861152
 21
192.1667123254277
 31
0.0
  0
LINE
  5
16E
330
1F
100
AcDbEntity
  8
0
  6
Continuous
 62
     7
370
    15
100
AcDbLine
 10
170.1931866861152
 20
192.1667123254277
 30
0.0
 11
170.1931866861152
 21
188.2695980083978
 31
0.0
  0
ARC
  5
16F
330
1F
100
AcDbEntity
  8
0
  6
Continuous
 62
     7
370
    15
100
AcDbCircle
 10
168.7779536489651
 20
194.9181668404423
 30
0.0
 40
3.094088960846921
100
AcDbArc
 50
297.2193933429207
 51
45.87477802990519
  0
LINE
  5
170
330
1F
100
AcDbEntity
  8
0
  6
Continuous
 62
     8
370
     0
100
AcDbLine
 10
173.3401447173167
 20
216.4527006629002
 30
0.0
 11
156.4713533625566
 21
211.583100048113
 31
0.0
  0
SPLINE
  5
171
330
1F
100
AcDbEntity
  8
0
  6
Continuous
 62
     7
370
    15
100
AcDbSpline
210
0.0
220
0.0
230
1.0
 70
     8
 71
     3
 72
    62
 73
    58
 74
     0
 42
0.000000001
 43
0.00000001
 40
0.0
 40
0.0
 40
0.0
 40
0.0
 40
0.0063908447657682
 40
0.0232719694385661
 40
0.0401585632229864
 40
0.0571426516313099
 40
0.0743110153859368
 40
0.0917342124328498
 40
0.1094598429639148
 40
0.1275070406757591
 40
0.1458643183442726
 40
0.1644927649203569
 40
0.1833347898491944
 40
0.2023259217892753
 40
0.2214056803711539
 40
0.2405245122038147
 40
0.2596392756852932
 40
0.2787276209273163
 40
0.2977783807221631
 40
0.3167867327184281
 40
0.3357520385294024
 40
0.3546762641935118
 40
0.373562902567768
 40
0.3924162744724768
 40
0.4112410957783618
 40
0.4300422232335041
 40
0.4488245170209821
 40
0.4675927779868919
 40
0.4863517317983865
 40
0.5051060420045596
 40
0.5238603402789052
 40
0.5426180825248391
 40
0.5613835872609785
 40
0.580161611288639
 40
0.598957027756155
 40
0.6177748523375084
 40
0.6366202482331786
 40
0.6554984952355273
 40
0.674414900117802
 40
0.6933746133213198
 40
0.7123822989606303
 40
0.7314415804249096
 40
0.7505541532149722
 40
0.7697184270796725
 40
0.7889275524673351
 40
0.8081667517443423
 40
0.8274010673448471
 40
0.8465826231721514
 40
0.8656508944281084
 40
0.8845343035585415
 40
0.9031604515515663
 40
0.9214707281850816
 40
0.9394342540128361
 40
0.9570556015806
 40
0.974374165546197
 40
0.9914573004747402
 40
1.0
 40
1.0
 40
1.0
 40
1.0
 10
135.85309728705
 20
266.1319925416573
 30
0.0
 10
135.8553082214019
 20
266.2204567280452
 30
0.0
 10
135.8633592379032
 20
266.5425950239173
 30
0.0
 10
135.8027835405952
 20
267.0974822009027
 30
0.0
 10
135.6730426167642
 20
267.7908333269277
 30
0.0
 10
135.4689713506847
 20
268.4752731944836
 30
0.0
 10
135.196900903042
 20
269.1497087963769
 30
0.0
 10
134.8551976635446
 20
269.8131064150799
 30
0.0
 10
134.4440715003083
 20
270.464143341899
 30
0.0
 10
133.9633251052324
 20
271.1010418938038
 30
0.0
 10
133.4134513168734
 20
271.7215081981108
 30
0.0
 10
132.7957432311867
 20
272.3228359228352
 30
0.0
 10
132.1124617206277
 20
272.9021421430298
 30
0.0
 10
131.3667110353534
 20
273.4566503735279
 30
0.0
 10
130.5621760534248
 20
273.9839185814259
 30
0.0
 10
129.7029216124532
 20
274.4818909916136
 30
0.0
 10
128.7930562244667
 20
274.9489832347786
 30
0.0
 10
127.8365685874922
 20
275.3840128577972
 30
0.0
 10
126.837160651419
 20
275.7861299554594
 30
0.0
 10
125.7984044376453
 20
276.154650452659
 30
0.0
 10
124.7238208464727
 20
276.4889834437554
 30
0.0
 10
123.6169207546278
 20
276.7885995980889
 30
0.0
 10
122.4812363751785
 20
277.0530165149592
 30
0.0
 10
121.3203416751609
 20
277.2817949136049
 30
0.0
 10
120.1378630719699
 20
277.4745409713894
 30
0.0
 10
118.9374823488711
 20
277.6309116213666
 30
0.0
 10
117.7229336918939
 20
277.7506207915842
 30
0.0
 10
116.4979964477582
 20
277.8334453741385
 30
0.0
 10
115.2664848587083
 20
277.8792302245502
 30
0.0
 10
114.0322357452841
 20
277.887891800222
 30
0.0
 10
112.799120793933
 20
277.8594208181219
 30
0.0
 10
111.5710139389226
 20
277.7938859558306
 30
0.0
 10
110.3517677315828
 20
277.6914330802631
 30
0.0
 10
109.1451731290792
 20
277.552277897585
 30
0.0
 10
107.954964077605
 20
277.3766999436634
 30
0.0
 10
106.7848128680184
 20
277.1650359275428
 30
0.0
 10
105.6383196034447
 20
276.9176707291165
 30
0.0
 10
104.5190045844339
 20
276.6350266212636
 30
0.0
 10
103.4303048892185
 20
276.3175511198059
 30
0.0
 10
102.3755768443863
 20
275.96570432301
 30
0.0
 10
101.3581065745077
 20
275.5799473956897
 30
0.0
 10
100.3811312739411
 20
275.1607351530298
 30
0.0
 10
99.44787397684615
 20
274.7085176966896
 30
0.0
 10
98.56159374346748
 20
274.2237588206149
 30
0.0
 10
97.72565024116453
 20
273.7069821137471
 30
0.0
 10
96.94369698973544
 20
273.1589436183739
 30
0.0
 10
96.21967208048824
 20
272.5807831846087
 30
0.0
 10
95.55771592842713
 20
271.9742014237634
 30
0.0
 10
94.9619346329857
 20
271.3415471230328
 30
0.0
 10
94.43614509062756
 20
270.6859217751948
 30
0.0
 10
93.98357784712925
 20
270.011144567468
 30
0.0
 10
93.60636043284923
 20
269.3215110057762
 30
0.0
 10
93.30594941803881
 20
268.6214313128584
 30
0.0
 10
93.080974816609
 20
267.915074971434
 30
0.0
 10
92.93557059544663
 20
267.2061174550383
 30
0.0
 10
92.86427380752825
 20
266.6134704503432
 30
0.0
 10
92.86898274257734
 20
266.2586551218473
 30
0.0
 10
92.87055252627673
 20
266.1403728960036
 30
0.0
  0
LINE
  5
172
330
1F
100
AcDbEntity
  8
0
  6
Continuous
 62
     7
370
    15
100
AcDbLine
 10
92.86155747836831
 20
266.1330246447997
 30
0.0
 11
92.86155747836831
 21
263.1019357315541
 31
0.0
  0
LINE
  5
173
330
1F
100
AcDbEntity
  8
0
  6
Continuous
 62
     7
370
    15
100
AcDbLine
 10
135.8615574783683
 20
263.1019357315541
 30
0.0
 11
135.8615574783683
 21
266.1330246447997
 31
0.0
  0
LWPOLYLINE
  5
174
330
1F
100
AcDbEntity
  8
0
  6
Continuous
 62
     7
370
    15
100
AcDbPolyline
 90
       44
 70
   128
 43
0.0
 10
95.74201129700289
 20
257.7269357315541
 10
96.43200697007137
 20
257.1693726562377
 10
97.18870174864739
 20
256.6338791052136
 10
98.00928067845479
 20
256.1224471496627
 10
98.89069115197887
 20
255.6369793500508
 10
99.82965426436692
 20
255.179281678478
 10
100.8226770111695
 20
254.7510568003442
 10
101.8660652825467
 20
254.353897740322
 10
102.9559376055988
 20
253.9892819562002
 10
104.0882395837013
 20
253.6585658426438
 10
105.2587589791255
 20
253.3629796853166
 10
106.4631413828407
 20
253.1036230841382
 10
107.6969064132009
 20
252.8814608626994
 10
108.9554643832593
 20
252.6973194790557
 10
110.2341333747048
 20
252.5518839512488
 10
111.5281566549059
 20
252.4456953089942
 10
112.8327203722688
 20
252.3791485810156
 10
114.1429714640807
 20
252.352491325512
 10
115.4540357102225
 20
252.3658227092247
 10
116.7610358655876
 20
252.4190931385306
 10
118.059109803754
 20
252.512104443934
 10
119.3434286044139
 20
252.6445106172696
 10
120.6092145172746
 20
252.8158190988763
 10
121.8517587356031
 20
253.0253926099509
 10
123.0664389132967
 20
253.2724515232673
 10
124.2487363603139
 20
253.5560767634412
 10
125.3942528524983
 20
253.8752132259505
 10
126.4987269932611
 20
254.2286737021937
 10
127.5580500662567
 20
254.6151432959839
 10
128.5682813200769
 20
255.0331843150487
 10
129.5256626281052
 20
255.4812416193403
 10
130.4266324689949
 20
255.9576484062581
 10
131.267839175762
 20
256.4606324112643
 10
132.0461534042066
 20
256.9883225008242
 10
132.758679774279
 20
257.5387556331458
 10
133.4027676410837
 20
258.1098841608244
 10
133.9760209554525
 20
258.699583448225
 10
134.4763071774043
 20
259.3056597752671
 10
134.9017652093347
 20
259.9258584982068
 10
135.2508123194207
 20
260.55787243706
 10
135.5221500294872
 20
261.1993504584632
 10
135.7147689454315
 20
261.8479062220447
 10
135.8279525122348
 20
262.5011270577664
 10
135.8615574783683
 20
263.1019357315541
  0
ARC
  5
175
330
1F
100
AcDbEntity
  8
0
  6
Continuous
 62
     7
370
    15
100
AcDbCircle
 10
100.1381149553885
 20
263.5421158563083
 30
0.0
 40
7.289859207049648
100
AcDbArc
 50
183.4617697956747
 51
232.9118010683542
  0
LWPOLYLINE
  5
176
330
1F
100
AcDbEntity
  8
0
  6
Continuous
 62
     7
370
    15
100
AcDbPolyline
 90
       58
 70
   128
 43
0.0
 10
108.5158860028234
 20
266.1775754523686
 10
108.9226430151567
 20
265.8662814746242
 10
109.3954210813247
 20
265.5792501481317
 10
109.9284813160461
 20
265.3199656443716
 10
110.515353090174
 20
265.0915753259833
 10
111.1489125753681
 20
264.8968515420466
 10
111.8214692177204
 20
264.7381579755186
 10
112.5248590906623
 20
264.6174209513248
 10
113.2505439939734
 20
264.5361060533843
 10
113.9897150959662
 20
264.4952003344061
 10
114.7333998607704
 20
264.4952003344061
 10
115.4725709627633
 20
264.5361060533843
 10
116.1982558660743
 20
264.6174209513248
 10
116.9016457390162
 20
264.7381579755186
 10
117.5742023813686
 20
264.8968515420466
 10
118.2077618665626
 20
265.0915753259834
 10
118.7946336406905
 20
265.3199656443716
 10
119.327693875412
 20
265.5792501481317
 10
119.8004719415799
 20
265.8662814746243
 10
120.2072289539133
 20
266.1775754523686
 10
120.54302743329
 20
266.5093533941648
 10
120.803791241055
 20
266.8575879652378
 10
120.9863550578221
 20
267.218052069626
 10
121.0885028061633
 20
267.5863701613995
 10
121.1089945507867
 20
267.9580713578611
 10
121.0475815496714
 20
268.3286437100057
 10
120.9050092734588
 20
268.6935889714688
 10
120.6830083564484
 20
269.0484772011441
 10
120.3842735890424
 20
269.3890005366678
 10
120.0124312066403
 20
269.7110254860318
 10
119.5719948720534
 20
270.0106431025772
 10
119.0683108857527
 20
270.2842164343121
 10
118.5074932890235
 20
270.5284246715814
 10
117.8963496477864
 20
270.7403034571979
 10
117.242298417969
 20
270.9172808697229
 10
116.5532788954999
 20
271.0572086431083
 10
115.8376548440113
 20
271.1583882437362
 10
115.1041129700783
 20
271.2195914883167
 10
114.3615574783682
 20
271.2400754523686
 10
113.6190019866582
 20
271.2195914883167
 10
112.8854601127252
 20
271.1583882437362
 10
112.1698360612366
 20
271.0572086431082
 10
111.4808165387675
 20
270.9172808697229
 10
110.8267653089501
 20
270.7403034571979
 10
110.215621667713
 20
270.5284246715814
 10
109.6548040709838
 20
270.284216434312
 10
109.1511200846831
 20
270.0106431025771
 10
108.7106837500962
 20
269.7110254860317
 10
108.3388413676941
 20
269.3890005366678
 10
108.0401066002882
 20
269.0484772011441
 10
107.8181056832778
 20
268.6935889714687
 10
107.6755334070651
 20
268.3286437100056
 10
107.6141204059499
 20
267.9580713578611
 10
107.6346121505733
 20
267.5863701613994
 10
107.7367598989145
 20
267.2180520696259
 10
107.9193237156817
 20
266.8575879652378
 10
108.1800875234467
 20
266.5093533941647
 10
108.5158860028234
 20
266.1775754523686
  0
LWPOLYLINE
  5
177
330
1F
100
AcDbEntity
  8
0
  6
Continuous
 62
     7
370
    15
100
AcDbPolyline
 90
       27
 70
   128
 43
0.0
 10
121.0310777009921
 20
267.3454602101007
 10
120.9050092734588
 20
267.6543584869274
 10
120.6830083564484
 20
268.0092467166028
 10
120.3842735890424
 20
268.3497700521265
 10
120.0124312066403
 20
268.6717950014905
 10
119.5719948720534
 20
268.9714126180359
 10
119.0683108857527
 20
269.2449859497708
 10
118.5074932890235
 20
269.4891941870401
 10
117.8963496477864
 20
269.7010729726566
 10
117.242298417969
 20
269.8780503851816
 10
116.5532788954999
 20
270.0179781585668
 10
115.8376548440113
 20
270.1191577591948
 10
115.1041129700783
 20
270.1803610037753
 10
114.3615574783682
 20
270.2008449678273
 10
113.6190019866582
 20
270.1803610037753
 10
112.8854601127252
 20
270.1191577591948
 10
112.1698360612366
 20
270.0179781585668
 10
111.4808165387675
 20
269.8780503851816
 10
110.8267653089501
 20
269.7010729726566
 10
110.215621667713
 20
269.48919418704
 10
109.6548040709838
 20
269.2449859497708
 10
109.1511200846831
 20
268.9714126180359
 10
108.7106837500962
 20
268.6717950014904
 10
108.3388413676941
 20
268.3497700521265
 10
108.0401066002882
 20
268.0092467166028
 10
107.8181056832778
 20
267.6543584869274
 10
107.6920372557436
 20
267.3454602100978
  0
LWPOLYLINE
  5
178
330
1F
100
AcDbEntity
  8
0
  6
Continuous
 62
     8
370
     0
100
AcDbPolyline
 90
       99
 70
   128
 43
0.0
 10
97.47406210457177
 20
262.9900754523685
 10
98.13344391980738
 20
262.4590988909494
 10
98.85951053457457
 20
261.9503366467995
 10
99.64927838541244
 20
261.4658793331092
 10
100.4995021468172
 20
261.0077176888962
 10
101.4066880669809
 20
260.5777343986319
 10
102.3671083243668
 20
260.1776963558872
 10
103.3768163461277
 20
259.8092474027876
 10
104.4316630254206
 20
259.4739015751134
 10
105.5273137709763
 20
259.1730368808019
 10
106.6592663188651
 20
258.9078896374175
 10
107.8228692332645
 20
258.6795493918571
 10
109.0133410202072
 20
258.4889544431684
 10
110.2257897757654
 20
258.3368879868782
 10
111.455233287933
 20
258.2239748966736
 10
112.6966195096036
 20
258.1506791566618
 10
113.944847318516
 20
258.1173019547605
 10
115.1947874788593
 20
258.1239804450518
 10
116.4413037184032
 20
258.1706871841865
 10
117.6792738345427
 20
258.2572302441549
 10
118.9036107425268
 20
258.3832540009602
 10
120.109283379381
 20
258.5482405959536
 10
121.2913373776247
 20
258.751512063827
 10
122.4449154238292
 20
258.9922331185169
 10
123.5652772183609
 20
259.2694145855755
 10
124.6478189542893
 20
259.5819174668991
 10
125.688092235417
 20
259.9284576211169
 10
126.6818223556939
 20
260.3076110404024
 10
127.6249258649013
 20
260.7178197020278
 10
128.5135273484249
 20
261.1573979706128
 10
129.3439753521644
 20
261.6245395247627
 10
130.1128573871419
 20
262.1173247796299
 10
130.817013952151
 20
262.6337287749
 10
131.453551516825
 20
263.1716294957882
 10
132.0198544117738
 20
263.728816592853
 10
132.5135955769304
 20
264.3030004647962
 10
132.9327461239399
 20
264.8918216669261
 10
133.2755836732975
 20
265.4928606066214
 10
133.5406994319741
 20
266.1036474859562
 10
133.7270039824504
 20
266.7216724506302
 10
133.8337317593661
 20
267.3443959034975
 10
133.8604441953928
 20
267.9692589403165
 10
133.8070315234013
 20
268.5936938648363
 10
133.6737132275177
 20
269.215134740011
 10
133.4610371412163
 20
269.8310279319861
 10
133.1698771961547
 20
270.4388426035268
 10
132.8014298310009
 20
271.0360811137722
 10
132.3572090750099
 20
271.6202892815763
 10
131.8390403265531
 20
272.1890664702653
 10
131.2490528521648
 20
272.7400754523686
 10
130.5896710369291
 20
273.2710520137877
 10
129.863604422162
 20
273.7798142579376
 10
129.0738365713241
 20
274.2642715716279
 10
128.2236128099193
 20
274.722433215841
 10
127.3164268897556
 20
275.1524165061052
 10
126.3560066323697
 20
275.55245454885
 10
125.3462986106088
 20
275.9209035019496
 10
124.2914519313159
 20
276.2562493296238
 10
123.1958011857602
 20
276.5571140239352
 10
122.0638486378714
 20
276.8222612673196
 10
120.900245723472
 20
277.0506015128801
 10
119.7097739365293
 20
277.2411964615687
 10
118.4973251809711
 20
277.3932629178589
 10
117.2678816688035
 20
277.5061760080636
 10
116.0264954471329
 20
277.5794717480753
 10
114.7782676382205
 20
277.6128489499766
 10
113.5283274778772
 20
277.6061704596853
 10
112.2818112383332
 20
277.5594637205506
 10
111.0438411221938
 20
277.4729206605821
 10
109.8195042142097
 20
277.3468969037769
 10
108.6138315773555
 20
277.1819103087834
 10
107.4317775791118
 20
276.9786388409101
 10
106.2781995329073
 20
276.7379177862201
 10
105.1578377383756
 20
276.4607363191616
 10
104.0752960024472
 20
276.148233437838
 10
103.0350227213195
 20
275.8016932836202
 10
102.0412926010426
 20
275.4225398643347
 10
101.0981890918352
 20
275.0123312027093
 10
100.2095876083116
 20
274.5727529341243
 10
99.37913960457215
 20
274.1056113799743
 10
98.61025756959465
 20
273.6128261251072
 10
97.90610100458554
 20
273.096422129837
 10
97.26956343991154
 20
272.5585214089488
 10
96.7032605449628
 20
272.0013343118841
 10
96.20951937980622
 20
271.4271504399408
 10
95.7903688327966
 20
270.8383292378109
 10
95.4475312834391
 20
270.2372902981157
 10
95.18241552476248
 20
269.6265034187808
 10
94.99611097428625
 20
269.0084784541069
 10
94.88938319737056
 20
268.3857550012395
 10
94.86267076134375
 20
267.7608919644205
 10
94.9160834333353
 20
267.1364570399008
 10
95.049401729219
 20
266.515016164726
 10
95.26207781552034
 20
265.899122972751
 10
95.5532377605819
 20
265.2913083012102
 10
95.92168512573575
 20
264.6940697909648
 10
96.36590588172679
 20
264.1098616231607
 10
96.88407463018359
 20
263.5410844344717
 10
97.47406210457177
 20
262.9900754523685
  0
LWPOLYLINE
  5
179
330
1F
100
AcDbEntity
  8
0
  6
Continuous
 62
     8
370
     0
100
AcDbPolyline
 90
       44
 70
   128
 43
0.0
 10
95.74201129700289
 20
260.7580246447997
 10
96.43200697007137
 20
260.2004615694833
 10
97.18870174864739
 20
259.6649680184591
 10
98.00928067845479
 20
259.1535360629082
 10
98.89069115197887
 20
258.6680682632963
 10
99.82965426436692
 20
258.2103705917235
 10
100.8226770111695
 20
257.7821457135898
 10
101.8660652825467
 20
257.3849866535676
 10
102.9559376055988
 20
257.0203708694457
 10
104.0882395837013
 20
256.6896547558894
 10
105.2587589791255
 20
256.3940685985622
 10
106.4631413828407
 20
256.1347119973837
 10
107.6969064132009
 20
255.912549775945
 10
108.9554643832593
 20
255.7284083923013
 10
110.2341333747048
 20
255.5829728644943
 10
111.5281566549059
 20
255.4767842222397
 10
112.8327203722688
 20
255.4102374942612
 10
114.1429714640807
 20
255.3835802387576
 10
115.4540357102225
 20
255.3969116224702
 10
116.7610358655876
 20
255.4501820517762
 10
118.059109803754
 20
255.5431933571795
 10
119.3434286044139
 20
255.6755995305152
 10
120.6092145172746
 20
255.8469080121218
 10
121.8517587356031
 20
256.0564815231965
 10
123.0664389132967
 20
256.3035404365129
 10
124.2487363603139
 20
256.5871656766867
 10
125.3942528524983
 20
256.906302139196
 10
126.4987269932611
 20
257.2597626154393
 10
127.5580500662567
 20
257.6462322092294
 10
128.5682813200769
 20
258.0642732282943
 10
129.5256626281052
 20
258.5123305325858
 10
130.4266324689949
 20
258.9887373195036
 10
131.267839175762
 20
259.4917213245098
 10
132.0461534042066
 20
260.0194114140697
 10
132.758679774279
 20
260.5698445463913
 10
133.4027676410837
 20
261.1409730740699
 10
133.9760209554525
 20
261.7306723614706
 10
134.4763071774043
 20
262.3367486885127
 10
134.9017652093347
 20
262.9569474114523
 10
135.2508123194207
 20
263.5889613503055
 10
135.5221500294872
 20
264.2304393717088
 10
135.7147689454315
 20
264.8789951352902
 10
135.8279525122348
 20
265.5322159710119
 10
135.8615574163329
 20
266.1322080175724
  0
ARC
  5
17A
330
1F
100
AcDbEntity
  8
0
  6
Continuous
 62
     8
370
     0
100
AcDbCircle
 10
100.1366015908802
 20
266.5719214862193
 30
0.0
 40
7.287922909424201
100
AcDbArc
 50
183.4071370404755
 51
232.9152079334441
  0
LINE
  5
17B
330
1F
100
AcDbEntity
  8
0
  6
Continuous
 62
     7
370
    15
100
AcDbLine
 10
120.7370951792338
 20
217.3713597018748
 30
0.0
 11
120.7370951792338
 21
217.8950915684837
 31
0.0
  0
LINE
  5
17C
330
1F
100
AcDbEntity
  8
0
  6
Continuous
 62
     7
370
    15
100
AcDbLine
 10
107.2370951792337
 20
217.8950915684837
 30
0.0
 11
107.2370951792337
 21
217.3713597018748
 31
0.0
  0
LINE
  5
17D
330
1F
100
AcDbEntity
  8
0
  6
Continuous
 62
     7
370
    15
100
AcDbLine
 10
97.98709517923375
 20
217.3713597033374
 30
0.0
 11
97.98709517923375
 21
214.3713597033374
 31
0.0
  0
LINE
  5
17E
330
1F
100
AcDbEntity
  8
0
  6
Continuous
 62
     7
370
    15
100
AcDbLine
 10
129.9870951792337
 20
214.3713597033374
 30
0.0
 11
129.9870951792337
 21
217.3713597033374
 31
0.0
  0
LINE
  5
17F
330
1F
100
AcDbEntity
  8
0
  6
Continuous
 62
     7
370
    15
100
AcDbLine
 10
103.9870951792337
 20
214.3713597033374
 30
0.0
 11
103.9870951792337
 21
210.3713597033374
 31
0.0
  0
LINE
  5
180
330
1F
100
AcDbEntity
  8
0
  6
Continuous
 62
     7
370
    15
100
AcDbLine
 10
123.9870951792337
 20
210.3713597033374
 30
0.0
 11
123.9870951792337
 21
214.3713597033374
 31
0.0
  0
LINE
  5
181
330
1F
100
AcDbEntity
  8
0
  6
Continuous
 62
     7
370
    15
100
AcDbLine
 10
104.9870951792337
 20
190.1711521651277
 30
0.0
 11
108.9856132028311
 21
187.3713597033374
 31
0.0
  0
LINE
  5
182
330
1F
100
AcDbEntity
  8
0
  6
Continuous
 62
     7
370
    15
100
AcDbLine
 10
118.9885771556363
 20
187.3713597033374
 30
0.0
 11
122.9870951792338
 21
190.1711521651277
 31
0.0
  0
LINE
  5
183
330
1F
100
AcDbEntity
  8
0
  6
Continuous
 62
     7
370
    15
100
AcDbLine
 10
122.9870951792338
 20
205.3713597033374
 30
0.0
 11
122.9870951792338
 21
210.3713597033374
 31
0.0
  0
LINE
  5
184
330
1F
100
AcDbEntity
  8
0
  6
Continuous
 62
     7
370
    15
100
AcDbLine
 10
104.9870951792337
 20
210.3713597033374
 30
0.0
 11
104.9870951792337
 21
205.3713597033374
 31
0.0
  0
LINE
  5
185
330
1F
100
AcDbEntity
  8
0
  6
Continuous
 62
     7
370
    15
100
AcDbLine
 10
122.9870951792338
 20
195.3713597033374
 30
0.0
 11
122.9870951792338
 21
200.3713597033374
 31
0.0
  0
LINE
  5
186
330
1F
100
AcDbEntity
  8
0
  6
Continuous
 62
     7
370
    15
100
AcDbLine
 10
104.9870951792337
 20
200.3713597033374
 30
0.0
 11
104.9870951792337
 21
195.3713597033374
 31
0.0
  0
LINE
  5
187
330
1F
100
AcDbEntity
  8
0
  6
Continuous
 62
     7
370
    15
100
AcDbLine
 10
119.2389882556693
 20
236.571359702502
 30
0.0
 11
119.9620543221475
 21
220.3487235955828
 31
0.0
  0
SPLINE
  5
188
330
1F
100
AcDbEntity
  8
0
  6
Continuous
 62
     7
370
    15
100
AcDbSpline
210
0.0
220
0.0
230
1.0
 70
     8
 71
     3
 72
    10
 73
     6
 74
     0
 42
0.000000001
 43
0.00000001
 40
0.0
 40
0.0
 40
0.0
 40
0.0
 40
0.3802008209481725
 40
0.7713555381988354
 40
1.0
 40
1.0
 40
1.0
 40
1.0
 10
119.9620543221475
 20
220.3487235955825
 30
0.0
 10
119.9822297519821
 20
220.11527043968
 30
0.0
 10
120.0231618822696
 20
219.6416381517057
 30
0.0
 10
120.1819716442052
 20
219.045499686046
 30
0.0
 10
120.3226303603048
 20
218.6991342252352
 30
0.0
 10
120.3745194842779
 20
218.5713597023732
 30
0.0
  0
LINE
  5
189
330
1F
100
AcDbEntity
  8
0
  6
Continuous
 62
     7
370
    15
100
AcDbLine
 10
120.3745194842779
 20
218.5713597023732
 30
0.0
 11
107.5996708741896
 21
218.5713597023732
 31
0.0
  0
SPLINE
  5
18A
330
1F
100
AcDbEntity
  8
0
  6
Continuous
 62
     7
370
    15
100
AcDbSpline
210
0.0
220
0.0
230
1.0
 70
     8
 71
     3
 72
    12
 73
     8
 74
     0
 42
0.000000001
 43
0.00000001
 40
0.0
 40
0.0
 40
0.0
 40
0.0
 40
0.1894822282447098
 40
0.3802667380816127
 40
0.5751738053085129
 40
0.7715116694616646
 40
0.9999999999999999
 40
0.9999999999999999
 40
0.9999999999999999
 40
0.9999999999999999
 10
108.01213603632
 20
220.3487235955825
 30
0.0
 10
108.0045745773618
 20
220.2322458388479
 30
0.0
 10
107.9893996907255
 20
219.9984897920521
 30
0.0
 10
107.9352084888073
 20
219.6482416962201
 30
0.0
 10
107.8569121298484
 20
219.2997651703312
 30
0.0
 10
107.7488996681963
 20
218.9365162408479
 30
0.0
 10
107.6518617205493
 20
218.6990684929161
 30
0.0
 10
107.5996708741896
 20
218.5713597023732
 30
0.0
  0
LINE
  5
18B
330
1F
100
AcDbEntity
  8
0
  6
Continuous
 62
     7
370
    15
100
AcDbLine
 10
108.7352021027982
 20
236.571359702502
 30
0.0
 11
108.0121360363248
 21
220.3487235956905
 31
0.0
  0
LINE
  5
18C
330
1F
100
AcDbEntity
  8
0
  6
Continuous
 62
     7
370
    15
100
AcDbLine
 10
119.2389882556742
 20
236.5713597023917
 30
0.0
 11
108.7352021027933
 21
236.5713597023917
 31
0.0
  0
SPLINE
  5
18D
330
1F
100
AcDbEntity
  8
0
  6
Continuous
 62
     7
370
    15
100
AcDbSpline
210
0.0
220
0.0
230
1.0
 70
     8
 71
     3
 72
    12
 73
     8
 74
     0
 42
0.000000001
 43
0.00000001
 40
0.0
 40
0.0
 40
0.0
 40
0.0
 40
0.2364800943968448
 40
0.4812067618857353
 40
0.7174033883384595
 40
0.9598368596117898
 40
1.0
 40
1.0
 40
1.0
 40
1.0
 10
107.5996708741896
 20
218.5713597031174
 30
0.0
 10
107.5521313547375
 20
218.4687025595509
 30
0.0
 10
107.4553945098225
 20
218.2598083954732
 30
0.0
 10
107.3389655319058
 20
218.0557024055846
 30
0.0
 10
107.2645887652953
 20
217.9324830222667
 30
0.0
 10
107.2317155434178
 20
217.8811294452918
 30
0.0
 10
107.2394380434104
 20
217.8933541687295
 30
0.0
 10
107.2405355790444
 20
217.8950915684837
 30
0.0
  0
SPLINE
  5
18E
330
1F
100
AcDbEntity
  8
0
  6
Continuous
 62
     7
370
    15
100
AcDbSpline
210
0.0
220
0.0
230
1.0
 70
     8
 71
     3
 72
    12
 73
     8
 74
     0
 42
0.000000001
 43
0.00000001
 40
0.0
 40
0.0
 40
0.0
 40
0.0
 40
0.2364800943968451
 40
0.4812067618857357
 40
0.71740338833846
 40
0.9598368596117904
 40
1.0
 40
1.0
 40
1.0
 40
1.0
 10
120.3745194842779
 20
218.5713597031174
 30
0.0
 10
120.42205900373
 20
218.4687025595509
 30
0.0
 10
120.5187958486449
 20
218.2598083954732
 30
0.0
 10
120.6352248265617
 20
218.0557024055846
 30
0.0
 10
120.7096015931722
 20
217.9324830222667
 30
0.0
 10
120.7424748150497
 20
217.8811294452917
 30
0.0
 10
120.7347523150571
 20
217.8933541687295
 30
0.0
 10
120.7336547794231
 20
217.8950915684837
 30
0.0
  0
LINE
  5
18F
330
1F
100
AcDbEntity
  8
0
  6
Continuous
 62
     7
370
    15
100
AcDbLine
 10
113.9870951792337
 20
214.3713597017242
 30
0.0
 11
129.9870951792337
 21
214.3713597033374
 31
0.0
  0
LINE
  5
190
330
1F
100
AcDbEntity
  8
0
  6
Continuous
 62
     7
370
    15
100
AcDbLine
 10
97.98709517923379
 20
214.3713597033374
 30
0.0
 11
113.9870951792337
 21
214.3713597017242
 31
0.0
  0
LINE
  5
191
330
1F
100
AcDbEntity
  8
0
  6
Continuous
 62
     7
370
    15
100
AcDbLine
 10
113.9870951792337
 20
217.3713597017242
 30
0.0
 11
97.98709517923376
 21
217.3713597033374
 31
0.0
  0
LINE
  5
192
330
1F
100
AcDbEntity
  8
0
  6
Continuous
 62
     7
370
    15
100
AcDbLine
 10
129.9870951792337
 20
217.3713597033374
 30
0.0
 11
113.9870951792337
 21
217.3713597017242
 31
0.0
  0
LINE
  5
193
330
1F
100
AcDbEntity
  8
0
  6
Continuous
 62
     7
370
    15
100
AcDbLine
 10
123.9870951792337
 20
210.3713597033374
 30
0.0
 11
103.9870951792337
 21
210.3713597033374
 31
0.0
  0
LINE
  5
194
330
1F
100
AcDbEntity
  8
0
  6
Continuous
 62
     7
370
    15
100
AcDbLine
 10
122.9870951792338
 20
200.3713597028979
 30
0.0
 11
104.9870951792337
 21
200.3713597028979
 31
0.0
  0
LINE
  5
195
330
1F
100
AcDbEntity
  8
0
  6
Continuous
 62
     7
370
    15
100
AcDbLine
 10
104.9870951792337
 20
205.3713597028979
 30
0.0
 11
104.9870951792337
 21
200.3713597028979
 31
0.0
  0
LINE
  5
196
330
1F
100
AcDbEntity
  8
0
  6
Continuous
 62
     7
370
    15
100
AcDbLine
 10
122.9870951792338
 20
205.3713597028979
 30
0.0
 11
122.9870951792338
 21
200.3713597028979
 31
0.0
  0
LINE
  5
197
330
1F
100
AcDbEntity
  8
0
  6
Continuous
 62
     7
370
    15
100
AcDbLine
 10
122.9870951792338
 20
205.3713597028979
 30
0.0
 11
104.9870951792337
 21
205.3713597028979
 31
0.0
  0
LINE
  5
198
330
1F
100
AcDbEntity
  8
0
  6
Continuous
 62
     7
370
    15
100
AcDbLine
 10
104.9870951792337
 20
190.8713597028979
 30
0.0
 11
122.9870951792338
 21
190.8713597028979
 31
0.0
  0
LINE
  5
199
330
1F
100
AcDbEntity
  8
0
  6
Continuous
 62
     7
370
    15
100
AcDbLine
 10
104.9870951792337
 20
195.3713597028979
 30
0.0
 11
104.9870951792337
 21
190.8713597028979
 31
0.0
  0
LINE
  5
19A
330
1F
100
AcDbEntity
  8
0
  6
Continuous
 62
     7
370
    15
100
AcDbLine
 10
122.9870951792338
 20
195.3713597028979
 30
0.0
 11
104.9870951792337
 21
195.3713597028979
 31
0.0
  0
LINE
  5
19B
330
1F
100
AcDbEntity
  8
0
  6
Continuous
 62
     7
370
    15
100
AcDbLine
 10
122.9870951792338
 20
195.3713597028979
 30
0.0
 11
122.9870951792338
 21
190.8713597028979
 31
0.0
  0
LINE
  5
19C
330
1F
100
AcDbEntity
  8
0
  6
Continuous
 62
     7
370
    15
100
AcDbLine
 10
108.9856132028311
 20
187.3713597033374
 30
0.0
 11
118.9885771556363
 21
187.3713597033374
 31
0.0
  0
SPLINE
  5
19D
330
1F
100
AcDbEntity
  8
0
  6
Continuous
 62
     7
370
    15
100
AcDbSpline
210
0.0
220
0.0
230
1.0
 70
    24
 71
     3
 72
    12
 73
     8
 74
     0
 42
0.000000001
 43
0.00000001
 40
0.0
 40
0.0
 40
0.0
 40
0.0
 40
0.2443749404076238
 40
0.4318111979368521
 40
0.6204873080327843
 40
0.8097267822025256
 40
1.0
 40
1.0
 40
1.0
 40
1.0
 10
122.9870951792338
 20
190.1848091185809
 30
0.0
 10
122.9870951792338
 20
190.1875751754301
 30
0.0
 10
122.9870951792337
 20
190.1924628055596
 30
0.0
 10
122.9870951792337
 20
190.3044786895555
 30
0.0
 10
122.9870951792338
 20
190.4476007745746
 30
0.0
 10
122.9870951792337
 20
190.6354884751109
 30
0.0
 10
122.9870951792338
 20
190.7925933158607
 30
0.0
 10
122.9870951792338
 20
190.8713597028979
 30
0.0
  0
SPLINE
  5
19E
330
1F
100
AcDbEntity
  8
0
  6
Continuous
 62
     7
370
    15
100
AcDbSpline
210
0.0
220
0.0
230
1.0
 70
    24
 71
     3
 72
    11
 73
     7
 74
     0
 42
0.000000001
 43
0.00000001
 40
0.0
 40
0.0
 40
0.0
 40
0.0
 40
0.1522445853217003
 40
0.4578221878900977
 40
0.7684143856903183
 40
1.0
 40
1.0
 40
1.0
 40
1.0
 10
104.9870951792337
 20
190.8713597028979
 30
0.0
 10
104.9870951792337
 20
190.8078207246247
 30
0.0
 10
104.9870951792338
 20
190.6167495348815
 30
0.0
 10
104.9870951792337
 20
190.371547548857
 30
0.0
 10
104.9870951792337
 20
190.1924647264321
 30
0.0
 10
104.9870951792337
 20
190.1880156469853
 30
0.0
 10
104.9870951792337
 20
190.1861152689658
 30
0.0
  0
ARC
  5
19F
330
1F
100
AcDbEntity
  8
0
  6
Continuous
 62
     7
370
    15
100
AcDbCircle
 10
186.6607416568297
 20
121.4579357211487
 30
0.0
 40
2.0
100
AcDbArc
 50
359.9999999942239
 51
89.99999999422228
  0
ARC
  5
1A0
330
1F
100
AcDbEntity
  8
0
  6
Continuous
 62
     7
370
    15
100
AcDbCircle
 10
147.6607416568297
 20
121.4579357250809
 30
0.0
 40
2.0
100
AcDbArc
 50
89.99999999422309
 51
179.9999999942235
  0
LINE
  5
1A1
330
1F
100
AcDbEntity
  8
0
  6
Continuous
 62
     7
370
    15
100
AcDbLine
 10
160.4107416569103
 20
122.2579357237954
 30
0.0
 11
160.4107416570313
 21
123.4579357237954
 31
0.0
  0
LINE
  5
1A2
330
1F
100
AcDbEntity
  8
0
  6
Continuous
 62
     7
370
    15
100
AcDbLine
 10
147.6607416569103
 20
122.2579357250809
 30
0.0
 11
160.4107416569103
 21
122.2579357237954
 31
0.0
  0
ARC
  5
1A3
330
1F
100
AcDbEntity
  8
0
  6
Continuous
 62
     7
370
    15
100
AcDbCircle
 10
147.6607416568297
 20
121.4579357250809
 30
0.0
 40
0.8000000000000114
100
AcDbArc
 50
89.99999999422309
 51
179.9999999942231
  0
LINE
  5
1A4
330
1F
100
AcDbEntity
  8
0
  6
Continuous
 62
     7
370
    15
100
AcDbLine
 10
146.8607416564768
 20
117.9579357251616
 30
0.0
 11
146.8607416568297
 21
121.4579357251616
 31
0.0
  0
LINE
  5
1A5
330
1F
100
AcDbEntity
  8
0
  6
Continuous
 62
     7
370
    15
100
AcDbLine
 10
145.6607416564768
 20
117.9579357252825
 30
0.0
 11
146.8607416564768
 21
117.9579357251616
 31
0.0
  0
LINE
  5
1A6
330
1F
100
AcDbEntity
  8
0
  6
Continuous
 62
     7
370
    15
100
AcDbLine
 10
145.6607416568297
 20
121.4579357252825
 30
0.0
 11
145.6607416564768
 21
117.9579357252825
 31
0.0
  0
LINE
  5
1A7
330
1F
100
AcDbEntity
  8
0
  6
Continuous
 62
     7
370
    15
100
AcDbLine
 10
160.4107416570313
 20
123.4579357237954
 30
0.0
 11
147.6607416570313
 21
123.4579357250809
 31
0.0
  0
LINE
  5
1A8
330
1F
100
AcDbEntity
  8
0
  6
Continuous
 62
     7
370
    15
100
AcDbLine
 10
188.6607416564768
 20
117.957935720947
 30
0.0
 11
188.6607416568297
 21
121.457935720947
 31
0.0
  0
ARC
  5
1A9
330
1F
100
AcDbEntity
  8
0
  6
Continuous
 62
     7
370
    15
100
AcDbCircle
 10
186.6607416568297
 20
121.4579357211487
 30
0.0
 40
0.8000000000000398
100
AcDbArc
 50
359.9999999942239
 51
89.99999999422309
  0
LINE
  5
1AA
330
1F
100
AcDbEntity
  8
0
  6
Continuous
 62
     7
370
    15
100
AcDbLine
 10
187.4607416568297
 20
121.457935721068
 30
0.0
 11
187.4607416564768
 21
117.957935721068
 31
0.0
  0
LINE
  5
1AB
330
1F
100
AcDbEntity
  8
0
  6
Continuous
 62
     7
370
    15
100
AcDbLine
 10
187.4607416564768
 20
117.957935721068
 30
0.0
 11
177.1607416564769
 21
117.9579357221065
 31
0.0
  0
LINE
  5
1AC
330
1F
100
AcDbEntity
  8
0
  6
Continuous
 62
     7
370
    15
100
AcDbLine
 10
157.1607416564768
 20
117.957935724123
 30
0.0
 11
146.8607416564768
 21
117.9579357251616
 31
0.0
  0
LINE
  5
1AD
330
1F
100
AcDbEntity
  8
0
  6
Continuous
 62
     7
370
    15
100
AcDbLine
 10
173.9107416570313
 20
123.4579357224342
 30
0.0
 11
173.9107416569103
 21
122.2579357224342
 31
0.0
  0
LINE
  5
1AE
330
1F
100
AcDbEntity
  8
0
  6
Continuous
 62
     7
370
    15
100
AcDbLine
 10
173.9107416569103
 20
122.2579357224342
 30
0.0
 11
186.6607416569103
 21
122.2579357211487
 31
0.0
  0
LINE
  5
1AF
330
1F
100
AcDbEntity
  8
0
  6
Continuous
 62
     7
370
    15
100
AcDbLine
 10
186.6607416570313
 20
123.4579357211487
 30
0.0
 11
173.9107416570313
 21
123.4579357224342
 31
0.0
  0
LINE
  5
1B0
330
1F
100
AcDbEntity
  8
0
  6
Continuous
 62
     7
370
    15
100
AcDbLine
 10
187.4607416564768
 20
117.957935721068
 30
0.0
 11
188.6607416564768
 21
117.957935720947
 31
0.0
  0
LINE
  5
1B1
330
1F
100
AcDbEntity
  8
0
  6
Continuous
 62
     7
370
    15
100
AcDbLine
 10
170.6607416574768
 20
127.8767378762815
 30
0.0
 11
171.1607416575272
 21
128.3767378762311
 31
0.0
  0
LINE
  5
1B2
330
1F
100
AcDbEntity
  8
0
  6
Continuous
 62
     7
370
    15
100
AcDbLine
 10
163.6607416574769
 20
127.8767378769872
 30
0.0
 11
170.6607416574768
 21
127.8767378762815
 31
0.0
  0
LINE
  5
1B3
330
1F
100
AcDbEntity
  8
0
  6
Continuous
 62
     7
370
    15
100
AcDbLine
 10
163.1607416575273
 20
128.3767378770377
 30
0.0
 11
163.6607416574769
 21
127.8767378769872
 31
0.0
  0
LINE
  5
1B4
330
1F
100
AcDbEntity
  8
0
  6
Continuous
 62
     7
370
    15
100
AcDbLine
 10
163.1607416584348
 20
137.3767378770376
 30
0.0
 11
163.1607416575273
 21
128.3767378770377
 31
0.0
  0
LINE
  5
1B5
330
1F
100
AcDbEntity
  8
0
  6
Continuous
 62
     7
370
    15
100
AcDbLine
 10
163.6607416584852
 20
137.8767378769872
 30
0.0
 11
163.1607416584348
 21
137.3767378770376
 31
0.0
  0
LINE
  5
1B6
330
1F
100
AcDbEntity
  8
0
  6
Continuous
 62
     7
370
    15
100
AcDbLine
 10
165.1493894120293
 20
137.8767378768371
 30
0.0
 11
163.6607416584852
 21
137.8767378769872
 31
0.0
  0
LINE
  5
1B7
330
1F
100
AcDbEntity
  8
0
  6
Continuous
 62
     7
370
    15
100
AcDbLine
 10
165.1493894120293
 20
137.8767378768371
 30
0.0
 11
165.1493894115252
 21
132.8767378768372
 31
0.0
  0
LINE
  5
1B8
330
1F
100
AcDbEntity
  8
0
  6
Continuous
 62
     7
370
    15
100
AcDbLine
 10
169.1720939044368
 20
132.8767378764315
 30
0.0
 11
165.1493894115252
 21
132.8767378768372
 31
0.0
  0
LINE
  5
1B9
330
1F
100
AcDbEntity
  8
0
  6
Continuous
 62
     7
370
    15
100
AcDbLine
 10
169.1720939044368
 20
132.8767378764315
 30
0.0
 11
169.1720939049409
 21
137.8767378764316
 31
0.0
  0
LINE
  5
1BA
330
1F
100
AcDbEntity
  8
0
  6
Continuous
 62
     7
370
    15
100
AcDbLine
 10
170.6607416584851
 20
137.8767378762815
 30
0.0
 11
169.1720939049409
 21
137.8767378764316
 31
0.0
  0
LINE
  5
1BB
330
1F
100
AcDbEntity
  8
0
  6
Continuous
 62
     7
370
    15
100
AcDbLine
 10
171.1607416584346
 20
137.3767378762311
 30
0.0
 11
170.6607416584851
 21
137.8767378762815
 31
0.0
  0
LINE
  5
1BC
330
1F
100
AcDbEntity
  8
0
  6
Continuous
 62
     7
370
    15
100
AcDbLine
 10
171.1607416575272
 20
128.3767378762311
 30
0.0
 11
171.1607416584346
 21
137.3767378762311
 31
0.0
  0
LINE
  5
1BD
330
1F
100
AcDbEntity
  8
0
  6
Continuous
 62
     7
370
    15
100
AcDbLine
 10
165.2945387027691
 20
132.8767378768225
 30
0.0
 11
165.2945387032732
 21
137.8767378768225
 31
0.0
  0
LINE
  5
1BE
330
1F
100
AcDbEntity
  8
0
  6
Continuous
 62
     7
370
    15
100
AcDbLine
 10
165.2945387032732
 20
137.8767378768225
 30
0.0
 11
165.1493894120293
 21
137.8767378768371
 31
0.0
  0
LINE
  5
1BF
330
1F
100
AcDbEntity
  8
0
  6
Continuous
 62
     7
370
    15
100
AcDbLine
 10
167.405759400772
 20
132.8767378766096
 30
0.0
 11
167.4057594012761
 21
137.8767378766096
 31
0.0
  0
LINE
  5
1C0
330
1F
100
AcDbEntity
  8
0
  6
Continuous
 62
     7
370
    15
100
AcDbLine
 10
169.1720939049409
 20
137.8767378764316
 30
0.0
 11
167.4057594012761
 21
137.8767378766096
 31
0.0
  0
LINE
  5
1C1
330
1F
100
AcDbEntity
  8
0
  6
Continuous
 62
     7
370
    15
100
AcDbLine
 10
167.4057594012761
 20
137.8767378766096
 30
0.0
 11
165.2945387032732
 21
137.8767378768225
 31
0.0
  0
LINE
  5
1C2
330
1F
100
AcDbEntity
  8
0
  6
Continuous
 62
     7
370
    15
100
AcDbLine
 10
171.1607416550066
 20
103.3767378762311
 30
0.0
 11
171.1607416574265
 21
127.376737876231
 31
0.0
  0
LINE
  5
1C3
330
1F
100
AcDbEntity
  8
0
  6
Continuous
 62
     7
370
    15
100
AcDbLine
 10
163.1607416574265
 20
127.3767378770377
 30
0.0
 11
163.1607416550066
 21
103.3767378770377
 31
0.0
  0
LINE
  5
1C4
330
1F
100
AcDbEntity
  8
0
  6
Continuous
 62
     7
370
    15
100
AcDbLine
 10
170.6607416549562
 20
102.8767378762815
 30
0.0
 11
171.1607416550066
 21
103.3767378762311
 31
0.0
  0
LINE
  5
1C5
330
1F
100
AcDbEntity
  8
0
  6
Continuous
 62
     7
370
    15
100
AcDbLine
 10
163.6607416549562
 20
102.8767378769872
 30
0.0
 11
170.6607416549562
 21
102.8767378762815
 31
0.0
  0
LINE
  5
1C6
330
1F
100
AcDbEntity
  8
0
  6
Continuous
 62
     7
370
    15
100
AcDbLine
 10
163.1607416550066
 20
103.3767378770377
 30
0.0
 11
163.6607416549562
 21
102.8767378769872
 31
0.0
  0
LINE
  5
1C7
330
1F
100
AcDbEntity
  8
0
  6
Continuous
 62
     7
370
    15
100
AcDbLine
 10
163.6607416574769
 20
127.8767378769872
 30
0.0
 11
163.1607416574265
 21
127.3767378770377
 31
0.0
  0
LINE
  5
1C8
330
1F
100
AcDbEntity
  8
0
  6
Continuous
 62
     7
370
    15
100
AcDbLine
 10
165.1366347494747
 20
127.8767378768384
 30
0.0
 11
163.6607416574769
 21
127.8767378769872
 31
0.0
  0
LINE
  5
1C9
330
1F
100
AcDbEntity
  8
0
  6
Continuous
 62
     7
370
    15
100
AcDbLine
 10
165.1366347494747
 20
127.8767378768384
 30
0.0
 11
165.1366347489706
 21
122.8767378768384
 31
0.0
  0
LINE
  5
1CA
330
1F
100
AcDbEntity
  8
0
  6
Continuous
 62
     7
370
    15
100
AcDbLine
 10
169.1848485649749
 20
122.8767378764303
 30
0.0
 11
165.1366347489706
 21
122.8767378768384
 31
0.0
  0
LINE
  5
1CB
330
1F
100
AcDbEntity
  8
0
  6
Continuous
 62
     7
370
    15
100
AcDbLine
 10
169.1848485649749
 20
122.8767378764303
 30
0.0
 11
169.184848565479
 21
127.8767378764303
 31
0.0
  0
LINE
  5
1CC
330
1F
100
AcDbEntity
  8
0
  6
Continuous
 62
     7
370
    15
100
AcDbLine
 10
170.6607416574768
 20
127.8767378762815
 30
0.0
 11
169.184848565479
 21
127.8767378764303
 31
0.0
  0
LINE
  5
1CD
330
1F
100
AcDbEntity
  8
0
  6
Continuous
 62
     7
370
    15
100
AcDbLine
 10
171.1607416574265
 20
127.376737876231
 30
0.0
 11
170.6607416574768
 21
127.8767378762815
 31
0.0
  0
LINE
  5
1CE
330
1F
100
AcDbEntity
  8
0
  6
Continuous
 62
     7
370
    15
100
AcDbLine
 10
165.3622426348719
 20
122.8767378768157
 30
0.0
 11
165.362242635376
 21
127.8767378768157
 31
0.0
  0
LINE
  5
1CF
330
1F
100
AcDbEntity
  8
0
  6
Continuous
 62
     7
370
    15
100
AcDbLine
 10
167.5161040184258
 20
122.8767378765985
 30
0.0
 11
167.51610401893
 21
127.8767378765985
 31
0.0
  0
CIRCLE
  5
1D0
330
1F
100
AcDbEntity
  8
0
  6
Continuous
 62
     7
370
    15
100
AcDbCircle
 10
167.1607416545529
 20
98.87673787663435
 30
0.0
 40
3.999999999999996
  0
LINE
  5
1D1
330
1F
100
AcDbEntity
  8
0
  6
Continuous
 62
     7
370
    15
100
AcDbLine
 10
155.6607416570313
 20
123.4579357242743
 30
0.0
 11
160.4107416570313
 21
123.4579357237954
 31
0.0
  0
LINE
  5
1D2
330
1F
100
AcDbEntity
  8
0
  6
Continuous
 62
     7
370
    15
100
AcDbLine
 10
156.4107416588462
 20
141.4579357241987
 30
0.0
 11
155.6607416570313
 21
123.4579357242743
 31
0.0
  0
LINE
  5
1D3
330
1F
100
AcDbEntity
  8
0
  6
Continuous
 62
     7
370
    15
100
AcDbLine
 10
163.7607416588462
 20
141.4579357234576
 30
0.0
 11
156.4107416588462
 21
141.4579357241987
 31
0.0
  0
LINE
  5
1D4
330
1F
100
AcDbEntity
  8
0
  6
Continuous
 62
     7
370
    15
100
AcDbLine
 10
163.7607416588462
 20
141.4579357234576
 30
0.0
 11
163.7607416551157
 21
104.4579357234576
 31
0.0
  0
LINE
  5
1D5
330
1F
100
AcDbEntity
  8
0
  6
Continuous
 62
     7
370
    15
100
AcDbLine
 10
162.7607416550148
 20
103.4579357235584
 30
0.0
 11
163.7607416551157
 21
104.4579357234576
 31
0.0
  0
LINE
  5
1D6
330
1F
100
AcDbEntity
  8
0
  6
Continuous
 62
     7
370
    15
100
AcDbLine
 10
161.4107416550148
 20
103.4579357236945
 30
0.0
 11
162.7607416550148
 21
103.4579357235584
 31
0.0
  0
LINE
  5
1D7
330
1F
100
AcDbEntity
  8
0
  6
Continuous
 62
     7
370
    15
100
AcDbLine
 10
160.4107416551157
 20
104.4579357237954
 30
0.0
 11
161.4107416550148
 21
103.4579357236945
 31
0.0
  0
LINE
  5
1D8
330
1F
100
AcDbEntity
  8
0
  6
Continuous
 62
     7
370
    15
100
AcDbLine
 10
160.4107416570313
 20
123.4579357237954
 30
0.0
 11
160.4107416551157
 21
104.4579357237954
 31
0.0
  0
LINE
  5
1D9
330
1F
100
AcDbEntity
  8
0
  6
Continuous
 62
     7
370
    15
100
AcDbLine
 10
172.9107416550148
 20
103.457935722535
 30
0.0
 11
173.9107416551156
 21
104.4579357224342
 31
0.0
  0
LINE
  5
1DA
330
1F
100
AcDbEntity
  8
0
  6
Continuous
 62
     7
370
    15
100
AcDbLine
 10
173.9107416551156
 20
104.4579357224342
 30
0.0
 11
173.9107416570313
 21
123.4579357224342
 31
0.0
  0
LINE
  5
1DB
330
1F
100
AcDbEntity
  8
0
  6
Continuous
 62
     7
370
    15
100
AcDbLine
 10
170.5607416551156
 20
104.457935722772
 30
0.0
 11
171.5607416550148
 21
103.4579357226712
 31
0.0
  0
LINE
  5
1DC
330
1F
100
AcDbEntity
  8
0
  6
Continuous
 62
     7
370
    15
100
AcDbLine
 10
171.5607416550148
 20
103.4579357226712
 30
0.0
 11
171.1607416550148
 21
103.4579357227115
 31
0.0
  0
LINE
  5
1DD
330
1F
100
AcDbEntity
  8
0
  6
Continuous
 62
     7
370
    15
100
AcDbLine
 10
163.1607416550148
 20
103.4579357235181
 30
0.0
 11
162.7607416550148
 21
103.4579357235584
 31
0.0
  0
LINE
  5
1DE
330
1F
100
AcDbEntity
  8
0
  6
Continuous
 62
     7
370
    15
100
AcDbLine
 10
170.5607416551156
 20
104.457935722772
 30
0.0
 11
170.5607416588462
 21
141.457935722772
 31
0.0
  0
LINE
  5
1DF
330
1F
100
AcDbEntity
  8
0
  6
Continuous
 62
     7
370
    15
100
AcDbLine
 10
163.7607416588462
 20
141.4579357234576
 30
0.0
 11
170.5607416588462
 21
141.457935722772
 31
0.0
  0
LINE
  5
1E0
330
1F
100
AcDbEntity
  8
0
  6
Continuous
 62
     7
370
    15
100
AcDbLine
 10
178.6607416570313
 20
123.4579357219553
 30
0.0
 11
177.9107416588462
 21
141.4579357220309
 31
0.0
  0
LINE
  5
1E1
330
1F
100
AcDbEntity
  8
0
  6
Continuous
 62
     7
370
    15
100
AcDbLine
 10
173.9107416570313
 20
123.4579357224342
 30
0.0
 11
178.6607416570313
 21
123.4579357219553
 31
0.0
  0
LINE
  5
1E2
330
1F
100
AcDbEntity
  8
0
  6
Continuous
 62
     7
370
    15
100
AcDbLine
 10
171.5607416550148
 20
103.4579357226712
 30
0.0
 11
172.9107416550148
 21
103.457935722535
 31
0.0
  0
LINE
  5
1E3
330
1F
100
AcDbEntity
  8
0
  6
Continuous
 62
     7
370
    15
100
AcDbLine
 10
177.9107416588462
 20
141.4579357220309
 30
0.0
 11
170.5607416588462
 21
141.457935722772
 31
0.0
  0
LINE
  5
1E4
330
1F
100
AcDbEntity
  8
0
  6
Continuous
 62
     7
370
    15
100
AcDbLine
 10
183.1607416566079
 20
119.2579357215016
 30
0.0
 11
183.1607416569103
 21
122.2579357215016
 31
0.0
  0
LINE
  5
1E5
330
1F
100
AcDbEntity
  8
0
  6
Continuous
 62
     7
370
    15
100
AcDbLine
 10
151.1607416569103
 20
122.257935724728
 30
0.0
 11
151.1607416566079
 21
119.257935724728
 31
0.0
  0
LINE
  5
1E6
330
1F
100
AcDbEntity
  8
0
  6
Continuous
 62
     7
370
    15
100
AcDbLine
 10
158.1607416546922
 20
100.2579357240222
 30
0.0
 11
158.1607416551963
 21
105.2579357240222
 31
0.0
  0
LINE
  5
1E7
330
1F
100
AcDbEntity
  8
0
  6
Continuous
 62
     7
370
    15
100
AcDbLine
 10
158.1607416551963
 20
105.2579357240222
 30
0.0
 11
157.1607416551963
 21
105.2579357241231
 31
0.0
  0
LINE
  5
1E8
330
1F
100
AcDbEntity
  8
0
  6
Continuous
 62
     7
370
    15
100
AcDbLine
 10
157.1607416557004
 20
110.2579357241231
 30
0.0
 11
157.1607416551963
 21
105.2579357241231
 31
0.0
  0
LINE
  5
1E9
330
1F
100
AcDbEntity
  8
0
  6
Continuous
 62
     7
370
    15
100
AcDbLine
 10
157.1607416557004
 20
110.2579357241231
 30
0.0
 11
158.1607416557004
 21
110.2579357240222
 31
0.0
  0
LINE
  5
1EA
330
1F
100
AcDbEntity
  8
0
  6
Continuous
 62
     7
370
    15
100
AcDbLine
 10
158.1607416557004
 20
110.2579357240222
 30
0.0
 11
158.1607416562046
 21
115.2579357240222
 31
0.0
  0
LINE
  5
1EB
330
1F
100
AcDbEntity
  8
0
  6
Continuous
 62
     7
370
    15
100
AcDbLine
 10
158.1607416562046
 20
115.2579357240222
 30
0.0
 11
157.1607416562046
 21
115.2579357241231
 31
0.0
  0
LINE
  5
1EC
330
1F
100
AcDbEntity
  8
0
  6
Continuous
 62
     7
370
    15
100
AcDbLine
 10
157.1607416566079
 20
119.2579357241231
 30
0.0
 11
157.1607416562046
 21
115.2579357241231
 31
0.0
  0
LINE
  5
1ED
330
1F
100
AcDbEntity
  8
0
  6
Continuous
 62
     7
370
    15
100
AcDbLine
 10
151.1607416569103
 20
122.257935724728
 30
0.0
 11
159.7607416569103
 21
122.2579357238609
 31
0.0
  0
LINE
  5
1EE
330
1F
100
AcDbEntity
  8
0
  6
Continuous
 62
     7
370
    15
100
AcDbLine
 10
160.2607416568599
 20
121.7579357238105
 30
0.0
 11
159.7607416569103
 21
122.2579357238609
 31
0.0
  0
LINE
  5
1EF
330
1F
100
AcDbEntity
  8
0
  6
Continuous
 62
     7
370
    15
100
AcDbLine
 10
160.2607416568599
 20
121.7579357238105
 30
0.0
 11
160.2607416543393
 21
96.7579357238105
 31
0.0
  0
LINE
  5
1F0
330
1F
100
AcDbEntity
  8
0
  6
Continuous
 62
     7
370
    15
100
AcDbLine
 10
160.2607416543393
 20
96.7579357238105
 30
0.0
 11
162.8306146354182
 21
96.75793572355323
 31
0.0
  0
LINE
  5
1F1
330
1F
100
AcDbEntity
  8
0
  6
Continuous
 62
     7
370
    15
100
AcDbLine
 10
162.8306146354182
 20
96.75793572355323
 30
0.0
 11
167.1607416540872
 21
94.25793572311724
 31
0.0
  0
LINE
  5
1F2
330
1F
100
AcDbEntity
  8
0
  6
Continuous
 62
     7
370
    15
100
AcDbLine
 10
167.1607416540872
 20
94.25793572311724
 30
0.0
 11
171.4908686732604
 21
96.75793572268005
 31
0.0
  0
LINE
  5
1F3
330
1F
100
AcDbEntity
  8
0
  6
Continuous
 62
     7
370
    15
100
AcDbLine
 10
171.4908686732604
 20
96.75793572268005
 30
0.0
 11
174.0607416543393
 21
96.75793572241912
 31
0.0
  0
LINE
  5
1F4
330
1F
100
AcDbEntity
  8
0
  6
Continuous
 62
     7
370
    15
100
AcDbLine
 10
174.0607416543393
 20
96.75793572241912
 30
0.0
 11
174.0607416568599
 21
121.7579357224191
 31
0.0
  0
LINE
  5
1F5
330
1F
100
AcDbEntity
  8
0
  6
Continuous
 62
     7
370
    15
100
AcDbLine
 10
174.5607416569103
 20
122.2579357223687
 30
0.0
 11
174.0607416568599
 21
121.7579357224191
 31
0.0
  0
LINE
  5
1F6
330
1F
100
AcDbEntity
  8
0
  6
Continuous
 62
     7
370
    15
100
AcDbLine
 10
174.5607416569103
 20
122.2579357223687
 30
0.0
 11
183.1607416569103
 21
122.2579357215016
 31
0.0
  0
LINE
  5
1F7
330
1F
100
AcDbEntity
  8
0
  6
Continuous
 62
     7
370
    15
100
AcDbLine
 10
177.1607416562046
 20
115.2579357221066
 30
0.0
 11
177.1607416566079
 21
119.2579357221066
 31
0.0
  0
LINE
  5
1F8
330
1F
100
AcDbEntity
  8
0
  6
Continuous
 62
     7
370
    15
100
AcDbLine
 10
177.1607416562046
 20
115.2579357221066
 30
0.0
 11
176.1607416562046
 21
115.2579357222074
 31
0.0
  0
LINE
  5
1F9
330
1F
100
AcDbEntity
  8
0
  6
Continuous
 62
     7
370
    15
100
AcDbLine
 10
176.1607416562046
 20
115.2579357222074
 30
0.0
 11
176.1607416557004
 21
110.2579357222074
 31
0.0
  0
LINE
  5
1FA
330
1F
100
AcDbEntity
  8
0
  6
Continuous
 62
     7
370
    15
100
AcDbLine
 10
177.1607416557004
 20
110.2579357221065
 30
0.0
 11
176.1607416557004
 21
110.2579357222074
 31
0.0
  0
LINE
  5
1FB
330
1F
100
AcDbEntity
  8
0
  6
Continuous
 62
     7
370
    15
100
AcDbLine
 10
177.1607416551963
 20
105.2579357221066
 30
0.0
 11
177.1607416557004
 21
110.2579357221065
 31
0.0
  0
LINE
  5
1FC
330
1F
100
AcDbEntity
  8
0
  6
Continuous
 62
     7
370
    15
100
AcDbLine
 10
177.1607416551963
 20
105.2579357221066
 30
0.0
 11
176.1607416551963
 21
105.2579357222074
 31
0.0
  0
LINE
  5
1FD
330
1F
100
AcDbEntity
  8
0
  6
Continuous
 62
     7
370
    15
100
AcDbLine
 10
176.1607416551963
 20
105.2579357222074
 30
0.0
 11
176.1607416546922
 21
100.2579357222074
 31
0.0
  0
LINE
  5
1FE
330
1F
100
AcDbEntity
  8
0
  6
Continuous
 62
     7
370
    15
100
AcDbLine
 10
177.1607416546922
 20
100.2579357221066
 30
0.0
 11
176.1607416546922
 21
100.2579357222074
 31
0.0
  0
LINE
  5
1FF
330
1F
100
AcDbEntity
  8
0
  6
Continuous
 62
     7
370
    15
100
AcDbLine
 10
177.1607416542384
 20
95.75793572210654
 30
0.0
 11
177.1607416546922
 21
100.2579357221066
 31
0.0
  0
LINE
  5
200
330
1F
100
AcDbEntity
  8
0
  6
Continuous
 62
     7
370
    15
100
AcDbLine
 10
172.1622236302882
 20
92.25793572261053
 30
0.0
 11
177.1607416542384
 21
95.75793572210654
 31
0.0
  0
LINE
  5
201
330
1F
100
AcDbEntity
  8
0
  6
Continuous
 62
     7
370
    15
100
AcDbLine
 10
172.1622236302882
 20
92.25793572261053
 30
0.0
 11
162.159259677483
 21
92.25793572361908
 31
0.0
  0
LINE
  5
202
330
1F
100
AcDbEntity
  8
0
  6
Continuous
 62
     7
370
    15
100
AcDbLine
 10
157.1607416542384
 20
95.75793572412306
 30
0.0
 11
162.159259677483
 21
92.25793572361908
 31
0.0
  0
LINE
  5
203
330
1F
100
AcDbEntity
  8
0
  6
Continuous
 62
     7
370
    15
100
AcDbLine
 10
157.1607416546922
 20
100.2579357241231
 30
0.0
 11
157.1607416542384
 21
95.75793572412306
 31
0.0
  0
LINE
  5
204
330
1F
100
AcDbEntity
  8
0
  6
Continuous
 62
     7
370
    15
100
AcDbLine
 10
157.1607416546922
 20
100.2579357241231
 30
0.0
 11
158.1607416546922
 21
100.2579357240222
 31
0.0
  0
LINE
  5
205
330
1F
100
AcDbEntity
  8
0
  6
Continuous
 62
     7
370
    15
100
AcDbLine
 10
157.1607416566079
 20
119.2579357241231
 30
0.0
 11
151.1607416566079
 21
119.257935724728
 31
0.0
  0
LINE
  5
206
330
1F
100
AcDbEntity
  8
0
  6
Continuous
 62
     7
370
    15
100
AcDbLine
 10
183.1607416566079
 20
119.2579357215016
 30
0.0
 11
177.1607416566079
 21
119.2579357221066
 31
0.0
  0
LINE
  5
207
330
1F
100
AcDbEntity
  8
0
  6
Continuous
 62
     7
370
    15
100
AcDbLine
 10
174.0607416568599
 20
121.7579357224191
 30
0.0
 11
173.9107416568599
 21
121.7579357224342
 31
0.0
  0
LINE
  5
208
330
1F
100
AcDbEntity
  8
0
  6
Continuous
 62
     7
370
    15
100
AcDbLine
 10
160.4107416568599
 20
121.7579357237954
 30
0.0
 11
160.2607416568599
 21
121.7579357238105
 31
0.0
  0
LINE
  5
209
330
1F
100
AcDbEntity
  8
0
  6
Continuous
 62
     7
370
    15
100
AcDbLine
 10
171.4908686732604
 20
96.75793572268005
 30
0.0
 11
170.5534805824398
 21
96.75793572277456
 31
0.0
  0
LINE
  5
20A
330
1F
100
AcDbEntity
  8
0
  6
Continuous
 62
     7
370
    15
100
AcDbLine
 10
163.7680027262388
 20
96.75793572345871
 30
0.0
 11
162.8306146354182
 21
96.75793572355323
 31
0.0
  0
LINE
  5
20B
330
1F
100
AcDbEntity
  8
0
  6
Continuous
 62
     8
370
     0
100
AcDbLine
 10
187.4607416568297
 20
121.457935721068
 30
0.0
 11
183.1607416568297
 21
121.4579357215016
 31
0.0
  0
LINE
  5
20C
330
1F
100
AcDbEntity
  8
0
  6
Continuous
 62
     8
370
     0
100
AcDbLine
 10
151.1607416568297
 20
121.457935724728
 30
0.0
 11
146.8607416568297
 21
121.4579357251616
 31
0.0
  0
HATCH
  5
20D
330
1F
100
AcDbEntity
  8
0
  6
Continuous
 62
     7
370
     0
100
AcDbHatch
 10
0.0
 20
0.0
 30
0.0
210
0.0
220
0.0
230
1.0
  2
LINE
 70
     0
 71
     0
 91
        1
 92
        1
 93
       35
 72
     1
 10
158.1607416546921
 20
100.2579357240222
 11
157.1607416546921
 21
100.2579357241231
 72
     1
 10
157.1607416546921
 20
100.2579357241231
 11
157.1607416542384
 21
95.75793572412306
 72
     1
 10
157.1607416542384
 20
95.75793572412306
 11
162.159259677483
 21
92.25793572361908
 72
     1
 10
162.159259677483
 20
92.25793572361908
 11
172.1622236302882
 21
92.25793572261053
 72
     1
 10
172.1622236302882
 20
92.25793572261053
 11
177.1607416542384
 21
95.75793572210654
 72
     1
 10
177.1607416542384
 20
95.75793572210654
 11
177.1607416546922
 21
100.2579357221066
 72
     1
 10
177.1607416546922
 20
100.2579357221066
 11
176.1607416546922
 21
100.2579357222074
 72
     1
 10
176.1607416546922
 20
100.2579357222074
 11
176.1607416551963
 21
105.2579357222074
 72
     1
 10
176.1607416551963
 20
105.2579357222074
 11
177.1607416551963
 21
105.2579357221066
 72
     1
 10
177.1607416551963
 20
105.2579357221066
 11
177.1607416557004
 21
110.2579357221065
 72
     1
 10
177.1607416557004
 20
110.2579357221065
 11
176.1607416557004
 21
110.2579357222074
 72
     1
 10
176.1607416557004
 20
110.2579357222074
 11
176.1607416562046
 21
115.2579357222074
 72
     1
 10
176.1607416562046
 20
115.2579357222074
 11
177.1607416562046
 21
115.2579357221066
 72
     1
 10
177.1607416562046
 20
115.2579357221066
 11
177.1607416566079
 21
119.2579357221066
 72
     1
 10
177.1607416566079
 20
119.2579357221066
 11
183.1607416566078
 21
119.2579357215016
 72
     1
 10
183.1607416566078
 20
119.2579357215016
 11
183.1607416569103
 21
122.2579357215016
 72
     1
 10
183.1607416569103
 20
122.2579357215016
 11
174.5607416569103
 21
122.2579357223687
 72
     1
 10
174.5607416569103
 20
122.2579357223687
 11
174.0607416568599
 21
121.7579357224191
 72
     1
 10
174.0607416568599
 20
121.7579357224191
 11
174.0607416543393
 21
96.75793572241912
 72
     1
 10
174.0607416543393
 20
96.75793572241912
 11
171.4908686732604
 21
96.75793572268006
 72
     1
 10
171.4908686732604
 20
96.75793572268006
 11
167.1607416540872
 21
94.25793572311724
 72
     1
 10
167.1607416540872
 20
94.25793572311724
 11
162.8306146354182
 21
96.75793572355322
 72
     1
 10
162.8306146354182
 20
96.75793572355322
 11
160.2607416543393
 21
96.7579357238105
 72
     1
 10
160.2607416543393
 20
96.7579357238105
 11
160.2607416568599
 21
121.7579357238105
 72
     1
 10
160.2607416568599
 20
121.7579357238105
 11
159.7607416569103
 21
122.2579357238609
 72
     1
 10
159.7607416569103
 20
122.2579357238609
 11
151.1607416569103
 21
122.257935724728
 72
     1
 10
151.1607416569103
 20
122.257935724728
 11
151.1607416566078
 21
119.257935724728
 72
     1
 10
151.1607416566078
 20
119.257935724728
 11
157.1607416566079
 21
119.2579357241231
 72
     1
 10
157.1607416566079
 20
119.2579357241231
 11
157.1607416562046
 21
115.2579357241231
 72
     1
 10
157.1607416562046
 20
115.2579357241231
 11
158.1607416562046
 21
115.2579357240222
 72
     1
 10
158.1607416562046
 20
115.2579357240222
 11
158.1607416557004
 21
110.2579357240222
 72
     1
 10
158.1607416557004
 20
110.2579357240222
 11
157.1607416557004
 21
110.2579357241231
 72
     1
 10
157.1607416557004
 20
110.2579357241231
 11
157.1607416551963
 21
105.2579357241231
 72
     1
 10
157.1607416551963
 20
105.2579357241231
 11
158.1607416551963
 21
105.2579357240222
 72
     1
 10
158.1607416551963
 20
105.2579357240222
 11
158.1607416546921
 21
100.2579357240222
 97
        0
 75
     0
 76
     1
 52
315.0
 41
0.5
 77
     0
 78
     1
 53
315.0
 43
0.0
 44
0.0
 45
1.122532015133644
 46
1.122532015133644
 79
     0
 98
        0
1001
ACAD
1010
0.0
1020
0.0
1030
0.0
  0
HATCH
  5
20E
330
1F
100
AcDbEntity
  8
0
  6
Continuous
 62
     7
370
     0
100
AcDbHatch
 10
0.0
 20
0.0
 30
0.0
210
0.0
220
0.0
230
1.0
  2
LINE
 70
     0
 71
     0
 91
        1
 92
        0
 93
        8
 72
     1
 10
160.4107416570313
 20
123.4579357237954
 11
160.4107416551156
 21
104.4579357237954
 72
     1
 10
160.4107416551156
 20
104.4579357237954
 11
161.4107416550148
 21
103.4579357236945
 72
     1
 10
161.4107416550148
 20
103.4579357236945
 11
162.7607416550148
 21
103.4579357235584
 72
     1
 10
162.7607416550148
 20
103.4579357235584
 11
163.7607416551157
 21
104.4579357234576
 72
     1
 10
163.7607416551157
 20
104.4579357234576
 11
163.7607416588462
 21
141.4579357234576
 72
     1
 10
163.7607416588462
 20
141.4579357234576
 11
156.4107416588462
 21
141.4579357241987
 72
     1
 10
156.4107416588462
 20
141.4579357241987
 11
155.6607416570313
 21
123.4579357242743
 72
     1
 10
155.6607416570313
 20
123.4579357242743
 11
160.4107416570313
 21
123.4579357237954
 97
        0
 75
     0
 76
     1
 52
45.0000000000001
 41
1.0
 77
     0
 78
     1
 53
45.0000000000001
 43
0.0
 44
0.0
 45
-2.245064030267292
 46
2.245064030267284
 79
     0
 98
        1
 10
0.0
 20
0.0
  0
HATCH
  5
20F
330
1F
100
AcDbEntity
  8
0
  6
Continuous
 62
     7
370
     0
100
AcDbHatch
 10
0.0
 20
0.0
 30
0.0
210
0.0
220
0.0
230
1.0
  2
LINE
 70
     0
 71
     0
 91
        1
 92
        0
 93
        8
 72
     1
 10
171.5607416550148
 20
103.4579357226712
 11
172.9107416550148
 21
103.457935722535
 72
     1
 10
172.9107416550148
 20
103.457935722535
 11
173.9107416551156
 21
104.4579357224342
 72
     1
 10
173.9107416551156
 20
104.4579357224342
 11
173.9107416570313
 21
123.4579357224342
 72
     1
 10
173.9107416570313
 20
123.4579357224342
 11
178.6607416570313
 21
123.4579357219553
 72
     1
 10
178.6607416570313
 20
123.4579357219553
 11
177.9107416588462
 21
141.4579357220309
 72
     1
 10
177.9107416588462
 20
141.4579357220309
 11
170.5607416588462
 21
141.457935722772
 72
     1
 10
170.5607416588462
 20
141.457935722772
 11
170.5607416551156
 21
104.457935722772
 72
     1
 10
170.5607416551156
 20
104.457935722772
 11
171.5607416550148
 21
103.4579357226712
 97
        0
 75
     0
 76
     1
 52
45.0000000000001
 41
1.0
 77
     0
 78
     1
 53
45.0000000000001
 43
0.0
 44
0.0
 45
-2.245064030267292
 46
2.245064030267284
 79
     0
 98
        1
 10
0.0
 20
0.0
  0
HATCH
  5
211
330
1F
100
AcDbEntity
  8
0
  6
Continuous
 62
     7
370
     0
100
AcDbHatch
 10
0.0
 20
0.0
 30
0.0
210
0.0
220
0.0
230
1.0
  2
ANSI31
 70
     0
 71
     0
 91
        1
 92
        1
 93
       12
 72
     1
 10
171.1607416550066
 20
103.3767378762311
 11
171.1607416574265
 21
127.376737876231
 72
     1
 10
171.1607416574265
 20
127.376737876231
 11
170.6607416574768
 21
127.8767378762815
 72
     1
 10
170.6607416574768
 20
127.8767378762815
 11
169.184848565479
 21
127.8767378764303
 72
     1
 10
169.184848565479
 20
127.8767378764303
 11
169.1848485649749
 21
122.8767378764303
 72
     1
 10
169.1848485649749
 20
122.8767378764303
 11
165.1366347489706
 21
122.8767378768384
 72
     1
 10
165.1366347489706
 20
122.8767378768384
 11
165.1366347494747
 21
127.8767378768384
 72
     1
 10
165.1366347494747
 20
127.8767378768384
 11
163.6607416574768
 21
127.8767378769872
 72
     1
 10
163.6607416574768
 20
127.8767378769872
 11
163.1607416574265
 21
127.3767378770377
 72
     1
 10
163.1607416574265
 20
127.3767378770377
 11
163.1607416550066
 21
103.3767378770377
 72
     1
 10
163.1607416550066
 20
103.3767378770377
 11
163.6607416549562
 21
102.8767378769872
 72
     1
 10
163.6607416549562
 20
102.8767378769872
 11
170.6607416549562
 21
102.8767378762815
 72
     1
 10
170.6607416549562
 20
102.8767378762815
 11
171.1607416550066
 21
103.3767378762311
 97
        0
 75
     0
 76
     1
 52
89.99999999999999
 41
0.5
 77
     0
 78
     1
 53
135.0
 43
0.0
 44
0.0
 45
-1.122532015133644
 46
-1.122532015133644
 79
     0
 98
        0
1001
ACAD
1010
0.0
1020
0.0
1030
0.0
  0
HATCH
  5
212
330
1F
100
AcDbEntity
  8
0
  6
Continuous
 62
     7
370
     0
100
AcDbHatch
 10
0.0
 20
0.0
 30
0.0
210
0.0
220
0.0
230
1.0
  2
ANSI31
 70
     0
 71
     0
 91
        1
 92
        1
 93
       12
 72
     1
 10
171.1607416575272
 20
128.3767378762311
 11
171.1607416584346
 21
137.3767378762311
 72
     1
 10
171.1607416584346
 20
137.3767378762311
 11
170.6607416584851
 21
137.8767378762815
 72
     1
 10
170.6607416584851
 20
137.8767378762815
 11
169.1720939049409
 21
137.8767378764316
 72
     1
 10
169.1720939049409
 20
137.8767378764316
 11
169.1720939044367
 21
132.8767378764315
 72
     1
 10
169.1720939044367
 20
132.8767378764315
 11
165.1493894115252
 21
132.8767378768372
 72
     1
 10
165.1493894115252
 20
132.8767378768372
 11
165.1493894120293
 21
137.8767378768371
 72
     1
 10
165.1493894120293
 20
137.8767378768371
 11
163.6607416584852
 21
137.8767378769872
 72
     1
 10
163.6607416584852
 20
137.8767378769872
 11
163.1607416584347
 21
137.3767378770376
 72
     1
 10
163.1607416584347
 20
137.3767378770376
 11
163.1607416575273
 21
128.3767378770377
 72
     1
 10
163.1607416575273
 20
128.3767378770377
 11
163.6607416574769
 21
127.8767378769872
 72
     1
 10
163.6607416574769
 20
127.8767378769872
 11
170.6607416574768
 21
127.8767378762815
 72
     1
 10
170.6607416574768
 20
127.8767378762815
 11
171.1607416575272
 21
128.3767378762311
 97
        0
 75
     0
 76
     1
 52
0.0
 41
0.5
 77
     0
 78
     1
 53
45.0
 43
0.0
 44
0.0
 45
-1.122532015133644
 46
1.122532015133644
 79
     0
 98
        0
1001
ACAD
1010
0.0
1020
0.0
1030
0.0
  0
HATCH
  5
213
330
1F
100
AcDbEntity
  8
0
  6
Continuous
 62
     7
370
     0
100
AcDbHatch
 10
0.0
 20
0.0
 30
0.0
210
0.0
220
0.0
230
1.0
  2
LINE
 70
     0
 71
     0
 91
        1
 92
        1
 93
        8
 72
     1
 10
160.4107416570313
 20
123.4579357237954
 11
147.6607416570313
 21
123.4579357250809
 72
     2
 10
147.6607416568297
 20
121.4579357250809
 40
1.999999999999998
 50
89.99999999422309
 51
179.9999999942235
 73
     1
 72
     1
 10
145.6607416568297
 20
121.4579357252825
 11
145.6607416564768
 21
117.9579357252825
 72
     1
 10
145.6607416564768
 20
117.9579357252825
 11
146.8607416564768
 21
117.9579357251616
 72
     1
 10
146.8607416564768
 20
117.9579357251616
 11
146.8607416568297
 21
121.4579357251616
 72
     2
 10
147.6607416568297
 20
121.4579357250809
 40
0.7999999999999986
 50
180.0000000057777
 51
270.0000000057777
 73
     0
 72
     1
 10
147.6607416569103
 20
122.2579357250809
 11
160.4107416569103
 21
122.2579357237954
 72
     1
 10
160.4107416569103
 20
122.2579357237954
 11
160.4107416570313
 21
123.4579357237954
 97
        0
 75
     0
 76
     1
 52
135.0000000000003
 41
0.25
 77
     0
 78
     1
 53
135.0000000000003
 43
0.0
 44
0.0
 45
-0.5612660075668191
 46
-0.561266007566825
 79
     0
 98
        0
1001
ACAD
1010
0.0
1020
0.0
1030
0.0
  0
HATCH
  5
214
330
1F
100
AcDbEntity
  8
0
  6
Continuous
 62
     7
370
     0
100
AcDbHatch
 10
0.0
 20
0.0
 30
0.0
210
0.0
220
0.0
230
1.0
  2
LINE
 70
     0
 71
     0
 91
        1
 92
        1
 93
        8
 72
     1
 10
188.6607416564768
 20
117.957935720947
 11
188.6607416568297
 21
121.457935720947
 72
     2
 10
186.6607416568297
 20
121.4579357211487
 40
1.999999999999998
 50
359.9999999942239
 51
449.9999999942239
 73
     1
 72
     1
 10
186.6607416570313
 20
123.4579357211487
 11
173.9107416570313
 21
123.4579357224342
 72
     1
 10
173.9107416570313
 20
123.4579357224342
 11
173.9107416569103
 21
122.2579357224342
 72
     1
 10
173.9107416569103
 20
122.2579357224342
 11
186.6607416569103
 21
122.2579357211487
 72
     2
 10
186.6607416568297
 20
121.4579357211487
 40
0.7999999999999986
 50
270.0000000057777
 51
360.0000000057777
 73
     0
 72
     1
 10
187.4607416568297
 20
121.457935721068
 11
187.4607416564768
 21
117.957935721068
 72
     1
 10
187.4607416564768
 20
117.957935721068
 11
188.6607416564768
 21
117.957935720947
 97
        0
 75
     0
 76
     1
 52
135.0000000000003
 41
0.25
 77
     0
 78
     1
 53
135.0000000000003
 43
0.0
 44
0.0
 45
-0.5612660075668191
 46
-0.561266007566825
 79
     0
 98
        0
1001
ACAD
1010
0.0
1020
0.0
1030
0.0
  0
MTEXT
  5
215
330
1F
100
AcDbEntity
  8
0
  6
Continuous
 62
     7
370
     0
100
AcDbMText
 10
167.1510196694164
 20
85.57397827925813
 30
0.0
 40
3.5
 41
0.0
 46
3.5
 71
     2
 72
     1
  1
{SEZIONE A-A}
  7
SLDTEXTSTYLE0
 73
     1
 44
1.0
1001
ACAD
1000
ACAD_MTEXT_DEFINED_HEIGHT_BEGIN
1070
    46
1040
3.5
1000
ACAD_MTEXT_DEFINED_HEIGHT_END
  0
MTEXT
  5
262
330
1F
100
AcDbEntity
  8
0
  6
Continuous
 62
     7
370
     0
100
AcDbMText
 10
207.2879535016712
 20
195.850564872702
 30
0.0
 40
19.05
 41
0.0
 46
19.05
 71
     1
 72
     1
  1
{1735}
  7
SLDTEXTSTYLE0
 73
     1
 44
1.0
1001
ACAD
1000
ACAD_MTEXT_DEFINED_HEIGHT_BEGIN
1070
    46
1040
19.05
1000
ACAD_MTEXT_DEFINED_HEIGHT_END
  0
ENDSEC
  0
SECTION
  2
OBJECTS
  0
DICTIONARY
  5
C
330
0
100
AcDbDictionary
281
     1
  3
ACAD_DETAILVIEWSTYLE
350
268
  3
ACAD_GROUP
350
D
  3
ACAD_IMAGE_VARS
350
239
  3
ACAD_LAYOUT
350
1A
  3
ACAD_MATERIAL
350
22F
  3
ACAD_MLEADERSTYLE
350
235
  3
ACAD_MLINESTYLE
350
17
  3
ACAD_PLOTSETTINGS
350
19
  3
ACAD_PLOTSTYLENAME
350
E
  3
ACAD_SCALELIST
350
47
  3
ACAD_SECTIONVIEWSTYLE
350
269
  3
ACAD_TABLESTYLE
350
233
  3
ACAD_VISUALSTYLE
350
216
  3
ACDB_RECOMPOSE_DATA
350
270
  3
AcDbVariableDictionary
350
263
  3
APPDATA
350
237
  0
SUN
  5
238
330
29
100
AcDbSun
 90
        1
290
     0
 63
     7
421
 16777215
 40
1.0
291
     1
 91
  2455826
 92
 54000000
292
     0
 70
     2
 71
   256
280
     1
  0
DICTIONARY
  5
268
102
{ACAD_REACTORS
330
C
102
}
330
C
100
AcDbDictionary
281
     1
  0
DICTIONARY
  5
D
102
{ACAD_REACTORS
330
C
102
}
330
C
100
AcDbDictionary
281
     1
  0
RASTERVARIABLES
  5
239
102
{ACAD_REACTORS
330
C
102
}
330
C
100
AcDbRasterVariables
 90
        0
 70
     1
 71
     1
 72
     1
  0
DICTIONARY
  5
1A
102
{ACAD_REACTORS
330
C
102
}
330
C
100
AcDbDictionary
281
     1
  3
Layout1
350
1E
  3
Layout2
350
26
  3
Model
350
22
  0
DICTIONARY
  5
22F
102
{ACAD_REACTORS
330
C
102
}
330
C
100
AcDbDictionary
281
     1
  3
ByBlock
350
231
  3
ByLayer
350
230
  3
Global
350
232
  0
DICTIONARY
  5
235
102
{ACAD_REACTORS
330
C
102
}
330
C
100
AcDbDictionary
281
     1
  3
Standard
350
236
  0
DICTIONARY
  5
17
102
{ACAD_REACTORS
330
C
102
}
330
C
100
AcDbDictionary
281
     1
  3
Standard
350
18
  0
DICTIONARY
  5
19
102
{ACAD_REACTORS
330
C
102
}
330
C
100
AcDbDictionary
281
     1
  0
ACDBDICTIONARYWDFLT
  5
E
102
{ACAD_REACTORS
330
C
102
}
330
C
100
AcDbDictionary
281
     1
  3
Normal
350
F
100
AcDbDictionaryWithDefault
340
F
  0
DICTIONARY
  5
47
102
{ACAD_REACTORS
330
C
102
}
330
C
100
AcDbDictionary
281
     1
  3
A0
350
48
  3
A1
350
49
  3
A2
350
4A
  3
A3
350
4B
  3
A4
350
4C
  3
A5
350
4D
  3
A6
350
4E
  3
A7
350
4F
  3
A8
350
50
  3
A9
350
51
  3
B0
350
52
  3
B1
350
53
  3
B2
350
54
  3
B3
350
55
  3
B4
350
56
  3
B5
350
57
  3
B6
350
58
  3
B7
350
59
  3
B8
350
5A
  3
B9
350
5B
  3
C0
350
5C
  3
C1
350
5D
  3
C2
350
5E
  3
C3
350
5F
  3
C4
350
60
  3
C5
350
61
  3
C6
350
62
  3
C7
350
63
  3
C8
350
64
  3
C9
350
65
  3
D0
350
66
  3
D1
350
67
  3
D2
350
68
  0
DICTIONARY
  5
269
102
{ACAD_REACTORS
330
C
102
}
330
C
100
AcDbDictionary
281
     1
  0
DICTIONARY
  5
233
102
{ACAD_REACTORS
330
C
102
}
330
C
100
AcDbDictionary
281
     1
  3
Standard
350
234
  0
DICTIONARY
  5
216
102
{ACAD_REACTORS
330
C
102
}
330
C
100
AcDbDictionary
281
     1
  3
2dWireframe
350
21B
  3
Basic
350
21E
  3
Brighten
350
222
  3
ColorChange
350
226
  3
Conceptual
350
220
  3
Dim
350
221
  3
EdgeColorOff
350
229
  3
Facepattern
350
225
  3
Flat
350
217
  3
FlatWithEdges
350
218
  3
Gouraud
350
219
  3
GouraudWithEdges
350
21A
  3
Hidden
350
21D
  3
JitterOff
350
227
  3
Linepattern
350
224
  3
OverhangOff
350
228
  3
Realistic
350
21F
  3
Shaded
350
22E
  3
Shaded with edges
350
22D
  3
Shades of Gray
350
22A
  3
Sketchy
350
22B
  3
Thicken
350
223
  3
Wireframe
350
21C
  3
X-Ray
350
22C
  0
XRECORD
  5
270
102
{ACAD_REACTORS
330
C
102
}
330
C
100
AcDbXrecord
280
     1
 90
        1
330
234
  0
DICTIONARY
  5
263
102
{ACAD_REACTORS
330
C
102
}
330
C
100
AcDbDictionary
281
     1
  3
CANNOSCALE
350
264
  3
CMLEADERSTYLE
350
266
  3
CTABLESTYLE
350
265
  3
MSLTSCALE
350
267
  0
DICTIONARY
  5
237
102
{ACAD_REACTORS
330
C
102
}
330
C
100
AcDbDictionary
281
     1
  0
LAYOUT
  5
1E
102
{ACAD_REACTORS
330
1A
102
}
330
1A
100
AcDbPlotSettings
  1

  2
none_device
  4

  6

 40
0.0
 41
0.0
 42
0.0
 43
0.0
 44
0.0
 45
0.0
 46
0.0
 47
0.0
 48
0.0
 49
0.0
140
0.0
141
0.0
142
1.0
143
1.0
 70
   688
 72
     1
 73
     0
 74
     5
  7

 75
    16
 76
     0
 77
     2
 78
   300
147
1.0
148
0.0
149
0.0
100
AcDbLayout
  1
Layout1
 70
     1
 71
     1
 10
0.0
 20
0.0
 11
420.0
 21
297.0
 12
0.0
 22
0.0
 32
0.0
 14
1.000000000000000E+20
 24
1.000000000000000E+20
 34
1.000000000000000E+20
 15
-1.000000000000000E+20
 25
-1.000000000000000E+20
 35
-1.000000000000000E+20
146
0.0
 13
0.0
 23
0.0
 33
0.0
 16
1.0
 26
0.0
 36
0.0
 17
0.0
 27
1.0
 37
0.0
 76
     0
330
1B
  0
LAYOUT
  5
26
102
{ACAD_REACTORS
330
1A
102
}
330
1A
100
AcDbPlotSettings
  1

  2
none_device
  4

  6

 40
0.0
 41
0.0
 42
0.0
 43
0.0
 44
0.0
 45
0.0
 46
0.0
 47
0.0
 48
0.0
 49
0.0
140
0.0
141
0.0
142
1.0
143
1.0
 70
   688
 72
     1
 73
     0
 74
     5
  7

 75
    16
 76
     0
 77
     2
 78
   300
147
1.0
148
0.0
149
0.0
100
AcDbLayout
  1
Layout2
 70
     1
 71
     2
 10
0.0
 20
0.0
 11
0.0
 21
0.0
 12
0.0
 22
0.0
 32
0.0
 14
0.0
 24
0.0
 34
0.0
 15
0.0
 25
0.0
 35
0.0
146
0.0
 13
0.0
 23
0.0
 33
0.0
 16
1.0
 26
0.0
 36
0.0
 17
0.0
 27
1.0
 37
0.0
 76
     0
330
23
  0
LAYOUT
  5
22
102
{ACAD_REACTORS
330
1A
102
}
330
1A
100
AcDbPlotSettings
  1

  2
none_device
  4
Letter_(8.50_x_11.00_Inches)
  6

 40
6.35
 41
6.35
 42
6.35000508
 43
6.35000508
 44
215.9
 45
279.4
 46
0.0
 47
0.0
 48
0.0
 49
0.0
140
0.0
141
0.0
142
1.0
143
1.0
 70
  1712
 72
     1
 73
     0
 74
     0
  7

 75
     0
 76
     0
 77
     2
 78
   300
147
1.0
148
0.0
149
0.0
100
AcDbLayout
  1
Model
 70
     1
 71
     0
 10
0.0
 20
0.0
 11
210.0
 21
297.0
 12
0.0
 22
0.0
 32
0.0
 14
22.08818294190351
 24
34.69504326282416
 34
0.0
 15
254.9129535016712
 25
277.8830239076281
 35
0.0
146
0.0
 13
0.0
 23
0.0
 33
0.0
 16
1.0
 26
0.0
 36
0.0
 17
0.0
 27
1.0
 37
0.0
 76
     0
330
1F
331
29
  0
MATERIAL
  5
231
102
{ACAD_REACTORS
330
22F
102
}
330
22F
100
AcDbMaterial
  1
ByBlock
 72
     1
 94
      127
  0
MATERIAL
  5
230
102
{ACAD_REACTORS
330
22F
102
}
330
22F
100
AcDbMaterial
  1
ByLayer
 72
     1
 94
      127
  0
MATERIAL
  5
232
102
{ACAD_REACTORS
330
22F
102
}
330
22F
100
AcDbMaterial
  1
Global
 72
     1
 94
      127
  0
MLEADERSTYLE
  5
236
102
{ACAD_REACTORS
330
235
102
}
330
235
100
AcDbMLeaderStyle
179
     2
170
     2
171
     1
172
     0
 90
        2
 40
0.0
 41
0.0
173
     1
 91
-1056964608
340
14
 92
       -2
290
     1
 42
2.0
291
     1
 43
8.0
  3
Standard
341
0
 44
4.0
300

342
11
174
     1
178
     1
175
     1
176
     0
 93
-1056964608
 45
4.0
292
     0
297
     0
 46
4.0
343
0
 94
-1056964608
 47
1.0
 49
1.0
140
1.0
293
     1
141
0.0
294
     1
177
     0
142
1.0
295
     0
296
     0
143
3.75
271
     0
272
     9
273
     9
298
     0
  0
MLINESTYLE
  5
18
102
{ACAD_REACTORS
330
17
102
}
330
17
100
AcDbMlineStyle
  2
Standard
 70
     0
  3

 62
   256
 51
90.0
 52
90.0
 71
     2
 49
0.5
 62
   256
  6
BYLAYER
 49
-0.5
 62
   256
  6
BYLAYER
  0
ACDBPLACEHOLDER
  5
F
102
{ACAD_REACTORS
330
E
102
}
330
E
  0
SCALE
  5
48
102
{ACAD_REACTORS
330
47
102
}
330
47
100
AcDbScale
 70
     0
300
1:1
140
1.0
141
1.0
290
     1
  0
SCALE
  5
49
102
{ACAD_REACTORS
330
47
102
}
330
47
100
AcDbScale
 70
     0
300
1:2
140
1.0
141
2.0
290
     0
  0
SCALE
  5
4A
102
{ACAD_REACTORS
330
47
102
}
330
47
100
AcDbScale
 70
     0
300
1:4
140
1.0
141
4.0
290
     0
  0
SCALE
  5
4B
102
{ACAD_REACTORS
330
47
102
}
330
47
100
AcDbScale
 70
     0
300
1:5
140
1.0
141
5.0
290
     0
  0
SCALE
  5
4C
102
{ACAD_REACTORS
330
47
102
}
330
47
100
AcDbScale
 70
     0
300
1:8
140
1.0
141
8.0
290
     0
  0
SCALE
  5
4D
102
{ACAD_REACTORS
330
47
102
}
330
47
100
AcDbScale
 70
     0
300
1:10
140
1.0
141
10.0
290
     0
  0
SCALE
  5
4E
102
{ACAD_REACTORS
330
47
102
}
330
47
100
AcDbScale
 70
     0
300
1:16
140
1.0
141
16.0
290
     0
  0
SCALE
  5
4F
102
{ACAD_REACTORS
330
47
102
}
330
47
100
AcDbScale
 70
     0
300
1:20
140
1.0
141
20.0
290
     0
  0
SCALE
  5
50
102
{ACAD_REACTORS
330
47
102
}
330
47
100
AcDbScale
 70
     0
300
1:30
140
1.0
141
30.0
290
     0
  0
SCALE
  5
51
102
{ACAD_REACTORS
330
47
102
}
330
47
100
AcDbScale
 70
     0
300
1:40
140
1.0
141
40.0
290
     0
  0
SCALE
  5
52
102
{ACAD_REACTORS
330
47
102
}
330
47
100
AcDbScale
 70
     0
300
1:50
140
1.0
141
50.0
290
     0
  0
SCALE
  5
53
102
{ACAD_REACTORS
330
47
102
}
330
47
100
AcDbScale
 70
     0
300
1:100
140
1.0
141
100.0
290
     0
  0
SCALE
  5
54
102
{ACAD_REACTORS
330
47
102
}
330
47
100
AcDbScale
 70
     0
300
2:1
140
2.0
141
1.0
290
     0
  0
SCALE
  5
55
102
{ACAD_REACTORS
330
47
102
}
330
47
100
AcDbScale
 70
     0
300
4:1
140
4.0
141
1.0
290
     0
  0
SCALE
  5
56
102
{ACAD_REACTORS
330
47
102
}
330
47
100
AcDbScale
 70
     0
300
8:1
140
8.0
141
1.0
290
     0
  0
SCALE
  5
57
102
{ACAD_REACTORS
330
47
102
}
330
47
100
AcDbScale
 70
     0
300
10:1
140
10.0
141
1.0
290
     0
  0
SCALE
  5
58
102
{ACAD_REACTORS
330
47
102
}
330
47
100
AcDbScale
 70
     0
300
100:1
140
100.0
141
1.0
290
     0
  0
SCALE
  5
59
102
{ACAD_REACTORS
330
47
102
}
330
47
100
AcDbScale
 70
     0
300
1/128" = 1'-0"
140
0.0078125
141
12.0
290
     0
  0
SCALE
  5
5A
102
{ACAD_REACTORS
330
47
102
}
330
47
100
AcDbScale
 70
     0
300
1/64" = 1'-0"
140
0.015625
141
12.0
290
     0
  0
SCALE
  5
5B
102
{ACAD_REACTORS
330
47
102
}
330
47
100
AcDbScale
 70
     0
300
1/32" = 1'-0"
140
0.03125
141
12.0
290
     0
  0
SCALE
  5
5C
102
{ACAD_REACTORS
330
47
102
}
330
47
100
AcDbScale
 70
     0
300
1/16" = 1'-0"
140
0.0625
141
12.0
290
     0
  0
SCALE
  5
5D
102
{ACAD_REACTORS
330
47
102
}
330
47
100
AcDbScale
 70
     0
300
3/32" = 1'-0"
140
0.09375
141
12.0
290
     0
  0
SCALE
  5
5E
102
{ACAD_REACTORS
330
47
102
}
330
47
100
AcDbScale
 70
     0
300
1/8" = 1'-0"
140
0.125
141
12.0
290
     0
  0
SCALE
  5
5F
102
{ACAD_REACTORS
330
47
102
}
330
47
100
AcDbScale
 70
     0
300
3/16" = 1'-0"
140
0.1875
141
12.0
290
     0
  0
SCALE
  5
60
102
{ACAD_REACTORS
330
47
102
}
330
47
100
AcDbScale
 70
     0
300
1/4" = 1'-0"
140
0.25
141
12.0
290
     0
  0
SCALE
  5
61
102
{ACAD_REACTORS
330
47
102
}
330
47
100
AcDbScale
 70
     0
300
3/8" = 1'-0"
140
0.375
141
12.0
290
     0
  0
SCALE
  5
62
102
{ACAD_REACTORS
330
47
102
}
330
47
100
AcDbScale
 70
     0
300
1/2" = 1'-0"
140
0.5
141
12.0
290
     0
  0
SCALE
  5
63
102
{ACAD_REACTORS
330
47
102
}
330
47
100
AcDbScale
 70
     0
300
3/4" = 1'-0"
140
0.75
141
12.0
290
     0
  0
SCALE
  5
64
102
{ACAD_REACTORS
330
47
102
}
330
47
100
AcDbScale
 70
     0
300
1" = 1'-0"
140
1.0
141
12.0
290
     0
  0
SCALE
  5
65
102
{ACAD_REACTORS
330
47
102
}
330
47
100
AcDbScale
 70
     0
300
1-1/2" = 1'-0"
140
1.5
141
12.0
290
     0
  0
SCALE
  5
66
102
{ACAD_REACTORS
330
47
102
}
330
47
100
AcDbScale
 70
     0
300
3" = 1'-0"
140
3.0
141
12.0
290
     0
  0
SCALE
  5
67
102
{ACAD_REACTORS
330
47
102
}
330
47
100
AcDbScale
 70
     0
300
6" = 1'-0"
140
6.0
141
12.0
290
     0
  0
SCALE
  5
68
102
{ACAD_REACTORS
330
47
102
}
330
47
100
AcDbScale
 70
     0
300
1'-0" = 1'-0"
140
12.0
141
12.0
290
     0
  0
TABLESTYLE
  5
234
102
{ACAD_REACTORS
330
233
102
}
102
{ACAD_XDICTIONARY
360
26E
102
}
330
233
100
AcDbTableStyle
  3
Standard
 70
     0
 71
     0
 40
0.06
 41
0.06
280
     0
281
     0
  7
Standard
140
4.5
170
     2
 62
     0
 63
   257
283
     0
 90
        4
 91
        0
  1

274
    -2
284
     1
 64
     0
275
    -2
285
     1
 65
     0
276
    -2
286
     1
 66
     0
277
    -2
287
     1
 67
     0
278
    -2
288
     1
 68
     0
279
    -2
289
     1
 69
     0
  7
Standard
140
6.0
170
     5
 62
     0
 63
   257
283
     0
 90
        4
 91
        0
  1

274
    -2
284
     1
 64
     0
275
    -2
285
     1
 65
     0
276
    -2
286
     1
 66
     0
277
    -2
287
     1
 67
     0
278
    -2
288
     1
 68
     0
279
    -2
289
     1
 69
     0
  7
Standard
140
4.5
170
     5
 62
     0
 63
   257
283
     0
 90
        4
 91
        0
  1

274
    -2
284
     1
 64
     0
275
    -2
285
     1
 65
     0
276
    -2
286
     1
 66
     0
277
    -2
287
     1
 67
     0
278
    -2
288
     1
 68
     0
279
    -2
289
     1
 69
     0
  0
VISUALSTYLE
  5
21B
102
{ACAD_REACTORS
330
216
102
}
330
216
100
AcDbVisualStyle
  2
2dWireframe
 70
     4
177
     3
291
     0
 70
    58
 90
        0
176
     1
 90
        2
176
     1
 90
        0
176
     1
 90
        0
176
     1
 40
0.6
176
     1
 40
30.0
176
     1
 62
     7
420
 16777215
176
     1
 90
        1
176
     1
 90
        4
176
     1
 62
     7
176
     1
 62
   257
176
     1
 90
        1
176
     1
 90
        1
176
     1
 40
1.0
176
     1
 90
        0
176
     1
 62
   257
176
     1
 40
1.0
176
     1
 90
        1
176
     1
 90
        6
176
     1
 90
        2
176
     1
 62
     7
176
     1
 90
        5
176
     1
 90
        0
176
     1
 90
        0
176
     1
290
     0
176
     1
 90
        1
176
     1
 40
0.0
176
     1
 90
        0
176
     1
290
     1
176
     1
290
     1
176
     1
290
     0
176
     1
290
     0
176
     1
290
     0
176
     1
290
     0
176
     1
290
     0
176
     1
290
     0
176
     1
290
     0
176
     1
 90
       50
176
     1
 40
0.0
176
     1
 40
1.0
176
     1
 90
        0
176
     1
 62
    18
420
        0
176
     1
 90
       50
176
     1
 90
        3
176
     1
 62
     5
420
      255
176
     1
290
     0
176
     1
 90
       50
176
     1
 90
       50
176
     1
 90
       50
176
     1
290
     0
176
     1
 90
       50
176
     1
 62
   256
176
     0
 40
1.0
176
     0
 90
        2
176
     1
  1
strokes_ogs.tif
176
     1
290
     0
176
     1
 40
1.0
176
     1
 40
1.0
176
     1
  0
VISUALSTYLE
  5
21E
102
{ACAD_REACTORS
330
216
102
}
330
216
100
AcDbVisualStyle
  2
Basic
 70
     7
177
     3
291
     1
 70
    58
 90
        1
176
     1
 90
        0
176
     1
 90
        1
176
     1
 90
        0
176
     1
 40
0.6
176
     1
 40
30.0
176
     1
 62
     7
420
 16777215
176
     1
 90
        0
176
     1
 90
        4
176
     1
 62
     7
176
     1
 62
   257
176
     1
 90
        1
176
     1
 90
        1
176
     1
 40
1.0
176
     1
 90
        8
176
     1
 62
     7
176
     1
 40
1.0
176
     1
 90
        1
176
     1
 90
        6
176
     1
 90
        2
176
     1
 62
     7
176
     1
 90
        5
176
     1
 90
        0
176
     1
 90
        0
176
     1
290
     0
176
     1
 90
        1
176
     1
 40
0.0
176
     1
 90
        0
176
     1
290
     0
176
     1
290
     1
176
     1
290
     1
176
     1
290
     0
176
     1
290
     0
176
     1
290
     0
176
     1
290
     0
176
     1
290
     0
176
     1
290
     0
176
     1
 90
       50
176
     1
 40
0.0
176
     1
 40
1.0
176
     1
 90
        0
176
     1
 62
    18
420
        0
176
     1
 90
       50
176
     1
 90
        3
176
     1
 62
     5
420
      255
176
     1
290
     0
176
     1
 90
       50
176
     1
 90
       50
176
     1
 90
       50
176
     1
290
     0
176
     1
 90
       50
176
     1
 62
   256
176
     0
 40
1.0
176
     0
 90
        2
176
     1
  1
strokes_ogs.tif
176
     1
290
     0
176
     1
 40
1.0
176
     1
 40
1.0
176
     1
  0
VISUALSTYLE
  5
222
102
{ACAD_REACTORS
330
216
102
}
330
216
100
AcDbVisualStyle
  2
Brighten
 70
    12
177
     3
291
     1
 70
    58
 90
        2
176
     1
 90
        2
176
     1
 90
        0
176
     1
 90
        0
176
     1
 40
0.6
176
     1
 40
30.0
176
     1
 62
     7
420
 16777215
176
     1
 90
        1
176
     1
 90
        4
176
     1
 62
     7
176
     1
 62
   257
176
     1
 90
        1
176
     1
 90
        1
176
     1
 40
1.0
176
     1
 90
        8
176
     1
 62
     7
176
     1
 40
1.0
176
     1
 90
        1
176
     1
 90
        6
176
     1
 90
        2
176
     1
 62
     7
176
     1
 90
        5
176
     1
 90
        0
176
     1
 90
        0
176
     1
290
     0
176
     1
 90
        1
176
     1
 40
50.0
176
     1
 90
        0
176
     1
290
     0
176
     1
290
     1
176
     1
290
     1
176
     1
290
     0
176
     1
290
     0
176
     1
290
     0
176
     1
290
     0
176
     1
290
     0
176
     1
290
     0
176
     1
 90
       50
176
     1
 40
0.0
176
     1
 40
1.0
176
     1
 90
        0
176
     1
 62
    18
420
        0
176
     1
 90
       50
176
     1
 90
        3
176
     1
 62
     5
420
      255
176
     1
290
     0
176
     1
 90
       50
176
     1
 90
       50
176
     1
 90
       50
176
     1
290
     0
176
     1
 90
       50
176
     1
 62
   256
176
     0
 40
1.0
176
     0
 90
        2
176
     1
  1
strokes_ogs.tif
176
     1
290
     0
176
     1
 40
1.0
176
     1
 40
1.0
176
     1
  0
VISUALSTYLE
  5
226
102
{ACAD_REACTORS
330
216
102
}
330
216
100
AcDbVisualStyle
  2
ColorChange
 70
    16
177
     3
291
     1
 70
    58
 90
        2
176
     1
 90
        2
176
     1
 90
        3
176
     1
 90
        0
176
     1
 40
0.6
176
     1
 40
30.0
176
     1
 62
     8
420
  8421504
176
     1
 90
        1
176
     1
 90
        4
176
     1
 62
     7
176
     1
 62
   257
176
     1
 90
        1
176
     1
 90
        1
176
     1
 40
1.0
176
     1
 90
        8
176
     1
 62
     8
420
  8421504
176
     1
 40
1.0
176
     1
 90
        1
176
     1
 90
        6
176
     1
 90
        2
176
     1
 62
     7
176
     1
 90
        5
176
     1
 90
        0
176
     1
 90
        0
176
     1
290
     0
176
     1
 90
        1
176
     1
 40
0.0
176
     1
 90
        0
176
     1
290
     0
176
     1
290
     1
176
     1
290
     1
176
     1
290
     0
176
     1
290
     0
176
     1
290
     0
176
     1
290
     0
176
     1
290
     0
176
     1
290
     0
176
     1
 90
       50
176
     1
 40
0.0
176
     1
 40
1.0
176
     1
 90
        0
176
     1
 62
    18
420
        0
176
     1
 90
       50
176
     1
 90
        3
176
     1
 62
     5
420
      255
176
     1
290
     0
176
     1
 90
       50
176
     1
 90
       50
176
     1
 90
       50
176
     1
290
     0
176
     1
 90
       50
176
     1
 62
   256
176
     0
 40
1.0
176
     0
 90
        2
176
     1
  1
strokes_ogs.tif
176
     1
290
     0
176
     1
 40
1.0
176
     1
 40
1.0
176
     1
  0
VISUALSTYLE
  5
220
102
{ACAD_REACTORS
330
216
102
}
330
216
100
AcDbVisualStyle
  2
Conceptual
 70
     9
177
     3
291
     0
 70
    58
 90
        3
176
     1
 90
        2
176
     1
 90
        0
176
     1
 90
        0
176
     1
 40
0.6
176
     1
 40
30.0
176
     1
 62
     7
420
 16777215
176
     1
 90
        2
176
     1
 90
        2
176
     1
 62
     7
176
     1
 62
   257
176
     1
 90
        1
176
     1
 90
        1
176
     1
 40
179.0
176
     1
 90
        8
176
     1
 62
     7
176
     1
 40
1.0
176
     1
 90
        1
176
     1
 90
        6
176
     1
 90
        2
176
     1
 62
     7
176
     1
 90
        3
176
     1
 90
        0
176
     1
 90
        0
176
     1
290
     0
176
     1
 90
        1
176
     1
 40
0.0
176
     1
 90
        0
176
     1
290
     0
176
     1
290
     1
176
     1
290
     1
176
     1
290
     0
176
     1
290
     0
176
     1
290
     0
176
     1
290
     0
176
     1
290
     0
176
     1
290
     0
176
     1
 90
       50
176
     1
 40
0.0
176
     1
 40
1.0
176
     1
 90
        0
176
     1
 62
    18
420
        0
176
     1
 90
       50
176
     1
 90
        3
176
     1
 62
     5
420
      255
176
     1
290
     0
176
     1
 90
       50
176
     1
 90
       50
176
     1
 90
       50
176
     1
290
     0
176
     1
 90
       50
176
     1
 62
   256
176
     0
 40
1.0
176
     0
 90
        2
176
     1
  1
strokes_ogs.tif
176
     1
290
     0
176
     1
 40
1.0
176
     1
 40
1.0
176
     1
  0
VISUALSTYLE
  5
221
102
{ACAD_REACTORS
330
216
102
}
330
216
100
AcDbVisualStyle
  2
Dim
 70
    11
177
     3
291
     1
 70
    58
 90
        2
176
     1
 90
        2
176
     1
 90
        0
176
     1
 90
        0
176
     1
 40
0.6
176
     1
 40
30.0
176
     1
 62
     7
420
 16777215
176
     1
 90
        1
176
     1
 90
        4
176
     1
 62
     7
176
     1
 62
   257
176
     1
 90
        1
176
     1
 90
        1
176
     1
 40
1.0
176
     1
 90
        8
176
     1
 62
     7
176
     1
 40
1.0
176
     1
 90
        1
176
     1
 90
        6
176
     1
 90
        2
176
     1
 62
     7
176
     1
 90
        5
176
     1
 90
        0
176
     1
 90
        0
176
     1
290
     0
176
     1
 90
        1
176
     1
 40
-50.0
176
     1
 90
        0
176
     1
290
     0
176
     1
290
     1
176
     1
290
     1
176
     1
290
     0
176
     1
290
     0
176
     1
290
     0
176
     1
290
     0
176
     1
290
     0
176
     1
290
     0
176
     1
 90
       50
176
     1
 40
0.0
176
     1
 40
1.0
176
     1
 90
        0
176
     1
 62
    18
420
        0
176
     1
 90
       50
176
     1
 90
        3
176
     1
 62
     5
420
      255
176
     1
290
     0
176
     1
 90
       50
176
     1
 90
       50
176
     1
 90
       50
176
     1
290
     0
176
     1
 90
       50
176
     1
 62
   256
176
     0
 40
1.0
176
     0
 90
        2
176
     1
  1
strokes_ogs.tif
176
     1
290
     0
176
     1
 40
1.0
176
     1
 40
1.0
176
     1
  0
VISUALSTYLE
  5
229
102
{ACAD_REACTORS
330
216
102
}
330
216
100
AcDbVisualStyle
  2
EdgeColorOff
 70
    22
177
     3
291
     1
 70
    58
 90
        2
176
     0
 90
        2
176
     0
 90
        0
176
     0
 90
        0
176
     0
 40
0.6
176
     0
 40
30.0
176
     0
 62
     7
420
 16777215
176
     0
 90
        1
176
     0
 90
        4
176
     0
 62
     7
176
     0
 62
   257
176
     0
 90
        1
176
     0
 90
        1
176
     0
 40
1.0
176
     0
 90
        8
176
     2
 62
     7
176
     0
 40
1.0
176
     0
 90
        1
176
     0
 90
        6
176
     0
 90
        2
176
     0
 62
     7
176
     0
 90
        5
176
     0
 90
        0
176
     0
 90
        0
176
     0
290
     0
176
     0
 90
        1
176
     0
 40
0.0
176
     0
 90
        0
176
     0
290
     0
176
     0
290
     1
176
     0
290
     1
176
     0
290
     0
176
     0
290
     0
176
     0
290
     0
176
     0
290
     0
176
     0
290
     0
176
     0
290
     0
176
     0
 90
       50
176
     0
 40
0.0
176
     0
 40
1.0
176
     0
 90
        0
176
     0
 62
    18
420
        0
176
     0
 90
       50
176
     0
 90
        3
176
     0
 62
     5
420
      255
176
     0
290
     0
176
     0
 90
       50
176
     0
 90
       50
176
     0
 90
       50
176
     0
290
     0
176
     0
 90
       50
176
     0
 62
   256
176
     0
 40
1.0
176
     0
 90
        2
176
     0
  1
strokes_ogs.tif
176
     0
290
     0
176
     0
 40
1.0
176
     0
 40
1.0
176
     0
  0
VISUALSTYLE
  5
225
102
{ACAD_REACTORS
330
216
102
}
330
216
100
AcDbVisualStyle
  2
Facepattern
 70
    15
177
     3
291
     1
 70
    58
 90
        2
176
     1
 90
        2
176
     1
 90
        0
176
     1
 90
        0
176
     1
 40
0.6
176
     1
 40
30.0
176
     1
 62
     7
420
 16777215
176
     1
 90
        1
176
     1
 90
        4
176
     1
 62
     7
176
     1
 62
   257
176
     1
 90
        1
176
     1
 90
        1
176
     1
 40
1.0
176
     1
 90
        8
176
     1
 62
     7
176
     1
 40
1.0
176
     1
 90
        1
176
     1
 90
        6
176
     1
 90
        2
176
     1
 62
     7
176
     1
 90
        5
176
     1
 90
        0
176
     1
 90
        0
176
     1
290
     0
176
     1
 90
        1
176
     1
 40
0.0
176
     1
 90
        0
176
     1
290
     0
176
     1
290
     1
176
     1
290
     1
176
     1
290
     0
176
     1
290
     0
176
     1
290
     0
176
     1
290
     0
176
     1
290
     0
176
     1
290
     0
176
     1
 90
       50
176
     1
 40
0.0
176
     1
 40
1.0
176
     1
 90
        0
176
     1
 62
    18
420
        0
176
     1
 90
       50
176
     1
 90
        3
176
     1
 62
     5
420
      255
176
     1
290
     0
176
     1
 90
       50
176
     1
 90
       50
176
     1
 90
       50
176
     1
290
     0
176
     1
 90
       50
176
     1
 62
   256
176
     0
 40
1.0
176
     0
 90
        2
176
     1
  1
strokes_ogs.tif
176
     1
290
     0
176
     1
 40
1.0
176
     1
 40
1.0
176
     1
  0
VISUALSTYLE
  5
217
102
{ACAD_REACTORS
330
216
102
}
330
216
100
AcDbVisualStyle
  2
Flat
 70
     0
177
     3
291
     1
 70
    58
 90
        2
176
     1
 90
        1
176
     1
 90
        1
176
     1
 90
        2
176
     1
 40
0.6
176
     1
 40
30.0
176
     1
 62
     7
420
 16777215
176
     1
 90
        0
176
     1
 90
        0
176
     1
 62
     7
176
     1
 62
   257
176
     1
 90
        1
176
     1
 90
        1
176
     1
 40
1.0
176
     1
 90
        8
176
     1
 62
     7
176
     1
 40
1.0
176
     1
 90
        1
176
     1
 90
        6
176
     1
 90
        2
176
     1
 62
     7
176
     1
 90
        5
176
     1
 90
        0
176
     1
 90
        0
176
     1
290
     0
176
     1
 90
       13
176
     1
 40
0.0
176
     1
 90
        0
176
     1
290
     0
176
     1
290
     1
176
     1
290
     1
176
     1
290
     0
176
     1
290
     0
176
     1
290
     0
176
     1
290
     0
176
     1
290
     0
176
     1
290
     0
176
     1
 90
       50
176
     1
 40
0.0
176
     1
 40
1.0
176
     1
 90
        0
176
     1
 62
    18
420
        0
176
     1
 90
       50
176
     1
 90
        3
176
     1
 62
     5
420
      255
176
     1
290
     0
176
     1
 90
       50
176
     1
 90
       50
176
     1
 90
       50
176
     1
290
     0
176
     1
 90
       50
176
     1
 62
   256
176
     0
 40
1.0
176
     0
 90
        2
176
     1
  1
strokes_ogs.tif
176
     1
290
     0
176
     1
 40
1.0
176
     1
 40
1.0
176
     1
  0
VISUALSTYLE
  5
218
102
{ACAD_REACTORS
330
216
102
}
330
216
100
AcDbVisualStyle
  2
FlatWithEdges
 70
     1
177
     3
291
     1
 70
    58
 90
        2
176
     1
 90
        1
176
     1
 90
        1
176
     1
 90
        2
176
     1
 40
0.6
176
     1
 40
30.0
176
     1
 62
     7
420
 16777215
176
     1
 90
        1
176
     1
 90
        0
176
     1
 62
     7
176
     1
 62
   257
176
     1
 90
        1
176
     1
 90
        1
176
     1
 40
1.0
176
     1
 90
        0
176
     1
 62
   257
176
     1
 40
1.0
176
     1
 90
        1
176
     1
 90
        6
176
     1
 90
        2
176
     1
 62
     7
176
     1
 90
        5
176
     1
 90
        0
176
     1
 90
        0
176
     1
290
     0
176
     1
 90
       13
176
     1
 40
0.0
176
     1
 90
        0
176
     1
290
     0
176
     1
290
     1
176
     1
290
     1
176
     1
290
     0
176
     1
290
     0
176
     1
290
     0
176
     1
290
     0
176
     1
290
     0
176
     1
290
     0
176
     1
 90
       50
176
     1
 40
0.0
176
     1
 40
1.0
176
     1
 90
        0
176
     1
 62
    18
420
        0
176
     1
 90
       50
176
     1
 90
        3
176
     1
 62
     5
420
      255
176
     1
290
     0
176
     1
 90
       50
176
     1
 90
       50
176
     1
 90
       50
176
     1
290
     0
176
     1
 90
       50
176
     1
 62
   256
176
     0
 40
1.0
176
     0
 90
        2
176
     1
  1
strokes_ogs.tif
176
     1
290
     0
176
     1
 40
1.0
176
     1
 40
1.0
176
     1
  0
VISUALSTYLE
  5
219
102
{ACAD_REACTORS
330
216
102
}
330
216
100
AcDbVisualStyle
  2
Gouraud
 70
     2
177
     3
291
     1
 70
    58
 90
        2
176
     1
 90
        2
176
     1
 90
        1
176
     1
 90
        2
176
     1
 40
0.6
176
     1
 40
30.0
176
     1
 62
     7
420
 16777215
176
     1
 90
        0
176
     1
 90
        0
176
     1
 62
     7
176
     1
 62
   257
176
     1
 90
        1
176
     1
 90
        1
176
     1
 40
1.0
176
     1
 90
        0
176
     1
 62
     7
176
     1
 40
1.0
176
     1
 90
        1
176
     1
 90
        6
176
     1
 90
        2
176
     1
 62
     7
176
     1
 90
        5
176
     1
 90
        0
176
     1
 90
        0
176
     1
290
     0
176
     1
 90
       13
176
     1
 40
0.0
176
     1
 90
        0
176
     1
290
     0
176
     1
290
     1
176
     1
290
     1
176
     1
290
     0
176
     1
290
     0
176
     1
290
     0
176
     1
290
     0
176
     1
290
     0
176
     1
290
     0
176
     1
 90
       50
176
     1
 40
0.0
176
     1
 40
1.0
176
     1
 90
        0
176
     1
 62
    18
420
        0
176
     1
 90
       50
176
     1
 90
        3
176
     1
 62
     5
420
      255
176
     1
290
     0
176
     1
 90
       50
176
     1
 90
       50
176
     1
 90
       50
176
     1
290
     0
176
     1
 90
       50
176
     1
 62
   256
176
     0
 40
1.0
176
     0
 90
        2
176
     1
  1
strokes_ogs.tif
176
     1
290
     0
176
     1
 40
1.0
176
     1
 40
1.0
176
     1
  0
VISUALSTYLE
  5
21A
102
{ACAD_REACTORS
330
216
102
}
330
216
100
AcDbVisualStyle
  2
GouraudWithEdges
 70
     3
177
     3
291
     1
 70
    58
 90
        2
176
     1
 90
        2
176
     1
 90
        1
176
     1
 90
        2
176
     1
 40
0.6
176
     1
 40
30.0
176
     1
 62
     7
420
 16777215
176
     1
 90
        1
176
     1
 90
        0
176
     1
 62
     7
176
     1
 62
   257
176
     1
 90
        1
176
     1
 90
        1
176
     1
 40
1.0
176
     1
 90
        0
176
     1
 62
   257
176
     1
 40
1.0
176
     1
 90
        1
176
     1
 90
        6
176
     1
 90
        2
176
     1
 62
     7
176
     1
 90
        5
176
     1
 90
        0
176
     1
 90
        0
176
     1
290
     0
176
     1
 90
       13
176
     1
 40
0.0
176
     1
 90
        0
176
     1
290
     0
176
     1
290
     1
176
     1
290
     1
176
     1
290
     0
176
     1
290
     0
176
     1
290
     0
176
     1
290
     0
176
     1
290
     0
176
     1
290
     0
176
     1
 90
       50
176
     1
 40
0.0
176
     1
 40
1.0
176
     1
 90
        0
176
     1
 62
    18
420
        0
176
     1
 90
       50
176
     1
 90
        3
176
     1
 62
     5
420
      255
176
     1
290
     0
176
     1
 90
       50
176
     1
 90
       50
176
     1
 90
       50
176
     1
290
     0
176
     1
 90
       50
176
     1
 62
   256
176
     0
 40
1.0
176
     0
 90
        2
176
     1
  1
strokes_ogs.tif
176
     1
290
     0
176
     1
 40
1.0
176
     1
 40
1.0
176
     1
  0
VISUALSTYLE
  5
21D
102
{ACAD_REACTORS
330
216
102
}
330
216
100
AcDbVisualStyle
  2
Hidden
 70
     6
177
     3
291
     0
 70
    58
 90
        1
176
     1
 90
        2
176
     1
 90
        2
176
     1
 90
        0
176
     1
 40
0.6
176
     1
 40
30.0
176
     1
 62
     7
420
 16777215
176
     1
 90
        2
176
     1
 90
        2
176
     1
 62
     7
176
     1
 62
   257
176
     1
 90
        2
176
     1
 90
        1
176
     1
 40
40.0
176
     1
 90
        0
176
     1
 62
   257
176
     1
 40
1.0
176
     1
 90
        1
176
     1
 90
        6
176
     1
 90
        2
176
     1
 62
     7
176
     1
 90
        3
176
     1
 90
        0
176
     1
 90
        0
176
     1
290
     0
176
     1
 90
        1
176
     1
 40
0.0
176
     1
 90
        0
176
     1
290
     0
176
     1
290
     1
176
     1
290
     1
176
     1
290
     0
176
     1
290
     0
176
     1
290
     0
176
     1
290
     0
176
     1
290
     0
176
     1
290
     0
176
     1
 90
       50
176
     1
 40
0.0
176
     1
 40
1.0
176
     1
 90
        0
176
     1
 62
    18
420
        0
176
     1
 90
       50
176
     1
 90
        3
176
     1
 62
     5
420
      255
176
     1
290
     0
176
     1
 90
       50
176
     1
 90
       50
176
     1
 90
       50
176
     1
290
     0
176
     1
 90
       50
176
     1
 62
   256
176
     0
 40
1.0
176
     0
 90
        2
176
     1
  1
strokes_ogs.tif
176
     1
290
     0
176
     1
 40
1.0
176
     1
 40
1.0
176
     1
  0
VISUALSTYLE
  5
227
102
{ACAD_REACTORS
330
216
102
}
330
216
100
AcDbVisualStyle
  2
JitterOff
 70
    20
177
     3
291
     1
 70
    58
 90
        2
176
     0
 90
        2
176
     0
 90
        0
176
     0
 90
        0
176
     0
 40
0.6
176
     0
 40
30.0
176
     0
 62
     7
420
 16777215
176
     0
 90
        1
176
     0
 90
        4
176
     0
 62
     7
176
     0
 62
   257
176
     0
 90
        1
176
     0
 90
        1
176
     0
 40
1.0
176
     0
 90
       10
176
     2
 62
     7
176
     0
 40
1.0
176
     0
 90
        1
176
     0
 90
        6
176
     0
 90
        2
176
     0
 62
     7
176
     0
 90
        5
176
     0
 90
        0
176
     0
 90
        0
176
     0
290
     0
176
     0
 90
        1
176
     0
 40
0.0
176
     0
 90
        0
176
     0
290
     0
176
     0
290
     1
176
     0
290
     1
176
     0
290
     0
176
     0
290
     0
176
     0
290
     0
176
     0
290
     0
176
     0
290
     0
176
     0
290
     0
176
     0
 90
       50
176
     0
 40
0.0
176
     0
 40
1.0
176
     0
 90
        0
176
     0
 62
    18
420
        0
176
     0
 90
       50
176
     0
 90
        3
176
     0
 62
     5
420
      255
176
     0
290
     0
176
     0
 90
       50
176
     0
 90
       50
176
     0
 90
       50
176
     0
290
     0
176
     0
 90
       50
176
     0
 62
   256
176
     0
 40
1.0
176
     0
 90
        2
176
     0
  1
strokes_ogs.tif
176
     0
290
     0
176
     0
 40
1.0
176
     0
 40
1.0
176
     0
  0
VISUALSTYLE
  5
224
102
{ACAD_REACTORS
330
216
102
}
330
216
100
AcDbVisualStyle
  2
Linepattern
 70
    14
177
     3
291
     1
 70
    58
 90
        2
176
     1
 90
        2
176
     1
 90
        0
176
     1
 90
        0
176
     1
 40
0.6
176
     1
 40
30.0
176
     1
 62
     7
420
 16777215
176
     1
 90
        1
176
     1
 90
        4
176
     1
 62
     7
176
     1
 62
   257
176
     1
 90
        7
176
     1
 90
        7
176
     1
 40
1.0
176
     1
 90
        8
176
     1
 62
     7
176
     1
 40
1.0
176
     1
 90
        1
176
     1
 90
        6
176
     1
 90
        2
176
     1
 62
     7
176
     1
 90
        5
176
     1
 90
        0
176
     1
 90
        0
176
     1
290
     0
176
     1
 90
        1
176
     1
 40
0.0
176
     1
 90
        0
176
     1
290
     0
176
     1
290
     1
176
     1
290
     1
176
     1
290
     0
176
     1
290
     0
176
     1
290
     0
176
     1
290
     0
176
     1
290
     0
176
     1
290
     0
176
     1
 90
       50
176
     1
 40
0.0
176
     1
 40
1.0
176
     1
 90
        0
176
     1
 62
    18
420
        0
176
     1
 90
       50
176
     1
 90
        3
176
     1
 62
     5
420
      255
176
     1
290
     0
176
     1
 90
       50
176
     1
 90
       50
176
     1
 90
       50
176
     1
290
     0
176
     1
 90
       50
176
     1
 62
   256
176
     0
 40
1.0
176
     0
 90
        2
176
     1
  1
strokes_ogs.tif
176
     1
290
     0
176
     1
 40
1.0
176
     1
 40
1.0
176
     1
  0
VISUALSTYLE
  5
228
102
{ACAD_REACTORS
330
216
102
}
330
216
100
AcDbVisualStyle
  2
OverhangOff
 70
    21
177
     3
291
     1
 70
    58
 90
        2
176
     0
 90
        2
176
     0
 90
        0
176
     0
 90
        0
176
     0
 40
0.6
176
     0
 40
30.0
176
     0
 62
     7
420
 16777215
176
     0
 90
        1
176
     0
 90
        4
176
     0
 62
     7
176
     0
 62
   257
176
     0
 90
        1
176
     0
 90
        1
176
     0
 40
1.0
176
     0
 90
        9
176
     2
 62
     7
176
     0
 40
1.0
176
     0
 90
        1
176
     0
 90
        6
176
     0
 90
        2
176
     0
 62
     7
176
     0
 90
        5
176
     0
 90
        0
176
     0
 90
        0
176
     0
290
     0
176
     0
 90
        1
176
     0
 40
0.0
176
     0
 90
        0
176
     0
290
     0
176
     0
290
     1
176
     0
290
     1
176
     0
290
     0
176
     0
290
     0
176
     0
290
     0
176
     0
290
     0
176
     0
290
     0
176
     0
290
     0
176
     0
 90
       50
176
     0
 40
0.0
176
     0
 40
1.0
176
     0
 90
        0
176
     0
 62
    18
420
        0
176
     0
 90
       50
176
     0
 90
        3
176
     0
 62
     5
420
      255
176
     0
290
     0
176
     0
 90
       50
176
     0
 90
       50
176
     0
 90
       50
176
     0
290
     0
176
     0
 90
       50
176
     0
 62
   256
176
     0
 40
1.0
176
     0
 90
        2
176
     0
  1
strokes_ogs.tif
176
     0
290
     0
176
     0
 40
1.0
176
     0
 40
1.0
176
     0
  0
VISUALSTYLE
  5
21F
102
{ACAD_REACTORS
330
216
102
}
330
216
100
AcDbVisualStyle
  2
Realistic
 70
     8
177
     3
291
     0
 70
    58
 90
        2
176
     1
 90
        3
176
     1
 90
        0
176
     1
 90
        2
176
     1
 40
0.6
176
     1
 40
30.0
176
     1
 62
     7
420
 16777215
176
     1
 90
        0
176
     1
 90
        0
176
     1
 62
     7
176
     1
 62
   257
176
     1
 90
        1
176
     1
 90
        1
176
     1
 40
1.0
176
     1
 90
        8
176
     1
 62
   257
176
     1
 40
1.0
176
     1
 90
        1
176
     1
 90
        6
176
     1
 90
        2
176
     1
 62
     7
176
     1
 90
        3
176
     1
 90
        0
176
     1
 90
        0
176
     1
290
     0
176
     1
 90
       13
176
     1
 40
0.0
176
     1
 90
        0
176
     1
290
     0
176
     1
290
     1
176
     1
290
     1
176
     1
290
     0
176
     1
290
     0
176
     1
290
     0
176
     1
290
     0
176
     1
290
     0
176
     1
290
     0
176
     1
 90
       50
176
     1
 40
0.0
176
     1
 40
1.0
176
     1
 90
        0
176
     1
 62
    18
420
        0
176
     1
 90
       50
176
     1
 90
        3
176
     1
 62
     5
420
      255
176
     1
290
     0
176
     1
 90
       50
176
     1
 90
       50
176
     1
 90
       50
176
     1
290
     0
176
     1
 90
       50
176
     1
 62
   256
176
     0
 40
1.0
176
     0
 90
        2
176
     1
  1
strokes_ogs.tif
176
     1
290
     0
176
     1
 40
1.0
176
     1
 40
1.0
176
     1
  0
VISUALSTYLE
  5
22E
102
{ACAD_REACTORS
330
216
102
}
330
216
100
AcDbVisualStyle
  2
Shaded
 70
    27
177
     3
291
     0
 70
    58
 90
        2
176
     1
 90
        2
176
     1
 90
        1
176
     1
 90
        2
176
     1
 40
0.6
176
     1
 40
30.0
176
     1
 62
     7
420
 16777215
176
     1
 90
        0
176
     1
 90
        4
176
     1
 62
     7
176
     1
 62
   257
176
     1
 90
        1
176
     1
 90
        1
176
     1
 40
1.0
176
     1
 90
        8
176
     1
 62
   257
176
     1
 40
1.0
176
     1
 90
        1
176
     1
 90
        6
176
     1
 90
        2
176
     1
 62
     8
420
  7895160
176
     1
 90
        3
176
     1
 90
        0
176
     1
 90
        0
176
     1
290
     0
176
     1
 90
        5
176
     1
 40
0.0
176
     1
 90
        0
176
     1
290
     0
176
     1
290
     1
176
     1
290
     1
176
     1
290
     0
176
     1
290
     0
176
     1
290
     0
176
     1
290
     0
176
     1
290
     0
176
     1
290
     0
176
     1
 90
       50
176
     1
 40
0.0
176
     1
 40
1.0
176
     1
 90
        0
176
     1
 62
    18
420
        0
176
     1
 90
       50
176
     1
 90
        3
176
     1
 62
     5
420
      255
176
     1
290
     0
176
     1
 90
       50
176
     1
 90
       50
176
     1
 90
       50
176
     1
290
     0
176
     1
 90
       50
176
     1
 62
   256
176
     0
 40
1.0
176
     0
 90
        2
176
     1
  1
strokes_ogs.tif
176
     1
290
     0
176
     1
 40
1.0
176
     1
 40
1.0
176
     1
  0
VISUALSTYLE
  5
22D
102
{ACAD_REACTORS
330
216
102
}
330
216
100
AcDbVisualStyle
  2
Shaded with edges
 70
    26
177
     3
291
     0
 70
    58
 90
        2
176
     1
 90
        2
176
     1
 90
        1
176
     1
 90
        2
176
     1
 40
0.6
176
     1
 40
30.0
176
     1
 62
     7
420
 16777215
176
     1
 90
        1
176
     1
 90
       10
176
     1
 62
     7
176
     1
 62
   257
176
     1
 90
        2
176
     1
 90
        1
176
     1
 40
1.0
176
     1
 90
        8
176
     1
 62
   257
176
     1
 40
1.0
176
     1
 90
        1
176
     1
 90
        6
176
     1
 90
        2
176
     1
 62
     7
176
     1
 90
        3
176
     1
 90
        0
176
     1
 90
        0
176
     1
290
     0
176
     1
 90
        5
176
     1
 40
0.0
176
     1
 90
        0
176
     1
290
     0
176
     1
290
     1
176
     1
290
     1
176
     1
290
     0
176
     1
290
     0
176
     1
290
     0
176
     1
290
     0
176
     1
290
     0
176
     1
290
     0
176
     1
 90
       50
176
     1
 40
0.0
176
     1
 40
1.0
176
     1
 90
        0
176
     1
 62
    18
420
        0
176
     1
 90
       50
176
     1
 90
        3
176
     1
 62
     5
420
      255
176
     1
290
     0
176
     1
 90
       50
176
     1
 90
       50
176
     1
 90
       50
176
     1
290
     0
176
     1
 90
       50
176
     1
 62
   256
176
     0
 40
1.0
176
     0
 90
        2
176
     1
  1
strokes_ogs.tif
176
     1
290
     0
176
     1
 40
1.0
176
     1
 40
1.0
176
     1
  0
VISUALSTYLE
  5
22A
102
{ACAD_REACTORS
330
216
102
}
330
216
100
AcDbVisualStyle
  2
Shades of Gray
 70
    23
177
     3
291
     0
 70
    58
 90
        2
176
     1
 90
        2
176
     1
 90
        3
176
     1
 90
        0
176
     1
 40
0.6
176
     1
 40
30.0
176
     1
 62
     7
420
 16777215
176
     1
 90
        2
176
     1
 90
        2
176
     1
 62
     7
176
     1
 62
     7
176
     1
 90
        1
176
     1
 90
        1
176
     1
 40
40.0
176
     1
 90
        8
176
     1
 62
     7
176
     1
 40
1.0
176
     1
 90
        1
176
     1
 90
        6
176
     1
 90
        2
176
     1
 62
     7
176
     1
 90
        3
176
     1
 90
        0
176
     1
 90
        0
176
     1
290
     0
176
     1
 90
        1
176
     1
 40
0.0
176
     1
 90
        0
176
     1
290
     0
176
     1
290
     1
176
     1
290
     1
176
     1
290
     0
176
     1
290
     0
176
     1
290
     0
176
     1
290
     0
176
     1
290
     0
176
     1
290
     0
176
     1
 90
       50
176
     1
 40
0.0
176
     1
 40
1.0
176
     1
 90
        0
176
     1
 62
    18
420
        0
176
     1
 90
       50
176
     1
 90
        3
176
     1
 62
     5
420
      255
176
     1
290
     0
176
     1
 90
       50
176
     1
 90
       50
176
     1
 90
       50
176
     1
290
     0
176
     1
 90
       50
176
     1
 62
   256
176
     0
 40
1.0
176
     0
 90
        2
176
     1
  1
strokes_ogs.tif
176
     1
290
     0
176
     1
 40
1.0
176
     1
 40
1.0
176
     1
  0
VISUALSTYLE
  5
22B
102
{ACAD_REACTORS
330
216
102
}
330
216
100
AcDbVisualStyle
  2
Sketchy
 70
    24
177
     3
291
     0
 70
    58
 90
        1
176
     1
 90
        2
176
     1
 90
        2
176
     1
 90
        0
176
     1
 40
0.6
176
     1
 40
30.0
176
     1
 62
     7
420
 16777215
176
     1
 90
        2
176
     1
 90
        2
176
     1
 62
     7
176
     1
 62
     7
176
     1
 90
        1
176
     1
 90
        1
176
     1
 40
40.0
176
     1
 90
       11
176
     1
 62
     7
176
     1
 40
1.0
176
     1
 90
        1
176
     1
 90
        6
176
     1
 90
        2
176
     1
 62
     7
176
     1
 90
        6
176
     1
 90
        0
176
     1
 90
        0
176
     1
290
     0
176
     1
 90
        1
176
     1
 40
0.0
176
     1
 90
        0
176
     1
290
     0
176
     1
290
     1
176
     1
290
     1
176
     1
290
     0
176
     1
290
     0
176
     1
290
     0
176
     1
290
     0
176
     1
290
     0
176
     1
290
     0
176
     1
 90
       50
176
     1
 40
0.0
176
     1
 40
1.0
176
     1
 90
        0
176
     1
 62
    18
420
        0
176
     1
 90
       50
176
     1
 90
        3
176
     1
 62
     5
420
      255
176
     1
290
     0
176
     1
 90
       50
176
     1
 90
       50
176
     1
 90
       50
176
     1
290
     0
176
     1
 90
       50
176
     1
 62
   256
176
     0
 40
1.0
176
     0
 90
        2
176
     1
  1
strokes_ogs.tif
176
     1
290
     0
176
     1
 40
1.0
176
     1
 40
1.0
176
     1
  0
VISUALSTYLE
  5
223
102
{ACAD_REACTORS
330
216
102
}
330
216
100
AcDbVisualStyle
  2
Thicken
 70
    13
177
     3
291
     1
 70
    58
 90
        2
176
     1
 90
        2
176
     1
 90
        0
176
     1
 90
        0
176
     1
 40
0.6
176
     1
 40
30.0
176
     1
 62
     7
420
 16777215
176
     1
 90
        1
176
     1
 90
        4
176
     1
 62
     7
176
     1
 62
   257
176
     1
 90
        1
176
     1
 90
        1
176
     1
 40
1.0
176
     1
 90
       12
176
     1
 62
     7
176
     1
 40
1.0
176
     1
 90
        1
176
     1
 90
        6
176
     1
 90
        2
176
     1
 62
     7
176
     1
 90
        5
176
     1
 90
        0
176
     1
 90
        0
176
     1
290
     0
176
     1
 90
        1
176
     1
 40
0.0
176
     1
 90
        0
176
     1
290
     0
176
     1
290
     1
176
     1
290
     1
176
     1
290
     0
176
     1
290
     0
176
     1
290
     0
176
     1
290
     0
176
     1
290
     0
176
     1
290
     0
176
     1
 90
       50
176
     1
 40
0.0
176
     1
 40
1.0
176
     1
 90
        0
176
     1
 62
    18
420
        0
176
     1
 90
       50
176
     1
 90
        3
176
     1
 62
     5
420
      255
176
     1
290
     0
176
     1
 90
       50
176
     1
 90
       50
176
     1
 90
       50
176
     1
290
     0
176
     1
 90
       50
176
     1
 62
   256
176
     0
 40
1.0
176
     0
 90
        2
176
     1
  1
strokes_ogs.tif
176
     1
290
     0
176
     1
 40
1.0
176
     1
 40
1.0
176
     1
  0
VISUALSTYLE
  5
21C
102
{ACAD_REACTORS
330
216
102
}
330
216
100
AcDbVisualStyle
  2
Wireframe
 70
     5
177
     3
291
     0
 70
    58
 90
        0
176
     1
 90
        2
176
     1
 90
        0
176
     1
 90
        0
176
     1
 40
0.6
176
     1
 40
30.0
176
     1
 62
     7
420
 16777215
176
     1
 90
        1
176
     1
 90
        4
176
     1
 62
     7
176
     1
 62
   257
176
     1
 90
        1
176
     1
 90
        1
176
     1
 40
1.0
176
     1
 90
        0
176
     1
 62
   257
176
     1
 40
1.0
176
     1
 90
        1
176
     1
 90
        6
176
     1
 90
        2
176
     1
 62
     7
176
     1
 90
        3
176
     1
 90
        0
176
     1
 90
        0
176
     1
290
     0
176
     1
 90
        1
176
     1
 40
0.0
176
     1
 90
        0
176
     1
290
     0
176
     1
290
     1
176
     1
290
     1
176
     1
290
     0
176
     1
290
     0
176
     1
290
     0
176
     1
290
     0
176
     1
290
     0
176
     1
290
     0
176
     1
 90
       50
176
     1
 40
0.0
176
     1
 40
1.0
176
     1
 90
        0
176
     1
 62
    18
420
        0
176
     1
 90
       50
176
     1
 90
        3
176
     1
 62
     5
420
      255
176
     1
290
     0
176
     1
 90
       50
176
     1
 90
       50
176
     1
 90
       50
176
     1
290
     0
176
     1
 90
       50
176
     1
 62
   256
176
     0
 40
1.0
176
     0
 90
        2
176
     1
  1
strokes_ogs.tif
176
     1
290
     0
176
     1
 40
1.0
176
     1
 40
1.0
176
     1
  0
VISUALSTYLE
  5
22C
102
{ACAD_REACTORS
330
216
102
}
330
216
100
AcDbVisualStyle
  2
X-Ray
 70
    25
177
     3
291
     0
 70
    58
 90
        2
176
     1
 90
        2
176
     1
 90
        1
176
     1
 90
        1
176
     1
 40
0.5
176
     1
 40
30.0
176
     1
 62
     7
420
 16777215
176
     1
 90
        1
176
     1
 90
        0
176
     1
 62
     7
176
     1
 62
   257
176
     1
 90
        1
176
     1
 90
        1
176
     1
 40
1.0
176
     1
 90
        8
176
     1
 62
     7
176
     1
 40
1.0
176
     1
 90
        1
176
     1
 90
        6
176
     1
 90
        2
176
     1
 62
     7
176
     1
 90
        3
176
     1
 90
        0
176
     1
 90
        0
176
     1
290
     0
176
     1
 90
       13
176
     1
 40
0.0
176
     1
 90
        0
176
     1
290
     0
176
     1
290
     1
176
     1
290
     1
176
     1
290
     0
176
     1
290
     0
176
     1
290
     0
176
     1
290
     0
176
     1
290
     0
176
     1
290
     0
176
     1
 90
       50
176
     1
 40
0.0
176
     1
 40
1.0
176
     1
 90
        0
176
     1
 62
    18
420
        0
176
     1
 90
       50
176
     1
 90
        3
176
     1
 62
     5
420
      255
176
     1
290
     0
176
     1
 90
       50
176
     1
 90
       50
176
     1
 90
       50
176
     1
290
     0
176
     1
 90
       50
176
     1
 62
   256
176
     0
 40
1.0
176
     0
 90
        2
176
     1
  1
strokes_ogs.tif
176
     1
290
     0
176
     1
 40
1.0
176
     1
 40
1.0
176
     1
  0
DICTIONARYVAR
  5
264
102
{ACAD_REACTORS
330
263
102
}
330
263
100
DictionaryVariables
280
     0
  1
1:1
  0
DICTIONARYVAR
  5
266
102
{ACAD_REACTORS
330
263
102
}
330
263
100
DictionaryVariables
280
     0
  1
Standard
  0
DICTIONARYVAR
  5
265
102
{ACAD_REACTORS
330
263
102
}
330
263
100
DictionaryVariables
280
     0
  1
Standard
  0
DICTIONARYVAR
  5
267
102
{ACAD_REACTORS
330
263
102
}
330
263
100
DictionaryVariables
280
     0
  1
0
  0
DICTIONARY
  5
26E
330
234
100
AcDbDictionary
280
     1
281
     1
  3
ACAD_ROUNDTRIP_2008_TABLESTYLE_CELLSTYLEMAP
360
26F
  0
CELLSTYLEMAP
  5
26F
102
{ACAD_REACTORS
330
26E
102
}
330
26E
100
AcDbCellStyleMap
 90
        3
300
CELLSTYLE
  1
TABLEFORMAT_BEGIN
 90
        5
170
     1
 91
        0
 92
    32768
 62
   257
 93
        1
300
CONTENTFORMAT
  1
CONTENTFORMAT_BEGIN
 90
        0
 91
        0
 92
        4
 93
        0
300

 40
0.0
140
1.0
 94
        5
 62
     0
340
11
144
6.0
309
CONTENTFORMAT_END
171
     1
301
MARGIN
  1
CELLMARGIN_BEGIN
 40
1.5
 40
1.5
 40
1.5
 40
1.5
 40
1.5
 40
1.5
309
CELLMARGIN_END
 94
        6
 95
        1
302
GRIDFORMAT
  1
GRIDFORMAT_BEGIN
 90
        0
 91
        1
 62
     0
 92
       -2
340
14
 93
        0
 40
0.045
309
GRIDFORMAT_END
 95
        2
302
GRIDFORMAT
  1
GRIDFORMAT_BEGIN
 90
        0
 91
        1
 62
     0
 92
       -2
340
14
 93
        0
 40
0.045
309
GRIDFORMAT_END
 95
        4
302
GRIDFORMAT
  1
GRIDFORMAT_BEGIN
 90
        0
 91
        1
 62
     0
 92
       -2
340
14
 93
        0
 40
0.045
309
GRIDFORMAT_END
 95
        8
302
GRIDFORMAT
  1
GRIDFORMAT_BEGIN
 90
        0
 91
        1
 62
     0
 92
       -2
340
14
 93
        0
 40
0.045
309
GRIDFORMAT_END
 95
       16
302
GRIDFORMAT
  1
GRIDFORMAT_BEGIN
 90
        0
 91
        1
 62
     0
 92
       -2
340
14
 93
        0
 40
0.045
309
GRIDFORMAT_END
 95
       32
302
GRIDFORMAT
  1
GRIDFORMAT_BEGIN
 90
        0
 91
        1
 62
     0
 92
       -2
340
14
 93
        0
 40
0.045
309
GRIDFORMAT_END
309
TABLEFORMAT_END
  1
CELLSTYLE_BEGIN
 90
        1
 91
        1
300
_TITLE
309
CELLSTYLE_END
300
CELLSTYLE
  1
TABLEFORMAT_BEGIN
 90
        5
170
     1
 91
        0
 92
        0
 62
   257
 93
        1
300
CONTENTFORMAT
  1
CONTENTFORMAT_BEGIN
 90
        0
 91
        0
 92
        4
 93
        0
300

 40
0.0
140
1.0
 94
        5
 62
     0
340
11
144
4.5
309
CONTENTFORMAT_END
171
     1
301
MARGIN
  1
CELLMARGIN_BEGIN
 40
1.5
 40
1.5
 40
1.5
 40
1.5
 40
1.5
 40
1.5
309
CELLMARGIN_END
 94
        6
 95
        1
302
GRIDFORMAT
  1
GRIDFORMAT_BEGIN
 90
        0
 91
        1
 62
     0
 92
       -2
340
14
 93
        0
 40
0.045
309
GRIDFORMAT_END
 95
        2
302
GRIDFORMAT
  1
GRIDFORMAT_BEGIN
 90
        0
 91
        1
 62
     0
 92
       -2
340
14
 93
        0
 40
0.045
309
GRIDFORMAT_END
 95
        4
302
GRIDFORMAT
  1
GRIDFORMAT_BEGIN
 90
        0
 91
        1
 62
     0
 92
       -2
340
14
 93
        0
 40
0.045
309
GRIDFORMAT_END
 95
        8
302
GRIDFORMAT
  1
GRIDFORMAT_BEGIN
 90
        0
 91
        1
 62
     0
 92
       -2
340
14
 93
        0
 40
0.045
309
GRIDFORMAT_END
 95
       16
302
GRIDFORMAT
  1
GRIDFORMAT_BEGIN
 90
        0
 91
        1
 62
     0
 92
       -2
340
14
 93
        0
 40
0.045
309
GRIDFORMAT_END
 95
       32
302
GRIDFORMAT
  1
GRIDFORMAT_BEGIN
 90
        0
 91
        1
 62
     0
 92
       -2
340
14
 93
        0
 40
0.045
309
GRIDFORMAT_END
309
TABLEFORMAT_END
  1
CELLSTYLE_BEGIN
 90
        2
 91
        1
300
_HEADER
309
CELLSTYLE_END
300
CELLSTYLE
  1
TABLEFORMAT_BEGIN
 90
        5
170
     1
 91
        0
 92
        0
 62
   257
 93
        1
300
CONTENTFORMAT
  1
CONTENTFORMAT_BEGIN
 90
        0
 91
        0
 92
        4
 93
        0
300

 40
0.0
140
1.0
 94
        2
 62
     0
340
11
144
4.5
309
CONTENTFORMAT_END
171
     1
301
MARGIN
  1
CELLMARGIN_BEGIN
 40
1.5
 40
1.5
 40
1.5
 40
1.5
 40
1.5
 40
1.5
309
CELLMARGIN_END
 94
        6
 95
        1
302
GRIDFORMAT
  1
GRIDFORMAT_BEGIN
 90
        0
 91
        1
 62
     0
 92
       -2
340
14
 93
        0
 40
0.045
309
GRIDFORMAT_END
 95
        2
302
GRIDFORMAT
  1
GRIDFORMAT_BEGIN
 90
        0
 91
        1
 62
     0
 92
       -2
340
14
 93
        0
 40
0.045
309
GRIDFORMAT_END
 95
        4
302
GRIDFORMAT
  1
GRIDFORMAT_BEGIN
 90
        0
 91
        1
 62
     0
 92
       -2
340
14
 93
        0
 40
0.045
309
GRIDFORMAT_END
 95
        8
302
GRIDFORMAT
  1
GRIDFORMAT_BEGIN
 90
        0
 91
        1
 62
     0
 92
       -2
340
14
 93
        0
 40
0.045
309
GRIDFORMAT_END
 95
       16
302
GRIDFORMAT
  1
GRIDFORMAT_BEGIN
 90
        0
 91
        1
 62
     0
 92
       -2
340
14
 93
        0
 40
0.045
309
GRIDFORMAT_END
 95
       32
302
GRIDFORMAT
  1
GRIDFORMAT_BEGIN
 90
        0
 91
        1
 62
     0
 92
       -2
340
14
 93
        0
 40
0.045
309
GRIDFORMAT_END
309
TABLEFORMAT_END
  1
CELLSTYLE_BEGIN
 90
        3
 91
        2
300
_DATA
309
CELLSTYLE_END
  0
ENDSEC
  0
EOF
