  0
SECTION
  2
HEADER
  9
$ACADVER
  1
AC1015
  9
$ACADMAINTVER
 70
     6
  9
$DWGCODEPAGE
  3
ANSI_1252
  9
$INSBASE
 10
0.0
 20
0.0
 30
0.0
  9
$EXTMIN
 10
1315.033578171378
 20
26.4328170206
 30
0.0
  9
$EXTMAX
 10
1690.8000992221
 20
469.3803688315002
 30
0.0
  9
$LIMMIN
 10
0.0
 20
0.0
  9
$LIMMAX
 10
840.0
 20
594.0
  9
$ORTHOMODE
 70
     0
  9
$REGENMODE
 70
     1
  9
$FILLMODE
 70
     1
  9
$QTEXTMODE
 70
     0
  9
$MIRRTEXT
 70
     1
  9
$LTSCALE
 40
1.0
  9
$ATTMODE
 70
     1
  9
$TEXTSIZE
 40
2.8
  9
$TRACEWID
 40
1.0
  9
$TEXTSTYLE
  7
Standard
  9
$CLAYER
  8
0
  9
$CELTYPE
  6
ByLayer
  9
$CECOLOR
 62
   256
  9
$CELTSCALE
 40
1.0
  9
$DISPSILH
 70
     0
  9
$DIMSCALE
 40
1.0
  9
$DIMASZ
 40
3.2
  9
$DIMEXO
 40
0.1
  9
$DIMDLI
 40
3.75
  9
$DIMRND
 40
0.0
  9
$DIMDLE
 40
0.0
  9
$DIMEXE
 40
1.0
  9
$DIMTP
 40
0.0
  9
$DIMTM
 40
0.0
  9
$DIMTXT
 40
3.2
  9
$DIMCEN
 40
2.5
  9
$DIMTSZ
 40
0.0
  9
$DIMTOL
 70
     0
  9
$DIMLIM
 70
     0
  9
$DIMTIH
 70
     1
  9
$DIMTOH
 70
     1
  9
$DIMSE1
 70
     0
  9
$DIMSE2
 70
     0
  9
$DIMTAD
 70
     1
  9
$DIMZIN
 70
     0
  9
$DIMBLK
  1

  9
$DIMASO
 70
     1
  9
$DIMSHO
 70
     1
  9
$DIMPOST
  1

  9
$DIMAPOST
  1

  9
$DIMALT
 70
     0
  9
$DIMALTD
 70
     3
  9
$DIMALTF
 40
0.0393700787
  9
$DIMLFAC
 40
1.0
  9
$DIMTOFL
 70
     1
  9
$DIMTVP
 40
0.0
  9
$DIMTIX
 70
     0
  9
$DIMSOXD
 70
     0
  9
$DIMSAH
 70
     0
  9
$DIMBLK1
  1

  9
$DIMBLK2
  1

  9
$DIMSTYLE
  2
ISO-25
  9
$DIMCLRD
 70
     0
  9
$DIMCLRE
 70
     0
  9
$DIMCLRT
 70
     0
  9
$DIMTFAC
 40
1.0
  9
$DIMGAP
 40
2.0
  9
$DIMJUST
 70
     0
  9
$DIMSD1
 70
     0
  9
$DIMSD2
 70
     0
  9
$DIMTOLJ
 70
     0
  9
$DIMTZIN
 70
     0
  9
$DIMALTZ
 70
     0
  9
$DIMALTTZ
 70
     0
  9
$DIMUPT
 70
     0
  9
$DIMDEC
 70
     2
  9
$DIMTDEC
 70
     2
  9
$DIMALTU
 70
     2
  9
$DIMALTTD
 70
     3
  9
$DIMTXSTY
  7
Standard
  9
$DIMAUNIT
 70
     0
  9
$DIMADEC
 70
     2
  9
$DIMALTRND
 40
0.0
  9
$DIMAZIN
 70
     0
  9
$DIMDSEP
 70
    44
  9
$DIMATFIT
 70
     3
  9
$DIMFRAC
 70
     0
  9
$DIMLDRBLK
  1

  9
$DIMLUNIT
 70
     2
  9
$DIMLWD
 70
    -2
  9
$DIMLWE
 70
    -2
  9
$DIMTMOVE
 70
     0
  9
$LUNITS
 70
     2
  9
$LUPREC
 70
     2
  9
$SKETCHINC
 40
1.0
  9
$FILLETRAD
 40
10.0
  9
$AUNITS
 70
     0
  9
$AUPREC
 70
     2
  9
$MENU
  1
.
  9
$ELEVATION
 40
0.0
  9
$PELEVATION
 40
0.0
  9
$THICKNESS
 40
0.0
  9
$LIMCHECK
 70
     0
  9
$CHAMFERA
 40
0.0
  9
$CHAMFERB
 40
0.0
  9
$CHAMFERC
 40
0.0
  9
$CHAMFERD
 40
0.0
  9
$SKPOLY
 70
     0
  9
$TDCREATE
 40
2458010.481354433
  9
$TDUCREATE
 40
2458010.3980211
  9
$TDUPDATE
 40
2458010.483565544
  9
$TDUUPDATE
 40
2458010.400232211
  9
$TDINDWG
 40
0.000282419
  9
$TDUSRTIMER
 40
2458010.399949838
  9
$USRTIMER
 70
     1
  9
$ANGBASE
 50
0.0
  9
$ANGDIR
 70
     0
  9
$PDMODE
 70
     0
  9
$PDSIZE
 40
-1.0
  9
$PLINEWID
 40
0.0
  9
$SPLFRAME
 70
     0
  9
$SPLINETYPE
 70
     6
  9
$SPLINESEGS
 70
     8
  9
$HANDSEED
  5
F23
  9
$SURFTAB1
 70
     6
  9
$SURFTAB2
 70
     6
  9
$SURFTYPE
 70
     6
  9
$SURFU
 70
     6
  9
$SURFV
 70
     6
  9
$UCSBASE
  2

  9
$UCSNAME
  2

  9
$UCSORG
 10
0.0
 20
0.0
 30
0.0
  9
$UCSXDIR
 10
1.0
 20
0.0
 30
0.0
  9
$UCSYDIR
 10
0.0
 20
1.0
 30
0.0
  9
$UCSORTHOREF
  2

  9
$UCSORTHOVIEW
 70
     0
  9
$UCSORGTOP
 10
0.0
 20
0.0
 30
0.0
  9
$UCSORGBOTTOM
 10
0.0
 20
0.0
 30
0.0
  9
$UCSORGLEFT
 10
0.0
 20
0.0
 30
0.0
  9
$UCSORGRIGHT
 10
0.0
 20
0.0
 30
0.0
  9
$UCSORGFRONT
 10
0.0
 20
0.0
 30
0.0
  9
$UCSORGBACK
 10
0.0
 20
0.0
 30
0.0
  9
$PUCSBASE
  2

  9
$PUCSNAME
  2

  9
$PUCSORG
 10
0.0
 20
0.0
 30
0.0
  9
$PUCSXDIR
 10
1.0
 20
0.0
 30
0.0
  9
$PUCSYDIR
 10
0.0
 20
1.0
 30
0.0
  9
$PUCSORTHOREF
  2

  9
$PUCSORTHOVIEW
 70
     0
  9
$PUCSORGTOP
 10
0.0
 20
0.0
 30
0.0
  9
$PUCSORGBOTTOM
 10
0.0
 20
0.0
 30
0.0
  9
$PUCSORGLEFT
 10
0.0
 20
0.0
 30
0.0
  9
$PUCSORGRIGHT
 10
0.0
 20
0.0
 30
0.0
  9
$PUCSORGFRONT
 10
0.0
 20
0.0
 30
0.0
  9
$PUCSORGBACK
 10
0.0
 20
0.0
 30
0.0
  9
$USERI1
 70
     0
  9
$USERI2
 70
     0
  9
$USERI3
 70
     0
  9
$USERI4
 70
     0
  9
$USERI5
 70
     0
  9
$USERR1
 40
0.0
  9
$USERR2
 40
0.0
  9
$USERR3
 40
0.0
  9
$USERR4
 40
0.0
  9
$USERR5
 40
0.0
  9
$WORLDVIEW
 70
     1
  9
$SHADEDGE
 70
     3
  9
$SHADEDIF
 70
    70
  9
$TILEMODE
 70
     1
  9
$MAXACTVP
 70
    64
  9
$PINSBASE
 10
0.0
 20
0.0
 30
0.0
  9
$PLIMCHECK
 70
     0
  9
$PEXTMIN
 10
1.000000000000000E+20
 20
1.000000000000000E+20
 30
1.000000000000000E+20
  9
$PEXTMAX
 10
-1.000000000000000E+20
 20
-1.000000000000000E+20
 30
-1.000000000000000E+20
  9
$PLIMMIN
 10
0.0
 20
0.0
  9
$PLIMMAX
 10
0.0
 20
0.0
  9
$UNITMODE
 70
     0
  9
$VISRETAIN
 70
     1
  9
$PLINEGEN
 70
     0
  9
$PSLTSCALE
 70
     1
  9
$TREEDEPTH
 70
  3020
  9
$CMLSTYLE
  2
Standard
  9
$CMLJUST
 70
     0
  9
$CMLSCALE
 40
20.0
  9
$PROXYGRAPHICS
 70
     1
  9
$MEASUREMENT
 70
     1
  9
$CELWEIGHT
370
    -1
  9
$ENDCAPS
280
     0
  9
$JOINSTYLE
280
     0
  9
$LWDISPLAY
290
     1
  9
$INSUNITS
 70
     4
  9
$HYPERLINKBASE
  1

  9
$STYLESHEET
  1

  9
$XEDIT
290
     1
  9
$CEPSNTYPE
380
     0
  9
$PSTYLEMODE
290
     1
  9
$FINGERPRINTGUID
  2
{E9FF4FDB-27DC-4855-9644-977E4F773144}
  9
$VERSIONGUID
  2
{FAEB1C32-E019-11D5-929B-00C0DF256EC4}
  9
$EXTNAMES
290
     1
  9
$PSVPSCALE
 40
0.0
  9
$OLESTARTUP
290
     0
  0
ENDSEC
  0
SECTION
  2
CLASSES
  0
CLASS
  1
ACDBDICTIONARYWDFLT
  2
AcDbDictionaryWithDefault
  3
ObjectDBX Classes
 90
        0
280
     0
281
     0
  0
CLASS
  1
VISUALSTYLE
  2
AcDbVisualStyle
  3
ObjectDBX Classes
 90
     4095
280
     0
281
     0
  0
CLASS
  1
MATERIAL
  2
AcDbMaterial
  3
ObjectDBX Classes
 90
     1153
280
     0
281
     0
  0
CLASS
  1
SCALE
  2
AcDbScale
  3
ObjectDBX Classes
 90
     1153
280
     0
281
     0
  0
CLASS
  1
TABLESTYLE
  2
AcDbTableStyle
  3
ObjectDBX Classes
 90
     4095
280
     0
281
     0
  0
CLASS
  1
MLEADERSTYLE
  2
AcDbMLeaderStyle
  3
ACDB_MLEADERSTYLE_CLASS
 90
     4095
280
     0
281
     0
  0
CLASS
  1
SUN
  2
AcDbSun
  3
SCENEOE
 90
     1153
280
     0
281
     0
  0
CLASS
  1
ACDBPLACEHOLDER
  2
AcDbPlaceHolder
  3
ObjectDBX Classes
 90
        0
280
     0
281
     0
  0
CLASS
  1
LAYOUT
  2
AcDbLayout
  3
ObjectDBX Classes
 90
        0
280
     0
281
     0
  0
CLASS
  1
RASTERVARIABLES
  2
AcDbRasterVariables
  3
ISM
 90
        0
280
     0
281
     0
  0
ENDSEC
  0
SECTION
  2
TABLES
  0
TABLE
  2
VPORT
  5
8
330
0
100
AcDbSymbolTable
 70
     1
  0
VPORT
  5
29
330
8
100
AcDbSymbolTableRecord
100
AcDbViewportTableRecord
  2
*Active
 70
     0
 10
0.0
 20
0.0
 11
1.0
 21
1.0
 12
1502.91683869675
 22
247.90659292605
 13
0.0
 23
0.0
 14
10.0
 24
10.0
 15
10.0
 25
10.0
 16
0.0
 26
0.0
 36
1.0
 17
0.0
 27
0.0
 37
0.0
 40
451.806502847118
 41
2.608695652173913
 42
50.0
 43
0.0
 44
0.0
 50
0.0
 51
0.0
 71
    16
 72
  2000
 73
     1
 74
     3
 75
     0
 76
     0
 77
     0
 78
     0
281
     0
 65
     1
110
0.0
120
0.0
130
0.0
111
1.0
121
0.0
131
0.0
112
0.0
122
1.0
132
0.0
 79
     0
146
0.0
  0
ENDTAB
  0
TABLE
  2
LTYPE
  5
5
330
0
100
AcDbSymbolTable
 70
     6
  0
LTYPE
  5
14
330
5
100
AcDbSymbolTableRecord
100
AcDbLinetypeTableRecord
  2
ByBlock
 70
     0
  3

 72
    65
 73
     0
 40
0.0
  0
LTYPE
  5
15
330
5
100
AcDbSymbolTableRecord
100
AcDbLinetypeTableRecord
  2
ByLayer
 70
     0
  3

 72
    65
 73
     0
 40
0.0
  0
LTYPE
  5
16
330
5
100
AcDbSymbolTableRecord
100
AcDbLinetypeTableRecord
  2
Continuous
 70
     0
  3
Solid line
 72
    65
 73
     0
 40
0.0
  0
LTYPE
  5
6E
330
5
100
AcDbSymbolTableRecord
100
AcDbLinetypeTableRecord
  2
HIDDEN
 70
     0
  3
Hidden __ __ __ __ __ __ __ __ __ __ __ __ __ __
 72
    65
 73
     2
 40
1.905
 49
1.27
 74
     0
 49
-0.635
 74
     0
  0
LTYPE
  5
6F
330
5
100
AcDbSymbolTableRecord
100
AcDbLinetypeTableRecord
  2
PHANTOM
 70
     0
  3
Phantom ______  __  __  ______  __  __  ______
 72
    65
 73
     6
 40
12.7
 49
6.35
 74
     0
 49
-1.27
 74
     0
 49
1.27
 74
     0
 49
-1.27
 74
     0
 49
1.27
 74
     0
 49
-1.27
 74
     0
  0
LTYPE
  5
70
330
5
100
AcDbSymbolTableRecord
100
AcDbLinetypeTableRecord
  2
CENTER
 70
     0
  3
Center ____ _ ____ _ ____ _ ____ _ ____ _ ____
 72
    65
 73
     4
 40
10.16
 49
6.35
 74
     0
 49
-1.27
 74
     0
 49
1.27
 74
     0
 49
-1.27
 74
     0
  0
LTYPE
  5
71
330
5
100
AcDbSymbolTableRecord
100
AcDbLinetypeTableRecord
  2
CENTERX2
 70
     0
  3
Center (2x) ________  __  ________  __  _____
 72
    65
 73
     4
 40
20.32
 49
12.7
 74
     0
 49
-2.54
 74
     0
 49
2.54
 74
     0
 49
-2.54
 74
     0
  0
LTYPE
  5
72
330
5
100
AcDbSymbolTableRecord
100
AcDbLinetypeTableRecord
  2
DOT2
 70
     0
  3
Dot (.5x) ........................................
 72
    65
 73
     2
 40
0.635
 49
0.0
 74
     0
 49
-0.635
 74
     0
  0
ENDTAB
  0
TABLE
  2
LAYER
  5
2
330
0
100
AcDbSymbolTable
 70
     2
  0
LAYER
  5
10
330
2
100
AcDbSymbolTableRecord
100
AcDbLayerTableRecord
  2
0
 70
     0
 62
     7
  6
Continuous
370
    -3
390
F
  0
LAYER
  5
73
330
2
100
AcDbSymbolTableRecord
100
AcDbLayerTableRecord
  2
FORMAT
 70
     0
 62
     7
  6
Continuous
370
    -3
390
F
  0
ENDTAB
  0
TABLE
  2
STYLE
  5
3
330
0
100
AcDbSymbolTable
 70
     2
  0
STYLE
  5
11
330
3
100
AcDbSymbolTableRecord
100
AcDbTextStyleTableRecord
  2
Standard
 70
     0
 40
0.0
 41
1.0
 50
0.0
 71
     0
 42
2.8
  3
txt
  4

  0
STYLE
  5
74
330
3
100
AcDbSymbolTableRecord
100
AcDbTextStyleTableRecord
  2
SLDTEXTSTYLE0
 70
     0
 40
0.0
 41
0.75
 50
0.0
 71
     0
 42
2.8
  3
TXT
  4

  0
ENDTAB
  0
TABLE
  2
VIEW
  5
6
330
0
100
AcDbSymbolTable
 70
     0
  0
ENDTAB
  0
TABLE
  2
UCS
  5
7
330
0
100
AcDbSymbolTable
 70
     0
  0
ENDTAB
  0
TABLE
  2
APPID
  5
9
330
0
100
AcDbSymbolTable
 70
     1
  0
APPID
  5
12
330
9
100
AcDbSymbolTableRecord
100
AcDbRegAppTableRecord
  2
ACAD
 70
     0
  0
ENDTAB
  0
TABLE
  2
DIMSTYLE
  5
A
330
0
100
AcDbSymbolTable
 70
     1
100
AcDbDimStyleTable
  0
DIMSTYLE
105
27
330
A
100
AcDbSymbolTableRecord
100
AcDbDimStyleTableRecord
  2
ISO-25
 70
     0
 41
2.5
 42
0.625
 43
3.75
 44
1.25
 73
     0
 74
     0
 77
     1
 78
     8
140
2.5
141
2.5
143
0.0393700787
147
0.625
171
     3
172
     1
178
     0
271
     2
272
     2
274
     3
278
    44
283
     0
284
     8
340
11
  0
ENDTAB
  0
TABLE
  2
BLOCK_RECORD
  5
1
330
0
100
AcDbSymbolTable
 70
     7
  0
BLOCK_RECORD
  5
1F
330
1
100
AcDbSymbolTableRecord
100
AcDbBlockTableRecord
  2
*Model_Space
340
22
  0
BLOCK_RECORD
  5
1B
330
1
100
AcDbSymbolTableRecord
100
AcDbBlockTableRecord
  2
*Paper_Space
340
1E
  0
BLOCK_RECORD
  5
23
330
1
100
AcDbSymbolTableRecord
100
AcDbBlockTableRecord
  2
*Paper_Space0
340
26
  0
BLOCK_RECORD
  5
FA
330
1
100
AcDbSymbolTableRecord
100
AcDbBlockTableRecord
  2
SW_CENTERMARKSYMBOL_0
340
0
102
{BLKREFS
331
0
102
}
  0
BLOCK_RECORD
  5
106
330
1
100
AcDbSymbolTableRecord
100
AcDbBlockTableRecord
  2
SW_CENTERMARKSYMBOL_1
340
0
102
{BLKREFS
331
0
102
}
  0
BLOCK_RECORD
  5
686
330
1
100
AcDbSymbolTableRecord
100
AcDbBlockTableRecord
  2
SW_CENTERMARKSYMBOL_2
340
0
102
{BLKREFS
331
0
102
}
  0
BLOCK_RECORD
  5
692
330
1
100
AcDbSymbolTableRecord
100
AcDbBlockTableRecord
  2
SW_CENTERMARKSYMBOL_3
340
0
102
{BLKREFS
331
0
102
}
  0
BLOCK_RECORD
  5
D05
330
1
100
AcDbSymbolTableRecord
100
AcDbBlockTableRecord
  2
SW_CENTERMARKSYMBOL_4
340
0
102
{BLKREFS
331
D10
102
}
  0
BLOCK_RECORD
  5
D11
330
1
100
AcDbSymbolTableRecord
100
AcDbBlockTableRecord
  2
SW_CENTERMARKSYMBOL_5
340
0
102
{BLKREFS
331
D1C
102
}
  0
ENDTAB
  0
ENDSEC
  0
SECTION
  2
BLOCKS
  0
BLOCK
  5
20
330
1F
100
AcDbEntity
  8
0
100
AcDbBlockBegin
  2
*Model_Space
 70
     0
 10
0.0
 20
0.0
 30
0.0
  3
*Model_Space
  1

  0
ENDBLK
  5
21
330
1F
100
AcDbEntity
  8
0
100
AcDbBlockEnd
  0
BLOCK
  5
1C
330
1B
100
AcDbEntity
 67
     1
  8
0
100
AcDbBlockBegin
  2
*Paper_Space
 70
     0
 10
0.0
 20
0.0
 30
0.0
  3
*Paper_Space
  1

  0
ENDBLK
  5
1D
330
1B
100
AcDbEntity
 67
     1
  8
0
100
AcDbBlockEnd
  0
BLOCK
  5
24
330
23
100
AcDbEntity
  8
0
100
AcDbBlockBegin
  2
*Paper_Space0
 70
     0
 10
0.0
 20
0.0
 30
0.0
  3
*Paper_Space0
  1

  0
ENDBLK
  5
25
330
23
100
AcDbEntity
  8
0
100
AcDbBlockEnd
  0
BLOCK
  5
FB
330
FA
100
AcDbEntity
  8
0
100
AcDbBlockBegin
  2
SW_CENTERMARKSYMBOL_0
 70
     0
 10
0.0
 20
0.0
 30
0.0
  3
SW_CENTERMARKSYMBOL_0
  1

  0
LINE
  5
FD
330
FA
100
AcDbEntity
  8
0
  6
Continuous
 62
     0
370
     0
100
AcDbLine
 10
0.0
 20
0.0
 30
0.0
 11
0.0
 21
2.5
 31
0.0
  0
LINE
  5
FE
330
FA
100
AcDbEntity
  8
0
  6
Continuous
 62
     0
370
     0
100
AcDbLine
 10
0.0
 20
0.0
 30
0.0
 11
-2.5
 21
0.0
 31
0.0
  0
LINE
  5
FF
330
FA
100
AcDbEntity
  8
0
  6
Continuous
 62
     0
370
     0
100
AcDbLine
 10
0.0
 20
0.0
 30
0.0
 11
0.0
 21
-2.5
 31
0.0
  0
LINE
  5
100
330
FA
100
AcDbEntity
  8
0
  6
Continuous
 62
     0
370
     0
100
AcDbLine
 10
0.0
 20
0.0
 30
0.0
 11
2.5
 21
0.0
 31
0.0
  0
LINE
  5
101
330
FA
100
AcDbEntity
  8
0
  6
Continuous
 62
     0
370
     0
100
AcDbLine
 10
0.0
 20
5.0
 30
0.0
 11
0.0
 21
23.5
 31
0.0
  0
LINE
  5
102
330
FA
100
AcDbEntity
  8
0
  6
Continuous
 62
     0
370
     0
100
AcDbLine
 10
-5.0
 20
0.0
 30
0.0
 11
-23.5
 21
0.0
 31
0.0
  0
LINE
  5
103
330
FA
100
AcDbEntity
  8
0
  6
Continuous
 62
     0
370
     0
100
AcDbLine
 10
0.0
 20
-5.0
 30
0.0
 11
0.0
 21
-23.5
 31
0.0
  0
LINE
  5
104
330
FA
100
AcDbEntity
  8
0
  6
Continuous
 62
     0
370
     0
100
AcDbLine
 10
5.0
 20
0.0
 30
0.0
 11
23.5
 21
0.0
 31
0.0
  0
ENDBLK
  5
FC
330
FA
100
AcDbEntity
  8
0
100
AcDbBlockEnd
  0
BLOCK
  5
107
330
106
100
AcDbEntity
  8
0
100
AcDbBlockBegin
  2
SW_CENTERMARKSYMBOL_1
 70
     0
 10
0.0
 20
0.0
 30
0.0
  3
SW_CENTERMARKSYMBOL_1
  1

  0
LINE
  5
109
330
106
100
AcDbEntity
  8
0
  6
Continuous
 62
     0
370
     0
100
AcDbLine
 10
0.0
 20
0.0
 30
0.0
 11
0.0
 21
2.5
 31
0.0
  0
LINE
  5
10A
330
106
100
AcDbEntity
  8
0
  6
Continuous
 62
     0
370
     0
100
AcDbLine
 10
0.0
 20
0.0
 30
0.0
 11
-2.5
 21
0.0
 31
0.0
  0
LINE
  5
10B
330
106
100
AcDbEntity
  8
0
  6
Continuous
 62
     0
370
     0
100
AcDbLine
 10
0.0
 20
0.0
 30
0.0
 11
0.0
 21
-2.5
 31
0.0
  0
LINE
  5
10C
330
106
100
AcDbEntity
  8
0
  6
Continuous
 62
     0
370
     0
100
AcDbLine
 10
0.0
 20
0.0
 30
0.0
 11
2.5
 21
0.0
 31
0.0
  0
LINE
  5
10D
330
106
100
AcDbEntity
  8
0
  6
Continuous
 62
     0
370
     0
100
AcDbLine
 10
0.0
 20
5.0
 30
0.0
 11
0.0
 21
23.5
 31
0.0
  0
LINE
  5
10E
330
106
100
AcDbEntity
  8
0
  6
Continuous
 62
     0
370
     0
100
AcDbLine
 10
-5.0
 20
0.0
 30
0.0
 11
-23.5
 21
0.0
 31
0.0
  0
LINE
  5
10F
330
106
100
AcDbEntity
  8
0
  6
Continuous
 62
     0
370
     0
100
AcDbLine
 10
0.0
 20
-5.0
 30
0.0
 11
0.0
 21
-23.5
 31
0.0
  0
LINE
  5
110
330
106
100
AcDbEntity
  8
0
  6
Continuous
 62
     0
370
     0
100
AcDbLine
 10
5.0
 20
0.0
 30
0.0
 11
23.5
 21
0.0
 31
0.0
  0
ENDBLK
  5
108
330
106
100
AcDbEntity
  8
0
100
AcDbBlockEnd
  0
BLOCK
  5
687
330
686
100
AcDbEntity
  8
0
100
AcDbBlockBegin
  2
SW_CENTERMARKSYMBOL_2
 70
     0
 10
0.0
 20
0.0
 30
0.0
  3
SW_CENTERMARKSYMBOL_2
  1

  0
LINE
  5
689
330
686
100
AcDbEntity
  8
0
  6
Continuous
 62
     0
370
     0
100
AcDbLine
 10
0.0
 20
0.0
 30
0.0
 11
0.0
 21
2.5
 31
0.0
  0
LINE
  5
68A
330
686
100
AcDbEntity
  8
0
  6
Continuous
 62
     0
370
     0
100
AcDbLine
 10
0.0
 20
0.0
 30
0.0
 11
-2.5
 21
0.0
 31
0.0
  0
LINE
  5
68B
330
686
100
AcDbEntity
  8
0
  6
Continuous
 62
     0
370
     0
100
AcDbLine
 10
0.0
 20
0.0
 30
0.0
 11
0.0
 21
-2.5
 31
0.0
  0
LINE
  5
68C
330
686
100
AcDbEntity
  8
0
  6
Continuous
 62
     0
370
     0
100
AcDbLine
 10
0.0
 20
0.0
 30
0.0
 11
2.5
 21
0.0
 31
0.0
  0
LINE
  5
68D
330
686
100
AcDbEntity
  8
0
  6
Continuous
 62
     0
370
     0
100
AcDbLine
 10
0.0
 20
5.0
 30
0.0
 11
0.0
 21
23.5
 31
0.0
  0
LINE
  5
68E
330
686
100
AcDbEntity
  8
0
  6
Continuous
 62
     0
370
     0
100
AcDbLine
 10
-5.0
 20
0.0
 30
0.0
 11
-23.5
 21
0.0
 31
0.0
  0
LINE
  5
68F
330
686
100
AcDbEntity
  8
0
  6
Continuous
 62
     0
370
     0
100
AcDbLine
 10
0.0
 20
-5.0
 30
0.0
 11
0.0
 21
-23.5
 31
0.0
  0
LINE
  5
690
330
686
100
AcDbEntity
  8
0
  6
Continuous
 62
     0
370
     0
100
AcDbLine
 10
5.0
 20
0.0
 30
0.0
 11
23.5
 21
0.0
 31
0.0
  0
ENDBLK
  5
688
330
686
100
AcDbEntity
  8
0
100
AcDbBlockEnd
  0
BLOCK
  5
693
330
692
100
AcDbEntity
  8
0
100
AcDbBlockBegin
  2
SW_CENTERMARKSYMBOL_3
 70
     0
 10
0.0
 20
0.0
 30
0.0
  3
SW_CENTERMARKSYMBOL_3
  1

  0
LINE
  5
695
330
692
100
AcDbEntity
  8
0
  6
Continuous
 62
     0
370
     0
100
AcDbLine
 10
0.0
 20
0.0
 30
0.0
 11
0.0
 21
2.5
 31
0.0
  0
LINE
  5
696
330
692
100
AcDbEntity
  8
0
  6
Continuous
 62
     0
370
     0
100
AcDbLine
 10
0.0
 20
0.0
 30
0.0
 11
-2.5
 21
0.0
 31
0.0
  0
LINE
  5
697
330
692
100
AcDbEntity
  8
0
  6
Continuous
 62
     0
370
     0
100
AcDbLine
 10
0.0
 20
0.0
 30
0.0
 11
0.0
 21
-2.5
 31
0.0
  0
LINE
  5
698
330
692
100
AcDbEntity
  8
0
  6
Continuous
 62
     0
370
     0
100
AcDbLine
 10
0.0
 20
0.0
 30
0.0
 11
2.5
 21
0.0
 31
0.0
  0
LINE
  5
699
330
692
100
AcDbEntity
  8
0
  6
Continuous
 62
     0
370
     0
100
AcDbLine
 10
0.0
 20
5.0
 30
0.0
 11
0.0
 21
23.5
 31
0.0
  0
LINE
  5
69A
330
692
100
AcDbEntity
  8
0
  6
Continuous
 62
     0
370
     0
100
AcDbLine
 10
-5.0
 20
0.0
 30
0.0
 11
-23.5
 21
0.0
 31
0.0
  0
LINE
  5
69B
330
692
100
AcDbEntity
  8
0
  6
Continuous
 62
     0
370
     0
100
AcDbLine
 10
0.0
 20
-5.0
 30
0.0
 11
0.0
 21
-23.5
 31
0.0
  0
LINE
  5
69C
330
692
100
AcDbEntity
  8
0
  6
Continuous
 62
     0
370
     0
100
AcDbLine
 10
5.0
 20
0.0
 30
0.0
 11
23.5
 21
0.0
 31
0.0
  0
ENDBLK
  5
694
330
692
100
AcDbEntity
  8
0
100
AcDbBlockEnd
  0
BLOCK
  5
D06
330
D05
100
AcDbEntity
  8
0
100
AcDbBlockBegin
  2
SW_CENTERMARKSYMBOL_4
 70
     0
 10
0.0
 20
0.0
 30
0.0
  3
SW_CENTERMARKSYMBOL_4
  1

  0
LINE
  5
D08
330
D05
100
AcDbEntity
  8
0
  6
Continuous
 62
     0
370
     0
100
AcDbLine
 10
0.0
 20
0.0
 30
0.0
 11
0.0
 21
2.5
 31
0.0
  0
LINE
  5
D09
330
D05
100
AcDbEntity
  8
0
  6
Continuous
 62
     0
370
     0
100
AcDbLine
 10
0.0
 20
0.0
 30
0.0
 11
-2.5
 21
0.0
 31
0.0
  0
LINE
  5
D0A
330
D05
100
AcDbEntity
  8
0
  6
Continuous
 62
     0
370
     0
100
AcDbLine
 10
0.0
 20
0.0
 30
0.0
 11
0.0
 21
-2.5
 31
0.0
  0
LINE
  5
D0B
330
D05
100
AcDbEntity
  8
0
  6
Continuous
 62
     0
370
     0
100
AcDbLine
 10
0.0
 20
0.0
 30
0.0
 11
2.5
 21
0.0
 31
0.0
  0
LINE
  5
D0C
330
D05
100
AcDbEntity
  8
0
  6
Continuous
 62
     0
370
     0
100
AcDbLine
 10
0.0
 20
5.0
 30
0.0
 11
0.0
 21
10.5
 31
0.0
  0
LINE
  5
D0D
330
D05
100
AcDbEntity
  8
0
  6
Continuous
 62
     0
370
     0
100
AcDbLine
 10
-5.0
 20
0.0
 30
0.0
 11
-10.5
 21
0.0
 31
0.0
  0
LINE
  5
D0E
330
D05
100
AcDbEntity
  8
0
  6
Continuous
 62
     0
370
     0
100
AcDbLine
 10
0.0
 20
-5.0
 30
0.0
 11
0.0
 21
-10.5
 31
0.0
  0
LINE
  5
D0F
330
D05
100
AcDbEntity
  8
0
  6
Continuous
 62
     0
370
     0
100
AcDbLine
 10
5.0
 20
0.0
 30
0.0
 11
10.5
 21
0.0
 31
0.0
  0
ENDBLK
  5
D07
330
D05
100
AcDbEntity
  8
0
100
AcDbBlockEnd
  0
BLOCK
  5
D12
330
D11
100
AcDbEntity
  8
0
100
AcDbBlockBegin
  2
SW_CENTERMARKSYMBOL_5
 70
     0
 10
0.0
 20
0.0
 30
0.0
  3
SW_CENTERMARKSYMBOL_5
  1

  0
LINE
  5
D14
330
D11
100
AcDbEntity
  8
0
  6
Continuous
 62
     0
370
     0
100
AcDbLine
 10
0.0
 20
0.0
 30
0.0
 11
0.0
 21
2.5
 31
0.0
  0
LINE
  5
D15
330
D11
100
AcDbEntity
  8
0
  6
Continuous
 62
     0
370
     0
100
AcDbLine
 10
0.0
 20
0.0
 30
0.0
 11
-2.5
 21
0.0
 31
0.0
  0
LINE
  5
D16
330
D11
100
AcDbEntity
  8
0
  6
Continuous
 62
     0
370
     0
100
AcDbLine
 10
0.0
 20
0.0
 30
0.0
 11
0.0
 21
-2.5
 31
0.0
  0
LINE
  5
D17
330
D11
100
AcDbEntity
  8
0
  6
Continuous
 62
     0
370
     0
100
AcDbLine
 10
0.0
 20
0.0
 30
0.0
 11
2.5
 21
0.0
 31
0.0
  0
LINE
  5
D18
330
D11
100
AcDbEntity
  8
0
  6
Continuous
 62
     0
370
     0
100
AcDbLine
 10
0.0
 20
5.0
 30
0.0
 11
0.0
 21
10.5
 31
0.0
  0
LINE
  5
D19
330
D11
100
AcDbEntity
  8
0
  6
Continuous
 62
     0
370
     0
100
AcDbLine
 10
-5.0
 20
0.0
 30
0.0
 11
-10.5
 21
0.0
 31
0.0
  0
LINE
  5
D1A
330
D11
100
AcDbEntity
  8
0
  6
Continuous
 62
     0
370
     0
100
AcDbLine
 10
0.0
 20
-5.0
 30
0.0
 11
0.0
 21
-10.5
 31
0.0
  0
LINE
  5
D1B
330
D11
100
AcDbEntity
  8
0
  6
Continuous
 62
     0
370
     0
100
AcDbLine
 10
5.0
 20
0.0
 30
0.0
 11
10.5
 21
0.0
 31
0.0
  0
ENDBLK
  5
D13
330
D11
100
AcDbEntity
  8
0
100
AcDbBlockEnd
  0
ENDSEC
  0
SECTION
  2
ENTITIES
  0
MTEXT
  5
77
330
1F
100
AcDbEntity
  8
0
  6
Continuous
 62
     7
370
     0
100
AcDbMText
 10
1330.8838272784
 20
400.8739068571
 30
0.0
 40
12.7
 41
0.0
 71
     1
 72
     1
  1
684W50
  7
SLDTEXTSTYLE0
 73
     1
 44
1.0
  0
SPLINE
  5
B53
330
1F
100
AcDbEntity
  8
0
  6
Continuous
 62
     7
370
    25
100
AcDbSpline
210
0.0
220
0.0
230
1.0
 70
     8
 71
     3
 72
    47
 73
    43
 74
     0
 42
0.000000001
 43
0.00000001
 40
0.0
 40
0.0
 40
0.0
 40
0.0
 40
0.0138526500421738
 40
0.0394598671309554
 40
0.0650852757992583
 40
0.0907339473215805
 40
0.1163803618679603
 40
0.142011686839383
 40
0.1676207111782407
 40
0.1932040976294993
 40
0.2187613781201384
 40
0.2442941429218676
 40
0.2698054212523814
 40
0.2952992263040073
 40
0.320780230532262
 40
0.3462535381906062
 40
0.3717245263208139
 40
0.3971986167239497
 40
0.4226796677488391
 40
0.4481732897095852
 40
0.4736850083094253
 40
0.4992201441230598
 40
0.5247836443430886
 40
0.5503798400301978
 40
0.5760120970759954
 40
0.6016823234211662
 40
0.627390292026533
 40
0.6531327440233993
 40
0.6789022587976329
 40
0.7046844215012495
 40
0.7304527619982084
 40
0.7561768773852813
 40
0.7818182812410558
 40
0.8073320825077793
 40
0.8326707780785683
 40
0.8577900678032483
 40
0.882655760088092
 40
0.9072501400404887
 40
0.9315761301528358
 40
0.9556582971374953
 40
0.9795408056254042
 40
0.9999999999999999
 40
0.9999999999999999
 40
0.9999999999999999
 40
0.9999999999999999
 10
1358.954522849598
 20
40.94446013394116
 30
0.0
 10
1359.220254804848
 20
41.0806514877799
 30
0.0
 10
1359.977203664068
 20
41.46859839400366
 30
0.0
 10
1361.214323689741
 20
42.19027909385717
 30
0.0
 10
1362.65690835704
 20
43.13820753847873
 30
0.0
 10
1364.076606161694
 20
44.18530544918301
 30
0.0
 10
1365.468796439654
 20
45.32520267421965
 30
0.0
 10
1366.828379616349
 20
46.55329387914941
 30
0.0
 10
1368.150741165474
 20
47.86426983661845
 30
0.0
 10
1369.43149689668
 20
49.25286794240209
 30
0.0
 10
1370.66646672224
 20
50.71365468488932
 30
0.0
 10
1371.851641824304
 20
52.24108615422873
 30
0.0
 10
1372.983170445131
 20
53.82949332413459
 30
0.0
 10
1374.057350358868
 20
55.47308860459348
 30
0.0
 10
1375.070628232398
 20
57.16597002990752
 30
0.0
 10
1376.019602912585
 20
58.90213015998019
 30
0.0
 10
1376.901029624764
 20
60.67546502815578
 30
0.0
 10
1377.711809441352
 20
62.47974956392375
 30
0.0
 10
1378.449021376367
 20
64.3086927116877
 30
0.0
 10
1379.109928771291
 20
66.1559597455918
 30
0.0
 10
1379.691991665585
 20
68.01523076384049
 30
0.0
 10
1380.192848460349
 20
69.88017416469512
 30
0.0
 10
1380.610314071923
 20
71.74445797934791
 30
0.0
 10
1380.942376629515
 20
73.60175607339629
 30
0.0
 10
1381.187193908343
 20
75.44574701912626
 30
0.0
 10
1381.34309167451
 20
77.2701033137683
 30
0.0
 10
1381.408567450033
 20
79.06846880100504
 30
0.0
 10
1381.382304892381
 20
80.83442306162435
 30
0.0
 10
1381.26320814008
 20
82.5613999985095
 30
0.0
 10
1381.050484162923
 20
84.24252515170494
 30
0.0
 10
1380.743763815738
 20
85.87067711874703
 30
0.0
 10
1380.34323789206
 20
87.43851532641261
 30
0.0
 10
1379.849776174039
 20
88.93863250092005
 30
0.0
 10
1379.265087062014
 20
90.36360365796062
 30
0.0
 10
1378.591825041328
 20
91.70622689450623
 30
0.0
 10
1377.833586075064
 20
92.95978313368474
 30
0.0
 10
1376.994863355007
 20
94.11845021527591
 30
0.0
 10
1376.080603065162
 20
95.17707166595335
 30
0.0
 10
1375.096753068213
 20
96.13288420974081
 30
0.0
 10
1374.04690816739
 20
96.97941138697485
 30
0.0
 10
1372.993872117836
 20
97.6942184958037
 30
0.0
 10
1372.264640545922
 20
98.07334574286236
 30
0.0
 10
1371.928174205869
 20
98.24827447900789
 30
0.0
  0
LINE
  5
B54
330
1F
100
AcDbEntity
  8
0
  6
Continuous
 62
     7
370
    25
100
AcDbLine
 10
1371.9237153869
 20
98.2585748536
 30
0.0
 11
1368.7417348716
 21
99.8495651113
 31
0.0
  0
ARC
  5
B55
330
1F
100
AcDbEntity
  8
0
  6
Continuous
 62
     7
370
    25
100
AcDbCircle
 10
1329.1050037925
 20
29.9328170206
 30
0.0
 40
3.500000000000007
100
AcDbArc
 50
243.4349488229
 51
296.5650553022001
  0
LINE
  5
B56
330
1F
100
AcDbEntity
  8
0
  6
Continuous
 62
     7
370
    25
100
AcDbLine
 10
1330.6702516021
 20
26.8023219647
 30
0.0
 11
1358.9545228496
 21
40.9444601339
 31
0.0
  0
LINE
  5
B57
330
1F
100
AcDbEntity
  8
0
  6
Continuous
 62
     7
370
    25
100
AcDbLine
 10
1324.3577756929
 20
28.3933121097
 30
0.0
 11
1327.5397562083
 21
26.8023218521
 31
0.0
  0
ARC
  5
B58
330
1F
100
AcDbEntity
  8
0
  6
Continuous
 62
     7
370
    25
100
AcDbCircle
 10
1318.6398204173
 20
96.7085886312
 30
0.0
 40
3.500000000000234
100
AcDbArc
 50
116.5650553022
 51
180.0000034376
  0
LINE
  5
B59
330
1F
100
AcDbEntity
  8
0
  6
Continuous
 62
     7
370
    25
100
AcDbLine
 10
1315.1398204173
 20
96.7085884212
 30
0.0
 11
1315.1398210278
 21
86.532790232
 31
0.0
  0
LINE
  5
B5A
330
1F
100
AcDbEntity
  8
0
  6
Continuous
 62
     7
370
    25
100
AcDbLine
 10
1334.0451353562
 20
108.3243665885
 30
0.0
 11
1317.0745726077
 21
99.839083687
 31
0.0
  0
LINE
  5
B5B
330
1F
100
AcDbEntity
  8
0
  6
Continuous
 62
     7
370
    25
100
AcDbLine
 10
1362.5191951971
 20
102.9608349485
 30
0.0
 11
1350.1448265264
 21
109.1480192839
 31
0.0
  0
SPLINE
  5
B5C
330
1F
100
AcDbEntity
  8
0
  6
Continuous
 62
     7
370
    25
100
AcDbSpline
210
0.0
220
0.0
230
1.0
 70
     8
 71
     3
 72
    20
 73
    16
 74
     0
 42
0.000000001
 43
0.00000001
 40
0.0
 40
0.0
 40
0.0
 40
0.0
 40
0.014838140842255
 40
0.0974892283439296
 40
0.1800972543546084
 40
0.2628876838554356
 40
0.3460989374997394
 40
0.4299325183984199
 40
0.5145377139526
 40
0.6000005397764177
 40
0.6863391576364856
 40
0.7735075645197004
 40
0.861407698108572
 40
0.9499077178675129
 40
1.0
 40
1.0
 40
1.0
 40
1.0
 10
1350.196501170405
 20
109.1120807924569
 30
0.0
 10
1350.127522505499
 20
109.150092387772
 30
0.0
 10
1349.674320390393
 20
109.3998353397221
 30
0.0
 10
1348.784213898232
 20
109.7568288809616
 30
0.0
 10
1347.53176442379
 20
110.1736248841612
 30
0.0
 10
1346.233640507829
 20
110.4686336137948
 30
0.0
 10
1344.899998965333
 20
110.6535567110386
 30
0.0
 10
1343.532611905795
 20
110.7243309016253
 30
0.0
 10
1342.135631653508
 20
110.6809984020326
 30
0.0
 10
1340.713027771227
 20
110.5225662313125
 30
0.0
 10
1339.269540347075
 20
110.2484838811952
 30
0.0
 10
1337.810425449767
 20
109.8592781987451
 30
0.0
 10
1336.341848666658
 20
109.3539306928497
 30
0.0
 10
1335.084830914461
 20
108.8308196717954
 30
0.0
 10
1334.321155379246
 20
108.4588205549885
 30
0.0
 10
1334.045135356159
 20
108.3243665885141
 30
0.0
  0
LINE
  5
B5D
330
1F
100
AcDbEntity
  8
0
  6
Continuous
 62
     7
370
    25
100
AcDbLine
 10
1317.0745758467
 20
43.34862155
 30
0.0
 11
1323.4481489505
 21
40.1618349981
 31
0.0
  0
LINE
  5
B5E
330
1F
100
AcDbEntity
  8
0
  6
Continuous
 62
     7
370
    25
100
AcDbLine
 10
1315.1398228383
 20
56.3573758644
 30
0.0
 11
1315.1398234309
 21
46.4791165085
 31
0.0
  0
ARC
  5
B5F
330
1F
100
AcDbEntity
  8
0
  6
Continuous
 62
     7
370
    25
100
AcDbCircle
 10
1318.6398234309
 20
46.4791167185
 30
0.0
 40
3.500000000000006
100
AcDbArc
 50
180.0000034376
 51
243.4349488229
  0
SPLINE
  5
B60
330
1F
100
AcDbEntity
  8
0
  6
Continuous
 62
     7
370
    25
100
AcDbSpline
210
0.0
220
0.0
230
1.0
 70
     8
 71
     3
 72
    11
 73
     7
 74
     0
 42
0.000000001
 43
0.00000001
 40
0.0
 40
0.0
 40
0.0
 40
0.0
 40
0.1770990433699794
 40
0.4721439834345771
 40
0.7713814692163369
 40
1.0
 40
1.0
 40
1.0
 40
1.0
 10
1325.564133882655
 20
75.05989712253972
 30
0.0
 10
1325.510645222706
 20
75.02840355704502
 30
0.0
 10
1325.368045079326
 20
74.94444207886717
 30
0.0
 10
1325.21890670478
 20
74.71041223080316
 30
0.0
 10
1325.124050440337
 20
74.43562630473929
 30
0.0
 10
1325.114662487011
 20
74.24260482428585
 30
0.0
 10
1325.110596491684
 20
74.15900572550494
 30
0.0
  0
SPLINE
  5
B61
330
1F
100
AcDbEntity
  8
0
  6
Continuous
 62
     7
370
    25
100
AcDbSpline
210
0.0
220
0.0
230
1.0
 70
     8
 71
     3
 72
    15
 73
    11
 74
     0
 42
0.000000001
 43
0.00000001
 40
0.0
 40
0.0
 40
0.0
 40
0.0
 40
0.0823341184786172
 40
0.2254208796387406
 40
0.369132154774397
 40
0.5152663722784178
 40
0.6660174869290529
 40
0.7970405558690262
 40
0.9194366130475221
 40
1.0
 40
1.0
 40
1.0
 40
1.0
 10
1325.110596491684
 20
74.15900572550494
 30
0.0
 10
1325.113911071045
 20
74.08396017623602
 30
0.0
 10
1325.122985989305
 20
73.87849451944918
 30
0.0
 10
1325.215838250829
 20
73.53409694254692
 30
0.0
 10
1325.404128966407
 20
73.15411708828435
 30
0.0
 10
1325.668272818695
 20
72.82280017513487
 30
0.0
 10
1325.978697946709
 20
72.58223975678604
 30
0.0
 10
1326.306791888514
 20
72.45561238283426
 30
0.0
 10
1326.599476988976
 20
72.42642170040935
 30
0.0
 10
1326.763486020965
 20
72.48571946200006
 30
0.0
 10
1326.828588303661
 20
72.50925730983418
 30
0.0
  0
LINE
  5
B62
330
1F
100
AcDbEntity
  8
0
  6
Continuous
 62
     7
370
    25
100
AcDbLine
 10
1325.6462082306
 20
75.1311725026
 30
0.0
 11
1325.5498352338
 21
75.0688392527
 31
0.0
  0
SPLINE
  5
B63
330
1F
100
AcDbEntity
  8
0
  6
Continuous
 62
     7
370
    25
100
AcDbSpline
210
0.0
220
0.0
230
1.0
 70
     8
 71
     3
 72
    11
 73
     7
 74
     0
 42
0.000000001
 43
0.00000001
 40
0.0
 40
0.0
 40
0.0
 40
0.0
 40
0.177099043369877
 40
0.4721439834344754
 40
0.771381469216245
 40
1.0
 40
1.0
 40
1.0
 40
1.0
 10
1325.564136220812
 20
36.08875512131794
 30
0.0
 10
1325.510647560862
 20
36.05726155582325
 30
0.0
 10
1325.368047417483
 20
35.97330007764545
 30
0.0
 10
1325.218909042936
 20
35.73927022958147
 30
0.0
 10
1325.124052778493
 20
35.46448430351755
 30
0.0
 10
1325.114664825167
 20
35.27146282306411
 30
0.0
 10
1325.110598829841
 20
35.18786372428318
 30
0.0
  0
SPLINE
  5
B64
330
1F
100
AcDbEntity
  8
0
  6
Continuous
 62
     7
370
    25
100
AcDbSpline
210
0.0
220
0.0
230
1.0
 70
     8
 71
     3
 72
    15
 73
    11
 74
     0
 42
0.000000001
 43
0.00000001
 40
0.0
 40
0.0
 40
0.0
 40
0.0
 40
0.082334118478618
 40
0.2254208796387428
 40
0.3691321547744035
 40
0.5152663722784202
 40
0.6660174869290564
 40
0.7970405558690276
 40
0.919436613047524
 40
1.0
 40
1.0
 40
1.0
 40
1.0
 10
1325.110598829841
 20
35.18786372428318
 30
0.0
 10
1325.113913409202
 20
35.11281817501424
 30
0.0
 10
1325.122988327462
 20
34.90735251822741
 30
0.0
 10
1325.215840588985
 20
34.56295494132517
 30
0.0
 10
1325.404131304563
 20
34.18297508706259
 30
0.0
 10
1325.668275156851
 20
33.85165817391312
 30
0.0
 10
1325.978700284865
 20
33.61109775556427
 30
0.0
 10
1326.30679422667
 20
33.48447038161251
 30
0.0
 10
1326.599479327132
 20
33.45527969918757
 30
0.0
 10
1326.763488359121
 20
33.51457746077828
 30
0.0
 10
1326.828590641818
 20
33.53811530861238
 30
0.0
  0
LINE
  5
B65
330
1F
100
AcDbEntity
  8
0
  6
Continuous
 62
     7
370
    25
100
AcDbLine
 10
1325.6462105688
 20
36.1600305014
 30
0.0
 11
1325.549837572
 21
36.0976972515
 31
0.0
  0
LINE
  5
B66
330
1F
100
AcDbEntity
  8
0
  6
Continuous
 62
     7
370
    25
100
AcDbLine
 10
1319.2647440951
 20
82.1702456915
 30
0.0
 11
1323.4481465556
 21
80.0785444613
 31
0.0
  0
SPLINE
  5
B67
330
1F
100
AcDbEntity
  8
0
  6
Continuous
 62
     7
370
    25
100
AcDbSpline
210
0.0
220
0.0
230
1.0
 70
     8
 71
     3
 72
     9
 73
     5
 74
     0
 42
0.000000001
 43
0.00000001
 40
0.0
 40
0.0
 40
0.0
 40
0.0
 40
0.2817382135031316
 40
1.0
 40
1.0
 40
1.0
 40
1.0
 10
1319.227475114632
 20
82.18728492892002
 30
0.0
 10
1319.224761493372
 20
82.18722630715634
 30
0.0
 10
1319.215129781624
 20
82.1870182354043
 30
0.0
 10
1319.244004493215
 20
82.1772568916878
 30
0.0
 10
1319.264744095147
 20
82.17024569151141
 30
0.0
  0
LINE
  5
B68
330
1F
100
AcDbEntity
  8
0
  6
Continuous
 62
     7
370
    25
100
AcDbLine
 10
1361.4573581627
 20
101.2967786903
 30
0.0
 11
1360.0431446003
 21
102.0038854715
 31
0.0
  0
ARC
  5
B69
330
1F
100
AcDbEntity
  8
0
  6
Continuous
 62
     7
370
    25
100
AcDbCircle
 10
1315.5335781714
 20
86.4514714818
 30
0.0
 40
0.4999999999998524
100
AcDbArc
 50
141.9538233055
 51
180.0
  0
LINE
  5
B6A
330
1F
100
AcDbEntity
  8
0
  6
Continuous
 62
     7
370
    25
100
AcDbLine
 10
1315.3099713737
 20
56.2183127802
 30
0.0
 11
1323.4481482313
 21
52.1492243514
 31
0.0
  0
SPLINE
  5
B6B
330
1F
100
AcDbEntity
  8
0
  6
Continuous
 62
     7
370
    25
100
AcDbSpline
210
0.0
220
0.0
230
1.0
 70
     8
 71
     3
 72
    11
 73
     7
 74
     0
 42
0.000000001
 43
0.00000001
 40
0.0
 40
0.0
 40
0.0
 40
0.0
 40
0.0392374311111535
 40
0.3805460685475165
 40
0.7221786911240938
 40
1.0
 40
1.0
 40
1.0
 40
1.0
 10
1319.434288395042
 20
68.07480352782602
 30
0.0
 10
1319.485508590725
 20
68.09019548783257
 30
0.0
 10
1319.982270064287
 20
68.23947513489054
 30
0.0
 10
1320.882360794354
 20
68.55825962079314
 30
0.0
 10
1322.028771992076
 20
69.01717262486568
 30
0.0
 10
1322.711797254917
 20
69.34648734454741
 30
0.0
 10
1323.018129918063
 20
69.49418298712662
 30
0.0
  0
LINE
  5
B6C
330
1F
100
AcDbEntity
  8
0
  6
Continuous
 62
     7
370
    25
100
AcDbLine
 10
1323.0181299181
 20
69.4941829871
 30
0.0
 11
1323.4481471778
 21
69.709191617
 31
0.0
  0
ARC
  5
B6D
330
1F
100
AcDbEntity
  8
0
  6
Continuous
 62
     7
370
    25
100
AcDbCircle
 10
1315.5335781714
 20
56.6655263757
 30
0.0
 40
0.5000000000000342
100
AcDbArc
 50
180.0
 51
243.4349488229
  0
ARC
  5
B6E
330
1F
100
AcDbEntity
  8
0
  6
Continuous
 62
     7
370
    25
100
AcDbCircle
 10
1326.5137702508
 20
78.8392691061
 30
0.0
 40
5.066827097757051
100
AcDbArc
 50
0.9678198033000001
 51
59.2421485629
  0
ARC
  5
B6F
330
1F
100
AcDbEntity
  8
0
  6
Continuous
 62
     7
370
    25
100
AcDbCircle
 10
1329.1050005275
 20
84.5102327636
 30
0.0
 40
6.109130771165003
100
AcDbArc
 50
246.1019434416
 51
293.8980617148001
  0
ARC
  5
B70
330
1F
100
AcDbEntity
  8
0
  6
Continuous
 62
     7
370
    25
100
AcDbCircle
 10
1331.6962310876
 20
78.8392694585
 30
0.0
 40
5.066826868748699
100
AcDbArc
 50
120.7578548782
 51
179.0321866577
  0
LINE
  5
B71
330
1F
100
AcDbEntity
  8
0
  6
Continuous
 62
     7
370
    25
100
AcDbLine
 10
1326.6301300583
 20
28.6953799308
 30
0.0
 11
1326.6301297855
 21
33.2428795363
 31
0.0
  0
SPLINE
  5
B72
330
1F
100
AcDbEntity
  8
0
  6
Continuous
 62
     7
370
    25
100
AcDbSpline
210
0.0
220
0.0
230
1.0
 70
     8
 71
     3
 72
    13
 73
     9
 74
     0
 42
0.000000001
 43
0.00000001
 40
0.0
 40
0.0
 40
0.0
 40
0.0
 40
0.1872033915711455
 40
0.3742863583766526
 40
0.5625967254382626
 40
0.7482885339020834
 40
0.9355603692582843
 40
1.0
 40
1.0
 40
1.0
 40
1.0
 10
1326.630129785512
 20
33.24287953629226
 30
0.0
 10
1326.724614148524
 20
33.3077987572039
 30
0.0
 10
1326.913522094361
 20
33.43759543759378
 30
0.0
 10
1327.081445189824
 20
33.82131425251103
 30
0.0
 10
1327.108106958455
 20
34.28098914095726
 30
0.0
 10
1326.983289197254
 20
34.77722700606642
 30
0.0
 10
1326.793649563693
 20
35.15645532638087
 30
0.0
 10
1326.663459169973
 20
35.35530383667685
 30
0.0
 10
1326.630129655718
 20
35.40621023667384
 30
0.0
  0
LINE
  5
B73
330
1F
100
AcDbEntity
  8
0
  6
Continuous
 62
     7
370
    25
100
AcDbLine
 10
1326.6301296557
 20
35.4062102367
 30
0.0
 11
1326.6301274474
 21
72.2140215375
 31
0.0
  0
SPLINE
  5
B74
330
1F
100
AcDbEntity
  8
0
  6
Continuous
 62
     7
370
    25
100
AcDbSpline
210
0.0
220
0.0
230
1.0
 70
     8
 71
     3
 72
    13
 73
     9
 74
     0
 42
0.000000001
 43
0.00000001
 40
0.0
 40
0.0
 40
0.0
 40
0.0
 40
0.1872033915711439
 40
0.3742863583766513
 40
0.5625967254382624
 40
0.748288533902082
 40
0.9355603692582842
 40
1.0
 40
1.0
 40
1.0
 40
1.0
 10
1326.630127447355
 20
72.21402153751377
 30
0.0
 10
1326.724611810368
 20
72.27894075842539
 30
0.0
 10
1326.913519756205
 20
72.4087374388153
 30
0.0
 10
1327.081442851668
 20
72.79245625373251
 30
0.0
 10
1327.108104620298
 20
73.25213114217877
 30
0.0
 10
1326.983286859098
 20
73.74836900728792
 30
0.0
 10
1326.793647225537
 20
74.12759732760236
 30
0.0
 10
1326.663456831817
 20
74.32644583789835
 30
0.0
 10
1326.630127317562
 20
74.37735223789535
 30
0.0
  0
LINE
  5
B75
330
1F
100
AcDbEntity
  8
0
  6
Continuous
 62
     7
370
    25
100
AcDbLine
 10
1326.6301273176
 20
74.3773522379
 30
0.0
 11
1326.6301270447
 21
78.9248518434
 31
0.0
  0
LINE
  5
B76
330
1F
100
AcDbEntity
  8
0
  6
Continuous
 62
     7
370
    25
100
AcDbLine
 10
1331.579874513
 20
78.9248520662
 30
0.0
 11
1331.5798775267
 21
28.6953801535
 31
0.0
  0
ARC
  5
B77
330
1F
100
AcDbEntity
  8
0
  6
Continuous
 62
     7
370
    25
100
AcDbCircle
 10
1329.1050035412
 20
34.2807608509
 30
0.0
 40
6.109130771165185
100
AcDbArc
 50
246.1019434416
 51
293.8980617148001
  0
LINE
  5
B78
330
1F
100
AcDbEntity
  8
0
  6
Continuous
 62
     7
370
    25
100
AcDbLine
 10
1359.8641457605
 20
93.0669902354
 30
0.0
 11
1331.579874513
 21
78.9248520662
 31
0.0
  0
LINE
  5
B79
330
1F
100
AcDbEntity
  8
0
  6
Continuous
 62
     7
370
    25
100
AcDbLine
 10
1329.105000597
 20
83.1933777556
 30
0.0
 11
1357.3892718445
 21
97.3355159248
 31
0.0
  0
ARC
  5
B7A
330
1F
100
AcDbEntity
  8
0
  6
Continuous
 62
     7
370
    25
100
AcDbCircle
 10
1354.7980414983
 20
92.9814072753
 30
0.0
 40
5.066827097756917
100
AcDbArc
 50
0.9678198033000001
 51
59.2421485629
  0
LINE
  5
B7B
330
1F
100
AcDbEntity
  8
0
  6
Continuous
 62
     7
370
    25
100
AcDbLine
 10
1325.9230200817
 20
84.7843680132
 30
0.0
 11
1329.105000597
 21
83.1933777556
 31
0.0
  0
LINE
  5
B7C
330
1F
100
AcDbEntity
  8
0
  6
Continuous
 62
     7
370
    25
100
AcDbLine
 10
1326.6301270447
 20
78.9248518434
 30
0.0
 11
1323.4481465294
 21
80.5158421011
 31
0.0
  0
ARC
  5
B7D
330
1F
100
AcDbEntity
  8
0
  6
Continuous
 62
     7
370
    25
100
AcDbCircle
 10
1328.5142505723
 20
80.4302597162
 30
0.0
 40
5.066826868748701
100
AcDbArc
 50
120.7578548782
 51
179.0321866577
  0
LINE
  5
B7E
330
1F
100
AcDbEntity
  8
0
  6
Continuous
 62
     7
370
    25
100
AcDbLine
 10
1331.5798775267
 20
28.6953801535
 30
0.0
 11
1359.8641487741
 21
42.8375183227
 31
0.0
  0
LWPOLYLINE
  5
B7F
330
1F
100
AcDbEntity
  8
0
  6
Continuous
 62
     7
370
    25
100
AcDbPolyline
 90
       47
 70
   128
 43
0.0
 10
1359.8641487741
 20
42.8375183227
 10
1361.263534295
 20
43.595759457
 10
1362.6563952276
 20
44.4675618137
 10
1364.0362374112
 20
45.4488606476
 10
1365.3966273846
 20
46.5350806906
 10
1366.7312223819
 20
47.7211574834
 10
1368.033799905
 20
49.0015609886
 10
1369.2982867362
 20
50.3703213738
 10
1370.5187872543
 20
51.8210568465
 10
1371.6896109223
 20
53.347003408
 10
1372.8052988199
 20
54.9410463912
 10
1373.8606490951
 20
56.5957536317
 10
1374.8507412178
 20
58.3034101206
 10
1375.7709589213
 20
60.0560539751
 10
1376.6170117261
 20
61.8455135605
 10
1377.3849549433
 20
63.66344559
 10
1378.0712080671
 20
65.5013740255
 10
1378.6725714688
 20
67.3507295961
 10
1379.1862413145
 20
69.2028897524
 10
1379.6098226384
 20
71.0492188688
 10
1379.9413405087
 20
72.8811085067
 10
1380.1792492361
 20
74.690017551
 10
1380.3224395802
 20
76.4675120325
 10
1380.3702439217
 20
78.2053044517
 10
1380.3224393746
 20
79.8952924179
 10
1380.1792488257
 20
81.5295964272
 10
1379.9413398955
 20
83.1005965998
 10
1379.6098218253
 20
84.6009682078
 10
1379.1862403053
 20
86.0237158261
 10
1378.6725702682
 20
87.3622059485
 10
1378.0712066807
 20
88.6101979162
 10
1377.3849533774
 20
89.7618730146
 10
1376.6170099882
 20
90.8118616027
 10
1375.7709570195
 20
91.7552681491
 10
1374.8507391608
 20
92.5876940569
 10
1373.8606468927
 20
93.3052581722
 10
1372.8052964822
 20
93.9046148799
 10
1371.6896084603
 20
94.3829697025
 10
1370.5187846794
 20
94.7380923288
 10
1369.2982840605
 20
94.9683270133
 10
1368.0337971408
 20
95.0726002955
 10
1366.7312195423
 20
95.0504260054
 10
1365.3966244828
 20
94.9019075296
 10
1364.0362344606
 20
94.62773733
 10
1362.656392242
 20
94.2291937144
 10
1361.2635312884
 20
93.7081348773
 10
1359.8641457605
 20
93.0669902354
  0
LINE
  5
B80
330
1F
100
AcDbEntity
  8
0
  6
Continuous
 62
     7
370
    25
100
AcDbLine
 10
1323.448149543
 20
30.2863701884
 30
0.0
 11
1326.6301300583
 21
28.6953799308
 31
0.0
  0
LINE
  5
B81
330
1F
100
AcDbEntity
  8
0
  6
Continuous
 62
     7
370
    25
100
AcDbLine
 10
1323.448149543
 20
30.2863701884
 30
0.0
 11
1323.4481465294
 21
80.5158421011
 31
0.0
  0
LWPOLYLINE
  5
B82
330
1F
100
AcDbEntity
  8
0
  6
Continuous
 62
     7
370
    25
100
AcDbPolyline
 90
       16
 70
   128
 43
0.0
 10
1326.6301274474
 20
72.2140215375
 10
1326.3381207103
 20
72.152683728
 10
1326.0091674083
 20
72.2245490246
 10
1325.6725464894
 20
72.4232209563
 10
1325.3582193686
 20
72.7310164503
 10
1325.0941631705
 20
73.1205397386
 10
1324.9038805858
 20
73.5571207569
 10
1324.8043079817
 20
74.0019010019
 10
1324.8043079569
 20
74.4152921867
 10
1324.9038805136
 20
74.7604998513
 10
1325.0941630574
 20
75.0067983053
 10
1325.3582192246
 20
75.132265411
 10
1325.6725463272
 20
75.1257337932
 10
1326.0091672425
 20
74.9877848078
 10
1326.3381205557
 20
74.7306967969
 10
1326.6301273176
 20
74.3773522379
  0
LWPOLYLINE
  5
B83
330
1F
100
AcDbEntity
  8
0
  6
Continuous
 62
     7
370
    25
100
AcDbPolyline
 90
       16
 70
   128
 43
0.0
 10
1326.6301297855
 20
33.2428795363
 10
1326.3381230485
 20
33.1815417268
 10
1326.0091697465
 20
33.2534070234
 10
1325.6725488275
 20
33.4520789551
 10
1325.3582217068
 20
33.759874449
 10
1325.0941655087
 20
34.1493977374
 10
1324.9038829239
 20
34.5859787557
 10
1324.8043103198
 20
35.0307590007
 10
1324.804310295
 20
35.4441501854
 10
1324.9038828517
 20
35.78935785
 10
1325.0941653955
 20
36.0356563041
 10
1325.3582215627
 20
36.1611234098
 10
1325.6725486654
 20
36.154591792
 10
1326.0091695807
 20
36.0166428066
 10
1326.3381228938
 20
35.7595547956
 10
1326.6301296557
 20
35.4062102367
  0
LINE
  5
B84
330
1F
100
AcDbEntity
  8
0
  6
Continuous
 62
     7
370
    25
100
AcDbLine
 10
1325.9230200817
 20
84.7843680132
 30
0.0
 11
1354.2072913291
 21
98.9265061824
 31
0.0
  0
LINE
  5
B85
330
1F
100
AcDbEntity
  8
0
  6
Continuous
 62
     7
370
    25
100
AcDbLine
 10
1357.3892718445
 20
97.3355159248
 30
0.0
 11
1354.2072913291
 21
98.9265061824
 31
0.0
  0
LWPOLYLINE
  5
B86
330
1F
100
AcDbEntity
  8
0
  6
Continuous
 62
     7
370
    25
100
AcDbPolyline
 90
       12
 70
   128
 43
0.0
 10
1368.7417348716
 20
99.8495651113
 10
1367.9524520548
 20
100.2097102122
 10
1366.7442130132
 20
100.6378241867
 10
1365.4844570782
 20
100.9432487572
 10
1364.1783608571
 20
101.1247288685
 10
1362.8312913795
 20
101.18151878
 10
1361.4487840428
 20
101.1133851298
 10
1360.0365198661
 20
100.9206078936
 10
1358.600302146
 20
100.6039792345
 10
1357.1460326091
 20
100.1648002476
 10
1355.6796871608
 20
99.6048756134
 10
1354.2072913291
 20
98.9265061824
  0
ARC
  5
B87
330
1F
100
AcDbEntity
  8
0
  6
Continuous
 62
     7
370
    25
100
AcDbCircle
 10
1325.4391635612
 20
30.0779952317
 30
0.0
 40
2.001888344342844
100
AcDbArc
 50
174.0253059639
 51
237.3038408946
  0
LINE
  5
B88
330
1F
100
AcDbEntity
  8
0
  6
Continuous
 62
     7
370
    25
100
AcDbLine
 10
1328.5393153539
 20
89.283967206
 30
0.0
 11
1316.1649466832
 21
95.4711515414
 31
0.0
  0
ARC
  5
B89
330
1F
100
AcDbEntity
  8
0
  6
Continuous
 62
     7
370
    25
100
AcDbCircle
 10
1321.231050726
 20
95.3855691564
 30
0.0
 40
5.0668268687487
100
AcDbArc
 50
120.7578548782
 51
179.0321866577
  0
LINE
  5
B8A
330
1F
100
AcDbEntity
  8
0
  6
Continuous
 62
     7
370
    25
100
AcDbLine
 10
1318.6398202355
 20
99.7396774535
 30
0.0
 11
1331.0141889062
 21
93.5524931181
 31
0.0
  0
ARC
  5
B8B
330
1F
100
AcDbEntity
  8
0
  6
Continuous
 62
     7
370
    25
100
AcDbCircle
 10
1333.6054193968
 20
89.1983848211
 30
0.0
 40
5.066826868749388
100
AcDbArc
 50
120.7578548782
 51
179.0321866577
  0
LWPOLYLINE
  5
B8C
330
1F
100
AcDbEntity
  8
0
  6
Continuous
 62
     7
370
    25
100
AcDbPolyline
 90
       15
 70
   128
 43
0.0
 10
1347.9847516547
 20
102.0377760196
 10
1349.4571474863
 20
102.7161454506
 10
1350.9234929346
 20
103.2760700848
 10
1352.3777624715
 20
103.7152490717
 10
1353.8139801917
 20
104.0318777309
 10
1355.2262443683
 20
104.224654967
 10
1356.6087517051
 20
104.2927886172
 10
1357.9558211827
 20
104.2359987057
 10
1359.2619174038
 20
104.0545185944
 10
1360.5216733388
 20
103.7490940239
 10
1361.7299123804
 20
103.3209800495
 10
1362.8816696151
 20
102.7719358831
 10
1363.9722122256
 20
102.1042176651
 10
1364.9970589382
 20
101.3205691929
 10
1365.4067417742
 20
100.9577535097
  0
LWPOLYLINE
  5
B8D
330
1F
100
AcDbEntity
  8
0
  6
Continuous
 62
     7
370
    25
100
AcDbPolyline
 90
       12
 70
   128
 43
0.0
 10
1362.6475696375
 20
101.1796297682
 10
1361.5698619021
 20
101.7538490832
 10
1360.3904878894
 20
102.2284270214
 10
1359.1557068547
 20
102.57644738
 10
1357.8710336299
 20
102.7963558155
 10
1356.5422058773
 20
102.8871701635
 10
1355.1751584644
 20
102.8484848252
 10
1353.7759969567
 20
102.6804725785
 10
1352.3509703492
 20
102.3838838071
 10
1350.9064431567
 20
101.9600431483
 10
1349.4488669881
 20
101.4108435773
 10
1347.9847517326
 20
100.7387379529
  0
LINE
  5
B8E
330
1F
100
AcDbEntity
  8
0
  6
Continuous
 62
     7
370
    25
100
AcDbLine
 10
1347.9847517326
 20
100.7387379529
 30
0.0
 11
1331.0141889842
 21
92.2534550514
 31
0.0
  0
ARC
  5
B8F
330
1F
100
AcDbEntity
  8
0
  6
Continuous
 62
     7
370
    25
100
AcDbCircle
 10
1332.4948921216
 20
89.7653931674
 30
0.0
 40
2.895329639284024
100
AcDbArc
 50
120.7578548782
 51
179.0321866577
  0
LINE
  5
B90
330
1F
100
AcDbEntity
  8
0
  6
Continuous
 62
     7
370
    25
100
AcDbLine
 10
1329.5999755257
 20
89.8142973873
 30
0.0
 11
1329.5999757172
 21
86.6228461619
 31
0.0
  0
LINE
  5
B91
330
1F
100
AcDbEntity
  8
0
  6
Continuous
 62
     7
370
    25
100
AcDbLine
 10
1328.5393155454
 20
86.0925159805
 30
0.0
 11
1328.5393153539
 21
89.283967206
 31
0.0
  0
LINE
  5
B92
330
1F
100
AcDbEntity
  8
0
  6
Continuous
 62
     7
370
    25
100
AcDbLine
 10
1331.0141889062
 20
93.5524931181
 30
0.0
 11
1347.9847516547
 21
102.0377760196
 31
0.0
  0
LINE
  5
B93
330
1F
100
AcDbEntity
  8
0
  6
Continuous
 62
     7
370
    25
100
AcDbLine
 10
1323.5865673239
 20
81.5845433371
 30
0.0
 11
1316.1649472937
 21
85.2953533522
 31
0.0
  0
LINE
  5
B94
330
1F
100
AcDbEntity
  8
0
  6
Continuous
 62
     7
370
    25
100
AcDbLine
 10
1316.1649466832
 20
95.4711515414
 30
0.0
 11
1316.1649472937
 21
85.2953533522
 31
0.0
  0
LWPOLYLINE
  5
B95
330
1F
100
AcDbEntity
  8
0
  6
Continuous
 62
     7
370
    25
100
AcDbPolyline
 90
       30
 70
   128
 43
0.0
 10
1324.8270050904
 20
85.5109575509
 10
1324.7774097661
 20
86.0942647664
 10
1324.6309428825
 20
86.6998924756
 10
1324.3944530682
 20
87.2995221999
 10
1324.0789983241
 20
87.8651159199
 10
1323.6993289635
 20
88.3702271018
 10
1323.2731979037
 20
88.7912373081
 10
1322.8205305594
 20
89.1084605695
 10
1322.3624931525
 20
89.307063879
 10
1321.9205030032
 20
89.3777607663
 10
1321.5152270796
 20
89.3172455238
 10
1321.1656156333
 20
89.1283477769
 10
1320.8880161072
 20
88.8199001742
 10
1320.6954087464
 20
88.4063253828
 10
1320.5967996572
 20
87.9069617004
 10
1320.5967996909
 20
87.3451588177
 10
1320.695408846
 20
86.7471860132
 10
1320.8880162679
 20
86.1410038305
 10
1321.1656158477
 20
85.5549566748
 10
1321.5152273376
 20
85.0164474598
 10
1321.9205032928
 20
84.5506562778
 10
1322.3624934602
 20
84.1793630069
 10
1322.8205308707
 20
83.9199289076
 10
1323.2731982041
 20
83.7844848303
 10
1323.6993292389
 20
83.7793639892
 10
1324.0789985617
 20
83.9048058294
 10
1324.3944532569
 20
84.1549448298
 10
1324.6309430134
 20
84.5180847687
 10
1324.7774098331
 20
84.9772456262
 10
1324.8270050904
 20
85.5109575509
  0
LINE
  5
B96
330
1F
100
AcDbEntity
  8
0
  6
Continuous
 62
     7
370
    25
100
AcDbLine
 10
1347.9847516547
 20
102.0377760196
 30
0.0
 11
1335.6103829839
 21
108.224960355
 31
0.0
  0
LINE
  5
B97
330
1F
100
AcDbEntity
  8
0
  6
Continuous
 62
     7
370
    25
100
AcDbLine
 10
1335.6103829839
 20
108.224960355
 30
0.0
 11
1318.6398202355
 21
99.7396774535
 31
0.0
  0
ARC
  5
B98
330
1F
100
AcDbEntity
  8
0
  6
Continuous
 62
     7
370
    25
100
AcDbCircle
 10
1316.6730838291
 20
86.7596470652
 30
0.0
 40
1.549954456319445
100
AcDbArc
 50
188.4162452406
 51
250.8622962671
  0
LINE
  5
B99
330
1F
100
AcDbEntity
  8
0
  6
Continuous
 62
     7
370
    25
100
AcDbLine
 10
1350.1921232776
 20
109.1242423714
 30
0.0
 11
1350.1448265264
 21
109.1480192839
 31
0.0
  0
LINE
  5
B9A
330
1F
100
AcDbEntity
  8
0
  6
Continuous
 62
     7
370
    25
100
AcDbLine
 10
1323.4481482537
 20
51.7758782342
 30
0.0
 11
1316.1649490863
 21
55.4174778179
 31
0.0
  0
LINE
  5
B9B
330
1F
100
AcDbEntity
  8
0
  6
Continuous
 62
     7
370
    25
100
AcDbLine
 10
1316.1649490863
 20
55.4174778179
 30
0.0
 11
1316.1649496968
 21
45.2416796287
 31
0.0
  0
LWPOLYLINE
  5
B9C
330
1F
100
AcDbEntity
  8
0
  6
Continuous
 62
     7
370
    25
100
AcDbPolyline
 90
       20
 70
   128
 43
0.0
 10
1323.4481483805
 20
49.6629923493
 10
1323.2732002418
 20
49.8200953069
 10
1322.8205328975
 20
50.1373185683
 10
1322.3624954907
 20
50.3359218777
 10
1321.9205053414
 20
50.4066187651
 10
1321.5152294177
 20
50.3461035226
 10
1321.1656179715
 20
50.1572057756
 10
1320.8880184453
 20
49.8487581729
 10
1320.6954110846
 20
49.4351833816
 10
1320.5968019954
 20
48.9358196992
 10
1320.5968020291
 20
48.3740168165
 10
1320.6954111841
 20
47.776044012
 10
1320.8880186061
 20
47.1698618293
 10
1321.1656181859
 20
46.5838146736
 10
1321.5152296758
 20
46.0453054586
 10
1321.920505631
 20
45.5795142766
 10
1322.3624957983
 20
45.2082210057
 10
1322.8205332088
 20
44.9487869064
 10
1323.2732005422
 20
44.813342829
 10
1323.4481486725
 20
44.7954976522
  0
ARC
  5
B9D
330
1F
100
AcDbEntity
  8
0
  6
Continuous
 62
     7
370
    25
100
AcDbCircle
 10
1316.9109406677
 20
57.1828752917
 30
0.0
 40
1.916541593564877
100
AcDbArc
 50
208.356365969
 51
247.09288134
  0
LWPOLYLINE
  5
B9E
330
1F
100
AcDbEntity
  8
0
  6
Continuous
 62
     7
370
    25
100
AcDbPolyline
 90
       17
 70
   128
 43
0.0
 10
1325.2570431011
 20
73.9822290284
 10
1325.307737601
 20
74.2690184687
 10
1325.4521033602
 20
74.4614522977
 10
1325.6681620004
 20
74.5302342096
 10
1325.9230205523
 20
74.4648927816
 10
1326.1778791117
 20
74.275375654
 10
1326.3939377732
 20
73.9905350913
 10
1326.5383035641
 20
73.6537354871
 10
1326.5889981015
 20
73.3162515282
 10
1326.5383036015
 20
73.0294620879
 10
1326.3939378424
 20
72.8370282588
 10
1326.1778792021
 20
72.768246347
 10
1325.9230206502
 20
72.833587775
 10
1325.6681620908
 20
73.0231049026
 10
1325.4521034294
 20
73.3079454653
 10
1325.3077376385
 20
73.6447450695
 10
1325.2570431011
 20
73.9822290284
  0
LWPOLYLINE
  5
B9F
330
1F
100
AcDbEntity
  8
0
  6
Continuous
 62
     7
370
    25
100
AcDbPolyline
 90
       17
 70
   128
 43
0.0
 10
1325.2570454392
 20
35.0110870272
 10
1325.3077399392
 20
35.2978764674
 10
1325.4521056983
 20
35.4903102965
 10
1325.6681643386
 20
35.5590922084
 10
1325.9230228905
 20
35.4937507804
 10
1326.1778814499
 20
35.3042336527
 10
1326.3939401113
 20
35.01939309
 10
1326.5383059022
 20
34.6825934859
 10
1326.5890004396
 20
34.345109527
 10
1326.5383059397
 20
34.0583200867
 10
1326.3939401805
 20
33.8658862576
 10
1326.1778815403
 20
33.7971043458
 10
1325.9230229884
 20
33.8624457737
 10
1325.668164429
 20
34.0519629014
 10
1325.4521057675
 20
34.3368034641
 10
1325.3077399766
 20
34.6736030682
 10
1325.2570454392
 20
35.0110870272
  0
LINE
  5
BA0
330
1F
100
AcDbEntity
  8
0
  6
Continuous
 62
     7
370
    25
100
AcDbLine
 10
1348.126175531
 20
99.8178946043
 30
0.0
 11
1334.0547505853
 21
92.7821821315
 31
0.0
  0
LINE
  5
BA1
330
1F
100
AcDbEntity
  8
0
  6
Continuous
 62
     7
370
    25
100
AcDbLine
 10
1348.126175531
 20
98.0858437968
 30
0.0
 11
1334.0547505853
 21
91.050131324
 31
0.0
  0
ARC
  5
BA2
330
1F
100
AcDbEntity
  8
0
  6
Continuous
 62
     7
370
    25
100
AcDbCircle
 10
1336.6709403452
 20
86.6829056735
 30
0.0
 40
5.090884868248898
100
AcDbArc
 50
120.9237481925
 51
168.9318884389
  0
ARC
  5
BA3
330
1F
100
AcDbEntity
  8
0
  6
Continuous
 62
     7
370
    25
100
AcDbCircle
 10
1355.8223091133
 20
83.7021862183
 30
0.0
 40
16.31318722537987
100
AcDbArc
 50
87.0418667872
 51
118.149496496
  0
ARC
  5
BA4
330
1F
100
AcDbEntity
  8
0
  6
Continuous
 62
     7
370
    25
100
AcDbCircle
 10
1333.3310214464
 20
92.7699560474
 30
0.0
 40
0.7238324002770962
100
AcDbArc
 50
0.9678156634
 51
59.2421479898
  0
LINE
  5
BA5
330
1F
100
AcDbEntity
  8
0
  6
Continuous
 62
     7
370
    25
100
AcDbLine
 10
1347.7726221404
 20
100.4276840015
 30
0.0
 11
1333.7011971947
 21
93.3919715287
 31
0.0
  0
ARC
  5
BA6
330
1F
100
AcDbEntity
  8
0
  6
Continuous
 62
     7
370
    25
100
AcDbCircle
 10
1347.402446392
 20
99.8056685202
 30
0.0
 40
0.7238324002781903
100
AcDbArc
 50
0.9678156634
 51
59.2421479898
  0
ARC
  5
BA7
330
1F
100
AcDbEntity
  8
0
  6
Continuous
 62
     7
370
    25
100
AcDbCircle
 10
1315.9037539198
 20
85.0553619211
 30
0.0
 40
0.7238324002782408
100
AcDbArc
 50
120.7578520102
 51
179.0321843366
  0
LINE
  5
BA8
330
1F
100
AcDbEntity
  8
0
  6
Continuous
 62
     7
370
    25
100
AcDbLine
 10
1315.1800247808
 20
85.0675880053
 30
0.0
 11
1315.1800247808
 21
56.4887496804
 31
0.0
  0
LWPOLYLINE
  5
BA9
330
1F
100
AcDbEntity
  8
0
  6
Continuous
 62
     7
370
    25
100
AcDbPolyline
 90
        9
 70
   128
 43
0.0
 10
1318.4276907211
 20
81.9282105785
 10
1318.4412775796
 20
82.0903703242
 10
1318.4815160199
 20
82.2327115032
 10
1318.5468597011
 20
82.3497640239
 10
1318.6347975023
 20
82.4370296236
 10
1318.7419500231
 20
82.4911547343
 10
1318.8641994522
 20
82.5100593582
 10
1318.9968478127
 20
82.4930170012
 10
1319.1347975023
 20
82.4406825917
  0
LINE
  5
BAA
330
1F
100
AcDbEntity
  8
0
  6
Continuous
 62
     7
370
    25
100
AcDbLine
 10
1318.4276907211
 20
56.3804611669
 30
0.0
 11
1318.4276907211
 21
81.9282105785
 31
0.0
  0
ARC
  5
BAB
330
1F
100
AcDbEntity
  8
0
  6
Continuous
 62
     7
370
    25
100
AcDbCircle
 10
1319.875148999
 20
56.4049133352
 30
0.0
 40
1.44766480055443
100
AcDbArc
 50
180.9678156634
 51
239.2421479898
  0
ARC
  5
BAC
330
1F
100
AcDbEntity
  8
0
  6
Continuous
 62
     7
370
    25
100
AcDbCircle
 10
1318.7812441117
 20
82.7261221999
 30
0.0
 40
0.8727330379428305
100
AcDbArc
 50
246.1019429181
 51
293.8980570819
  0
SPLINE
  5
BAD
330
1F
100
AcDbEntity
  8
0
  6
Continuous
 62
     7
370
    25
100
AcDbSpline
210
0.0
220
0.0
230
1.0
 70
     8
 71
     3
 72
     9
 73
     5
 74
     0
 42
0.000000001
 43
0.00000001
 40
0.0
 40
0.0
 40
0.0
 40
0.0
 40
0.5611412521132871
 40
1.0
 40
1.0
 40
1.0
 40
1.0
 10
1318.964246341309
 20
70.2454670853544
 30
0.0
 10
1318.99967668559
 20
70.25010278338655
 30
0.0
 10
1319.06281648176
 20
70.25836397968017
 30
0.0
 10
1319.112842949368
 20
70.29524425158185
 30
0.0
 10
1319.134797502304
 20
70.31142948153034
 30
0.0
  0
LINE
  5
BAE
330
1F
100
AcDbEntity
  8
0
  6
Continuous
 62
     7
370
    25
100
AcDbLine
 10
1318.9642463413
 20
67.9514515023
 30
0.0
 11
1318.9642463413
 21
70.2454670854
 31
0.0
  0
SPLINE
  5
BAF
330
1F
100
AcDbEntity
  8
0
  6
Continuous
 62
     7
370
    25
100
AcDbSpline
210
0.0
220
0.0
230
1.0
 70
     8
 71
     3
 72
     9
 73
     5
 74
     0
 42
0.000000001
 43
0.00000001
 40
0.0
 40
0.0
 40
0.0
 40
0.0
 40
0.5611412521125727
 40
1.0
 40
1.0
 40
1.0
 40
1.0
 10
1318.964246341309
 20
67.95145150226872
 30
0.0
 10
1318.99967668559
 20
67.96328663440282
 30
0.0
 10
1319.062816481759
 20
67.98437781614996
 30
0.0
 10
1319.112842949368
 20
67.99331854625625
 30
0.0
 10
1319.134797502304
 20
67.99724226387589
 30
0.0
  0
LINE
  5
BB0
330
1F
100
AcDbEntity
  8
0
  6
Continuous
 62
     7
370
    25
100
AcDbLine
 10
1319.1347975023
 20
56.3804611669
 30
0.0
 11
1319.1347975023
 21
67.9972422639
 31
0.0
  0
ARC
  5
BB1
330
1F
100
AcDbEntity
  8
0
  6
Continuous
 62
     7
370
    25
100
AcDbCircle
 10
1318.7812441117
 20
57.1783727883
 30
0.0
 40
0.8727330379424018
100
AcDbArc
 50
246.1019429181
 51
293.8980570819
  0
LINE
  5
BB2
330
1F
100
AcDbEntity
  8
0
  6
Continuous
 62
     7
370
    25
100
AcDbLine
 10
1319.1347975023
 20
81.9282105785
 30
0.0
 11
1319.1347975023
 21
70.3114294815
 31
0.0
  0
LINE
  5
BB3
330
1F
100
AcDbEntity
  8
0
  6
Continuous
 62
     7
370
    25
100
AcDbLine
 10
1320.4168943173
 20
71.0944223859
 30
0.0
 11
1323.4481470037
 21
72.6100487291
 31
0.0
  0
SPLINE
  5
BB4
330
1F
100
AcDbEntity
  8
0
  6
Continuous
 62
     7
370
    25
100
AcDbSpline
210
0.0
220
0.0
230
1.0
 70
     8
 71
     3
 72
     9
 73
     5
 74
     0
 42
0.000000001
 43
0.00000001
 40
0.0
 40
0.0
 40
0.0
 40
0.0
 40
0.5527273856768583
 40
1.0
 40
1.0
 40
1.0
 40
1.0
 10
1319.134797502304
 20
70.31142948153034
 30
0.0
 10
1319.369363861012
 20
70.47883673001613
 30
0.0
 10
1319.793743699586
 20
70.7817116242658
 30
0.0
 10
1320.224312627344
 20
70.99778063470771
 30
0.0
 10
1320.416894317309
 20
71.09442238588228
 30
0.0
  0
ARC
  5
BB5
330
1F
100
AcDbEntity
  8
0
  6
Continuous
 62
     7
370
    25
100
AcDbCircle
 10
1356.2016120978
 20
90.7475008216
 30
0.0
 40
11.78539085224464
100
AcDbArc
 50
61.8560809786
 51
82.31510482370001
  0
LWPOLYLINE
  5
BB6
330
1F
100
AcDbEntity
  8
0
  6
Continuous
 62
     7
370
    25
100
AcDbPolyline
 90
        3
 70
   128
 43
0.0
 10
1358.2214290071
 20
102.728349489
 10
1358.9144488539
 20
102.4945738407
 10
1360.0431446003
 20
102.0038854715
  0
ARC
  5
BB7
330
1F
100
AcDbEntity
  8
0
  6
Continuous
 62
     7
370
    25
100
AcDbCircle
 10
1315.2526157103
 20
85.2767728197
 30
0.0
 40
0.2214220621756178
100
AcDbArc
 50
188.4162473377
 51
250.8622971378
  0
ARC
  5
BB8
330
1F
100
AcDbEntity
  8
0
  6
Continuous
 62
     7
370
    25
100
AcDbCircle
 10
1315.5023281714
 20
85.2082803088
 30
0.0
 40
0.4701368373496505
100
AcDbArc
 50
86.18873895060001
 51
175.5980503477
  0
LINE
  5
BB9
330
1F
100
AcDbEntity
  8
0
  6
Continuous
 62
     7
370
    25
100
AcDbLine
 10
1315.0335781714
 20
85.2443647006
 30
0.0
 11
1315.0335781714
 21
86.4514714818
 31
0.0
  0
ARC
  5
BBA
330
1F
100
AcDbEntity
  8
0
  6
Continuous
 62
     7
370
    25
100
AcDbCircle
 10
1315.2526157103
 20
56.6979344948
 30
0.0
 40
0.221422062175654
100
AcDbArc
 50
188.4162473377
 51
250.8622971378
  0
LINE
  5
BBB
330
1F
100
AcDbEntity
  8
0
  6
Continuous
 62
     7
370
    25
100
AcDbLine
 10
1315.0335781714
 20
85.2443647006
 30
0.0
 11
1315.0335781714
 21
56.6655263757
 31
0.0
  0
ARC
  5
BBC
330
1F
100
AcDbEntity
  8
0
  6
Continuous
 62
     7
370
    25
100
AcDbCircle
 10
1322.424347372
 20
71.4844446107
 30
0.0
 40
0.7238324002777874
100
AcDbArc
 50
0.9678156634
 51
59.2421479898
  0
ARC
  5
BBD
330
1F
100
AcDbEntity
  8
0
  6
Continuous
 62
     7
370
    25
100
AcDbCircle
 10
1312.9249982615
 20
92.114365396
 30
0.0
 40
23.01305420147179
100
AcDbArc
 50
288.8805765669
 51
296.3740548443
  0
SPLINE
  5
BBE
330
1F
100
AcDbEntity
  8
0
  6
Continuous
 62
     7
370
    25
100
AcDbSpline
210
0.0
220
0.0
230
1.0
 70
     8
 71
     3
 72
    10
 73
     6
 74
     0
 42
0.000000001
 43
0.00000001
 40
0.0
 40
0.0
 40
0.0
 40
0.0
 40
0.6150126395407095
 40
0.9873266972072606
 40
0.9999999999999999
 40
0.9999999999999999
 40
0.9999999999999999
 40
0.9999999999999999
 10
1318.964246341309
 20
70.24546708535406
 30
0.0
 10
1319.265364625539
 20
70.25764090324152
 30
0.0
 10
1319.748772773475
 20
70.27718446159211
 30
0.0
 10
1320.198040297831
 20
70.31918973445185
 30
0.0
 10
1320.366403744263
 20
70.33887785786905
 30
0.0
 10
1320.371946058518
 20
70.33952596628795
 30
0.0
  0
ARC
  5
BBF
330
1F
100
AcDbEntity
  8
0
  6
Continuous
 62
     7
370
    25
100
AcDbCircle
 10
1312.9746672131
 20
91.8777616966
 30
0.0
 40
22.07564126306066
100
AcDbArc
 50
289.7017453503
 51
296.4123132083
  0
LINE
  5
BC0
330
1F
100
AcDbEntity
  8
0
  6
Continuous
 62
     7
370
    25
100
AcDbLine
 10
1320.3719460585
 20
68.6074751587
 30
0.0
 11
1320.3719460585
 21
70.3395259663
 31
0.0
  0
SPLINE
  5
BC1
330
1F
100
AcDbEntity
  8
0
  6
Continuous
 62
     7
370
    25
100
AcDbSpline
210
0.0
220
0.0
230
1.0
 70
     8
 71
     3
 72
    10
 73
     6
 74
     0
 42
0.000000001
 43
0.00000001
 40
0.0
 40
0.0
 40
0.0
 40
0.0
 40
0.6150126395406369
 40
0.9873266972072623
 40
1.0
 40
1.0
 40
1.0
 40
1.0
 10
1318.964246341309
 20
67.95145150226882
 30
0.0
 10
1319.265364625539
 20
68.07162987142092
 30
0.0
 10
1319.748772773475
 20
68.26456137341303
 30
0.0
 10
1320.19804029783
 20
68.50796617868127
 30
0.0
 10
1320.366403744263
 20
68.60430384319515
 30
0.0
 10
1320.371946058518
 20
68.60747515871907
 30
0.0
  0
LINE
  5
BC2
330
1F
100
AcDbEntity
  8
0
  6
Continuous
 62
     7
370
    25
100
AcDbLine
 10
1323.1480765109
 20
71.4966706949
 30
0.0
 11
1323.1480765109
 21
69.7646198873
 31
0.0
  0
ARC
  5
BC3
330
1F
100
AcDbEntity
  8
0
  6
Continuous
 62
     7
370
    25
100
AcDbCircle
 10
1312.9249982615
 20
90.3823145884
 30
0.0
 40
23.0130542014901
100
AcDbArc
 50
288.8805765669
 51
296.3740548443
  0
LINE
  5
BC4
330
1F
100
AcDbEntity
  8
0
  6
Continuous
 62
     7
370
    25
100
AcDbLine
 10
1319.430426563
 20
68.0877672058
 30
0.0
 11
1319.1347975023
 21
67.9972422639
 31
0.0
  0
ARC
  5
BC5
330
1F
100
AcDbEntity
  8
0
  6
Continuous
 62
     7
370
    25
100
AcDbCircle
 10
1319.8585266412
 20
55.1486562884
 30
0.0
 40
0.7238324002770947
100
AcDbArc
 50
120.7578520102
 51
179.0321843366
  0
ARC
  5
BC6
330
1F
100
AcDbEntity
  8
0
  6
Continuous
 62
     7
370
    25
100
AcDbCircle
 10
1319.8585266412
 20
56.392687251
 30
0.0
 40
0.7238324002770947
100
AcDbArc
 50
180.9678156634
 51
239.2421479898
  0
ARC
  5
BC7
330
1F
100
AcDbEntity
  8
0
  6
Continuous
 62
     7
370
    25
100
AcDbCircle
 10
1336.192578272
 20
86.9524191785
 30
0.0
 40
4.242679452804084
100
AcDbArc
 50
120.2574446429
 51
167.8508872502
  0
LINE
  5
BC8
330
1F
100
AcDbEntity
  8
0
  6
Continuous
 62
     7
370
    25
100
AcDbLine
 10
1334.0547505853
 20
90.6171185825
 30
0.0
 11
1348.126175531
 21
97.6528310553
 31
0.0
  0
ARC
  5
BC9
330
1F
100
AcDbEntity
  8
0
  6
Continuous
 62
     7
370
    25
100
AcDbCircle
 10
1355.825480464
 20
83.1454111732
 30
0.0
 40
16.42390112263534
100
AcDbArc
 50
90.815116184
 51
117.9555615669
  0
ARC
  5
BCA
330
1F
100
AcDbEntity
  8
0
  6
Continuous
 62
     7
370
    25
100
AcDbCircle
 10
1354.7718111012
 20
87.3422664589
 30
0.0
 40
12.57974096176426
100
AcDbArc
 50
83.2662005984
 51
96.51483091499999
  0
LWPOLYLINE
  5
BCB
330
1F
100
AcDbEntity
  8
0
  6
Continuous
 62
     7
370
    25
100
AcDbPolyline
 90
       19
 70
   128
 43
0.0
 10
1323.4481486725
 20
44.7954987898
 10
1323.0130127628
 20
44.8761474787
 10
1322.5546175138
 20
45.0845318511
 10
1322.1032860943
 20
45.4105590202
 10
1321.6801222597
 20
45.8389843179
 10
1321.3049126808
 20
46.3497750535
 10
1320.9952017404
 20
46.9190472197
 10
1320.7654711778
 20
47.520182283
 10
1320.6264629389
 20
48.1250718357
 10
1320.5846768944
 20
48.7054319148
 10
1320.6420669132
 20
49.2341255279
 10
1320.795949502
 20
49.6864315493
 10
1321.0391292818
 20
50.0412006521
 10
1321.3602354364
 20
50.2818442274
 10
1321.744253399
 20
50.3971100491
 10
1322.1732269164
 20
50.3816084153
 10
1322.6270976637
 20
50.2360641654
 10
1323.0846431492
 20
49.9672827867
 10
1323.4481483805
 20
49.6629934698
  0
LINE
  5
BCC
330
1F
100
AcDbEntity
  8
0
  6
Continuous
 62
     7
370
    25
100
AcDbLine
 10
1323.2909475219
 20
48.189934848
 30
0.0
 11
1323.4481484912
 21
47.8166405158
 31
0.0
  0
LINE
  5
BCD
330
1F
100
AcDbEntity
  8
0
  6
Continuous
 62
     7
370
    25
100
AcDbLine
 10
1322.7877747638
 20
48.0389038364
 30
0.0
 11
1323.2909475219
 21
48.189934848
 31
0.0
  0
LINE
  5
BCE
330
1F
100
AcDbEntity
  8
0
  6
Continuous
 62
     7
370
    25
100
AcDbLine
 10
1322.4590390409
 20
48.8195299527
 30
0.0
 11
1322.7877747638
 21
48.0389038364
 31
0.0
  0
LINE
  5
BCF
330
1F
100
AcDbEntity
  8
0
  6
Continuous
 62
     7
370
    25
100
AcDbLine
 10
1321.9854646804
 20
48.6773831182
 30
0.0
 11
1322.4590390409
 21
48.8195299527
 31
0.0
  0
LINE
  5
BD0
330
1F
100
AcDbEntity
  8
0
  6
Continuous
 62
     7
370
    25
100
AcDbLine
 10
1322.3142004033
 20
47.8967570018
 30
0.0
 11
1321.9854646804
 21
48.6773831182
 31
0.0
  0
LINE
  5
BD1
330
1F
100
AcDbEntity
  8
0
  6
Continuous
 62
     7
370
    25
100
AcDbLine
 10
1321.8110276452
 20
47.7457259902
 30
0.0
 11
1322.3142004033
 21
47.8967570018
 31
0.0
  0
LINE
  5
BD2
330
1F
100
AcDbEntity
  8
0
  6
Continuous
 62
     7
370
    25
100
AcDbLine
 10
1322.1204259727
 20
47.0110190571
 30
0.0
 11
1321.8110276452
 21
47.7457259902
 31
0.0
  0
LINE
  5
BD3
330
1F
100
AcDbEntity
  8
0
  6
Continuous
 62
     7
370
    25
100
AcDbLine
 10
1322.6235987308
 20
47.1620500688
 30
0.0
 11
1322.1204259727
 21
47.0110190571
 31
0.0
  0
LINE
  5
BD4
330
1F
100
AcDbEntity
  8
0
  6
Continuous
 62
     7
370
    25
100
AcDbLine
 10
1322.9523344537
 20
46.3814239525
 30
0.0
 11
1322.6235987308
 21
47.1620500688
 31
0.0
  0
LINE
  5
BD5
330
1F
100
AcDbEntity
  8
0
  6
Continuous
 62
     7
370
    25
100
AcDbLine
 10
1323.4259088142
 20
46.523570787
 30
0.0
 11
1322.9523344537
 21
46.3814239525
 31
0.0
  0
LINE
  5
BD6
330
1F
100
AcDbEntity
  8
0
  6
Continuous
 62
     7
370
    25
100
AcDbLine
 10
1323.0971730913
 20
47.3041969033
 30
0.0
 11
1323.4259088142
 21
46.523570787
 31
0.0
  0
LINE
  5
BD7
330
1F
100
AcDbEntity
  8
0
  6
Continuous
 62
     7
370
    25
100
AcDbLine
 10
1323.4481485157
 20
47.4095447636
 30
0.0
 11
1323.0971730913
 21
47.3041969033
 31
0.0
  0
LINE
  5
BD8
330
1F
100
AcDbEntity
  8
0
  6
Continuous
 62
     7
370
    25
100
AcDbLine
 10
1323.0971730913
 20
47.3041969033
 30
0.0
 11
1323.4481485115
 21
47.4796846134
 31
0.0
  0
LINE
  5
BD9
330
1F
100
AcDbEntity
  8
0
  6
Continuous
 62
     7
370
    25
100
AcDbLine
 10
1323.3636281159
 20
47.4374244156
 30
0.0
 11
1323.3307055119
 21
47.5156034594
 31
0.0
  0
LINE
  5
BDA
330
1F
100
AcDbEntity
  8
0
  6
Continuous
 62
     7
370
    25
100
AcDbLine
 10
1323.3307055119
 20
47.5156034594
 30
0.0
 11
1322.8275327539
 21
47.3645724477
 31
0.0
  0
LINE
  5
BDB
330
1F
100
AcDbEntity
  8
0
  6
Continuous
 62
     7
370
    25
100
AcDbLine
 10
1322.8275327539
 20
47.3645724477
 30
0.0
 11
1322.5531146931
 21
48.0162141468
 31
0.0
  0
LINE
  5
BDC
330
1F
100
AcDbEntity
  8
0
  6
Continuous
 62
     7
370
    25
100
AcDbLine
 10
1322.9523344537
 20
46.3814239525
 30
0.0
 11
1323.3929862103
 21
46.6017498308
 31
0.0
  0
LINE
  5
BDD
330
1F
100
AcDbEntity
  8
0
  6
Continuous
 62
     7
370
    25
100
AcDbLine
 10
1322.3142004033
 20
47.8967570018
 30
0.0
 11
1322.7548521599
 21
48.1170828801
 31
0.0
  0
LINE
  5
BDE
330
1F
100
AcDbEntity
  8
0
  6
Continuous
 62
     7
370
    25
100
AcDbLine
 10
1322.6235987308
 20
47.1620500688
 30
0.0
 11
1323.3307055119
 21
47.5156034594
 31
0.0
  0
LINE
  5
BDF
330
1F
100
AcDbEntity
  8
0
  6
Continuous
 62
     7
370
    25
100
AcDbLine
 10
1322.1204259727
 20
47.0110190571
 30
0.0
 11
1322.8275327539
 21
47.3645724477
 31
0.0
  0
LWPOLYLINE
  5
BE0
330
1F
100
AcDbEntity
  8
0
  6
Continuous
 62
     7
370
    25
100
AcDbPolyline
 90
       30
 70
   128
 43
0.0
 10
1323.8659304753
 20
83.816469124
 10
1323.4570377889
 20
83.7662928949
 10
1323.0130127628
 20
83.847290649
 10
1322.5546175138
 20
84.0556750214
 10
1322.1032860943
 20
84.3817021905
 10
1321.6801222597
 20
84.8101274882
 10
1321.3049126808
 20
85.3209182238
 10
1320.9952017404
 20
85.89019039
 10
1320.7654711778
 20
86.4913254533
 10
1320.6264629389
 20
87.096215006
 10
1320.5846768944
 20
87.6765750851
 10
1320.6420669132
 20
88.2052686982
 10
1320.795949502
 20
88.6575747196
 10
1321.0391292818
 20
89.0123438224
 10
1321.3602354364
 20
89.2529873977
 10
1321.744253399
 20
89.3682532194
 10
1322.1732269164
 20
89.3527515856
 10
1322.6270976637
 20
89.2072073357
 10
1323.0846431492
 20
88.938425957
 10
1323.5244690546
 20
88.558975368
 10
1323.9260096092
 20
88.0865982565
 10
1324.2704892231
 20
87.5433824513
 10
1324.5418004124
 20
86.9547281196
 10
1324.7272569675
 20
86.3481600838
 10
1324.8181871458
 20
85.752040791
 10
1324.8103391534
 20
85.1942441169
 10
1324.7040799536
 20
84.7008520141
 10
1324.5043781085
 20
84.2949349487
 10
1324.2205714545
 20
83.9954731518
 10
1323.8659304753
 20
83.816469124
  0
LINE
  5
BE1
330
1F
100
AcDbEntity
  8
0
  6
Continuous
 62
     7
370
    25
100
AcDbLine
 10
1323.2909475219
 20
87.1610780183
 30
0.0
 11
1323.6003458494
 21
86.4263710853
 31
0.0
  0
LINE
  5
BE2
330
1F
100
AcDbEntity
  8
0
  6
Continuous
 62
     7
370
    25
100
AcDbLine
 10
1322.7877747638
 20
87.0100470067
 30
0.0
 11
1323.2909475219
 21
87.1610780183
 31
0.0
  0
LINE
  5
BE3
330
1F
100
AcDbEntity
  8
0
  6
Continuous
 62
     7
370
    25
100
AcDbLine
 10
1322.4590390409
 20
87.790673123
 30
0.0
 11
1322.7877747638
 21
87.0100470067
 31
0.0
  0
LINE
  5
BE4
330
1F
100
AcDbEntity
  8
0
  6
Continuous
 62
     7
370
    25
100
AcDbLine
 10
1321.9854646804
 20
87.6485262885
 30
0.0
 11
1322.4590390409
 21
87.790673123
 31
0.0
  0
LINE
  5
BE5
330
1F
100
AcDbEntity
  8
0
  6
Continuous
 62
     7
370
    25
100
AcDbLine
 10
1322.3142004033
 20
86.8679001721
 30
0.0
 11
1321.9854646804
 21
87.6485262885
 31
0.0
  0
LINE
  5
BE6
330
1F
100
AcDbEntity
  8
0
  6
Continuous
 62
     7
370
    25
100
AcDbLine
 10
1321.8110276452
 20
86.7168691605
 30
0.0
 11
1322.3142004033
 21
86.8679001721
 31
0.0
  0
LINE
  5
BE7
330
1F
100
AcDbEntity
  8
0
  6
Continuous
 62
     7
370
    25
100
AcDbLine
 10
1322.1204259727
 20
85.9821622274
 30
0.0
 11
1321.8110276452
 21
86.7168691605
 31
0.0
  0
LINE
  5
BE8
330
1F
100
AcDbEntity
  8
0
  6
Continuous
 62
     7
370
    25
100
AcDbLine
 10
1322.6235987308
 20
86.1331932391
 30
0.0
 11
1322.1204259727
 21
85.9821622274
 31
0.0
  0
LINE
  5
BE9
330
1F
100
AcDbEntity
  8
0
  6
Continuous
 62
     7
370
    25
100
AcDbLine
 10
1322.9523344537
 20
85.3525671228
 30
0.0
 11
1322.6235987308
 21
86.1331932391
 31
0.0
  0
LINE
  5
BEA
330
1F
100
AcDbEntity
  8
0
  6
Continuous
 62
     7
370
    25
100
AcDbLine
 10
1323.4259088142
 20
85.4947139573
 30
0.0
 11
1322.9523344537
 21
85.3525671228
 31
0.0
  0
LINE
  5
BEB
330
1F
100
AcDbEntity
  8
0
  6
Continuous
 62
     7
370
    25
100
AcDbLine
 10
1323.0971730913
 20
86.2753400736
 30
0.0
 11
1323.4259088142
 21
85.4947139573
 31
0.0
  0
LINE
  5
BEC
330
1F
100
AcDbEntity
  8
0
  6
Continuous
 62
     7
370
    25
100
AcDbLine
 10
1323.6003458494
 20
86.4263710853
 30
0.0
 11
1323.0971730913
 21
86.2753400736
 31
0.0
  0
LINE
  5
BED
330
1F
100
AcDbEntity
  8
0
  6
Continuous
 62
     7
370
    25
100
AcDbLine
 10
1323.0971730913
 20
86.2753400736
 30
0.0
 11
1323.5653655827
 21
86.5094363193
 31
0.0
  0
LINE
  5
BEE
330
1F
100
AcDbEntity
  8
0
  6
Continuous
 62
     7
370
    25
100
AcDbLine
 10
1323.3636281159
 20
86.4085675859
 30
0.0
 11
1323.3307055119
 21
86.4867466297
 31
0.0
  0
LINE
  5
BEF
330
1F
100
AcDbEntity
  8
0
  6
Continuous
 62
     7
370
    25
100
AcDbLine
 10
1323.3307055119
 20
86.4867466297
 30
0.0
 11
1322.8275327539
 21
86.335715618
 31
0.0
  0
LINE
  5
BF0
330
1F
100
AcDbEntity
  8
0
  6
Continuous
 62
     7
370
    25
100
AcDbLine
 10
1322.8275327539
 20
86.335715618
 30
0.0
 11
1322.5531146931
 21
86.9873573171
 31
0.0
  0
LINE
  5
BF1
330
1F
100
AcDbEntity
  8
0
  6
Continuous
 62
     7
370
    25
100
AcDbLine
 10
1322.9523344537
 20
85.3525671228
 30
0.0
 11
1323.3929862103
 21
85.5728930011
 31
0.0
  0
LINE
  5
BF2
330
1F
100
AcDbEntity
  8
0
  6
Continuous
 62
     7
370
    25
100
AcDbLine
 10
1322.3142004033
 20
86.8679001721
 30
0.0
 11
1322.7548521599
 21
87.0882260504
 31
0.0
  0
LINE
  5
BF3
330
1F
100
AcDbEntity
  8
0
  6
Continuous
 62
     7
370
    25
100
AcDbLine
 10
1322.6235987308
 20
86.1331932391
 30
0.0
 11
1323.3307055119
 21
86.4867466297
 31
0.0
  0
LINE
  5
BF4
330
1F
100
AcDbEntity
  8
0
  6
Continuous
 62
     7
370
    25
100
AcDbLine
 10
1322.1204259727
 20
85.9821622274
 30
0.0
 11
1322.8275327539
 21
86.335715618
 31
0.0
  0
ARC
  5
BF5
330
1F
100
AcDbEntity
  8
0
  6
Continuous
 62
     8
370
    25
100
AcDbCircle
 10
1357.9275007183
 20
42.6029238669
 30
0.0
 40
1.950805026323318
100
AcDbArc
 50
301.7984443394
 51
6.906831330699999
  0
LWPOLYLINE
  5
BF6
330
1F
100
AcDbEntity
  8
0
  6
Continuous
 62
     8
370
    25
100
AcDbPolyline
 90
       12
 70
   128
 43
0.0
 10
1357.3892718445
 20
97.3355159248
 10
1358.9192276768
 20
98.0380505013
 10
1360.4423948891
 20
98.6125808833
 10
1361.9520149761
 20
99.0565577991
 10
1363.4413895428
 20
99.3680112613
 10
1364.9039100266
 20
99.5455593074
 10
1366.33308702
 20
99.5884141319
 10
1367.7225790653
 20
99.4963855822
 10
1369.0662207925
 20
99.2698820015
 10
1370.3580502759
 20
98.909908418
 10
1371.5923354877
 20
98.4180620847
 10
1371.9301247049
 20
98.2553678386
  0
ARC
  5
BF7
330
1F
100
AcDbEntity
  8
0
  6
Continuous
 62
     8
370
    25
100
AcDbCircle
 10
1329.6436032098
 20
28.4607022121
 30
0.0
 40
1.950444043366987
100
AcDbArc
 50
301.7602805723001
 51
6.910586253399999
  0
ARC
  5
BF8
330
1F
100
AcDbEntity
  8
0
  6
Continuous
 62
     8
370
    25
100
AcDbCircle
 10
1328.5664044675
 20
28.4607022524
 30
0.0
 40
1.950444103390582
100
AcDbArc
 50
173.0894217425
 51
238.239725116
  0
ARC
  5
BF9
330
1F
100
AcDbEntity
  8
0
  6
Continuous
 62
     8
370
    25
100
AcDbCircle
 10
1317.7606997831
 20
98.2699473395
 30
0.0
 40
1.712588502177657
100
AcDbArc
 50
59.1142064387
 51
113.6180377066
  0
ARC
  5
BFA
330
1F
100
AcDbEntity
  8
0
  6
Continuous
 62
     8
370
    25
100
AcDbCircle
 10
1316.6730832186
 20
96.9354452544
 30
0.0
 40
1.549954456319546
100
AcDbArc
 50
188.4162452406
 51
250.8622962671
  0
ARC
  5
BFB
330
1F
100
AcDbEntity
  8
0
  6
Continuous
 62
     8
370
    25
100
AcDbCircle
 10
1334.7312625315
 20
106.755230241
 30
0.0
 40
1.712588502177605
100
AcDbArc
 50
59.1142064387
 51
113.6180377066
  0
LWPOLYLINE
  5
BFC
330
1F
100
AcDbEntity
  8
0
  6
Continuous
 62
     8
370
    25
100
AcDbPolyline
 90
       12
 70
   128
 43
0.0
 10
1350.1448265264
 20
109.1480192839
 10
1349.3555437096
 20
109.5081643848
 10
1348.147304668
 20
109.9362783593
 10
1346.887548733
 20
110.2417029298
 10
1345.5814525119
 20
110.4231830411
 10
1344.2343830343
 20
110.4799729526
 10
1342.8518756976
 20
110.4118393024
 10
1341.4396115209
 20
110.2190620662
 10
1340.0033938008
 20
109.9024334071
 10
1338.5491242638
 20
109.4632544202
 10
1337.0827788156
 20
108.903329786
 10
1335.6103829839
 20
108.224960355
  0
LINE
  5
BFD
330
1F
100
AcDbEntity
  8
0
  6
Continuous
 62
     8
370
    25
100
AcDbLine
 10
1316.1649496968
 20
45.2416796287
 30
0.0
 11
1323.4481488642
 21
41.600080045
 31
0.0
  0
ARC
  5
BFE
330
1F
100
AcDbEntity
  8
0
  6
Continuous
 62
     8
370
    25
100
AcDbCircle
 10
1318.155963715
 20
45.033304672
 30
0.0
 40
2.001888344343485
100
AcDbArc
 50
174.0253059639
 51
237.3038408945
  0
ARC
  5
BFF
330
1F
100
AcDbEntity
  8
0
  6
Continuous
 62
     8
370
    25
100
AcDbCircle
 10
1316.6730862322
 20
46.7059733417
 30
0.0
 40
1.549954456318604
100
AcDbArc
 50
188.4162452406
 51
250.8622962672
  0
LWPOLYLINE
  5
C00
330
1F
100
AcDbEntity
  8
0
  6
Continuous
 62
     8
370
    25
100
AcDbPolyline
 90
        3
 70
   128
 43
0.0
 10
1325.5548487946
 20
75.0720433571
 10
1325.6472852941
 20
75.1187054208
 10
1325.6687655705
 20
75.1265645986
  0
LWPOLYLINE
  5
C01
330
1F
100
AcDbEntity
  8
0
  6
Continuous
 62
     8
370
    25
100
AcDbPolyline
 90
        3
 70
   128
 43
0.0
 10
1325.5548511328
 20
36.1009013559
 10
1325.6472876323
 20
36.1475634196
 10
1325.6687679087
 20
36.1554225974
  0
ARC
  5
C02
330
1F
100
AcDbEntity
  8
0
  6
Continuous
 62
     8
370
    25
100
AcDbCircle
 10
1338.1313443391
 20
85.9347009199
 30
0.0
 40
7.969103812676749
100
AcDbArc
 50
120.7671188309
 51
172.7852739495
  0
ARC
  5
C03
330
1F
100
AcDbEntity
  8
0
  6
Continuous
 62
     8
370
    25
100
AcDbCircle
 10
1355.7821477385
 20
86.6389356081
 30
0.0
 40
15.24135396440223
100
AcDbArc
 50
70.8543657871
 51
120.1533276778
  0
ARC
  5
C04
330
1F
100
AcDbEntity
  8
0
  6
Continuous
 62
     8
370
    25
100
AcDbCircle
 10
1338.1446763393
 20
85.9320875201
 30
0.0
 40
8.68299351202109
100
AcDbArc
 50
120.7801382086
 51
169.7604507158
  0
LINE
  5
C05
330
1F
100
AcDbEntity
  8
0
  6
Continuous
 62
     8
370
    25
100
AcDbLine
 10
1333.4962093434
 20
93.4944654544
 30
0.0
 11
1333.7011971947
 21
93.3919715287
 31
0.0
  0
LINE
  5
C06
330
1F
100
AcDbEntity
  8
0
  6
Continuous
 62
     8
370
    25
100
AcDbLine
 10
1347.5676330226
 20
100.5301785604
 30
0.0
 11
1347.7726221404
 21
100.4276840015
 31
0.0
  0
LINE
  5
C07
330
1F
100
AcDbEntity
  8
0
  6
Continuous
 62
     8
370
    25
100
AcDbLine
 10
1315.6621095093
 20
85.6131117336
 30
0.0
 11
1315.5335781714
 21
85.6773774025
 31
0.0
  0
LINE
  5
C08
330
1F
100
AcDbEntity
  8
0
  6
Continuous
 62
     8
370
    25
100
AcDbLine
 10
1323.4694044644
 20
80.9228981635
 30
0.0
 11
1315.1800247808
 21
85.0675880053
 31
0.0
  0
LINE
  5
C09
330
1F
100
AcDbEntity
  8
0
  6
Continuous
 62
     8
370
    25
100
AcDbLine
 10
1315.1800247808
 20
56.4887496804
 30
0.0
 11
1323.448148219
 21
52.3546879613
 31
0.0
  0
LINE
  5
C0A
330
1F
100
AcDbEntity
  8
0
  6
Continuous
 62
     8
370
    25
100
AcDbLine
 10
1323.4481465433
 20
80.2840080712
 30
0.0
 11
1319.1347975023
 21
82.4406825917
 31
0.0
  0
LINE
  5
C0B
330
1F
100
AcDbEntity
  8
0
  6
Continuous
 62
     8
370
    25
100
AcDbLine
 10
1323.44814818
 20
53.0042070337
 30
0.0
 11
1319.1347975023
 21
55.1608823725
 31
0.0
  0
LINE
  5
C0C
330
1F
100
AcDbEntity
  8
0
  6
Continuous
 62
     8
370
    25
100
AcDbLine
 10
1315.5335781714
 20
85.7263698497
 30
0.0
 11
1315.5335781714
 21
85.6773774025
 31
0.0
  0
ARC
  5
C0D
330
1F
100
AcDbEntity
  8
0
  6
Continuous
 62
     8
370
    25
100
AcDbCircle
 10
1319.4114081475
 20
82.4071571886
 30
0.0
 40
0.2786348896068785
100
AcDbArc
 50
173.0894179364
 51
238.2397236589
  0
ARC
  5
C0E
330
1F
100
AcDbEntity
  8
0
  6
Continuous
 62
     8
370
    25
100
AcDbCircle
 10
1319.4398344768
 20
81.9525236855
 30
0.0
 40
0.3060043838974856
100
AcDbArc
 50
131.5405109653
 51
184.5571512866
  0
LINE
  5
C0F
330
1F
100
AcDbEntity
  8
0
  6
Continuous
 62
     8
370
    25
100
AcDbLine
 10
1319.1347975023
 20
81.9282105785
 30
0.0
 11
1319.4418059117
 21
82.0817147832
 31
0.0
  0
ARC
  5
C10
330
1F
100
AcDbEntity
  8
0
  6
Continuous
 62
     8
370
    25
100
AcDbCircle
 10
1355.9709822828
 20
85.4349223546
 30
0.0
 40
17.08789076591842
100
AcDbArc
 50
83.93101725829999
 51
118.6707742475
  0
LINE
  5
C11
330
1F
100
AcDbEntity
  8
0
  6
Continuous
 62
     8
370
    25
100
AcDbLine
 10
1358.0828663344
 20
102.7693977583
 30
0.0
 11
1358.2214290071
 21
102.728349489
 31
0.0
  0
ARC
  5
C12
330
1F
100
AcDbEntity
  8
0
  6
Continuous
 62
     8
370
    25
100
AcDbCircle
 10
1315.4340474778
 20
86.4466188675
 30
0.0
 40
0.400498705680001
100
AcDbArc
 50
137.2776681806
 51
179.3057627473
  0
ARC
  5
C13
330
1F
100
AcDbEntity
  8
0
  6
Continuous
 62
     8
370
    25
100
AcDbCircle
 10
1315.4566354261
 20
56.4552242773
 30
0.0
 40
0.2786348896072689
100
AcDbArc
 50
173.0894179365
 51
238.2397236588
  0
ARC
  5
C14
330
1F
100
AcDbEntity
  8
0
  6
Continuous
 62
     8
370
    25
100
AcDbCircle
 10
1322.8635920075
 20
69.7348622399
 30
0.0
 40
0.2860366239658258
100
AcDbArc
 50
302.7317891239
 51
5.9715368543
  0
LINE
  5
C15
330
1F
100
AcDbEntity
  8
0
  6
Continuous
 62
     8
370
    25
100
AcDbLine
 10
1322.7945231203
 20
72.1064600921
 30
0.0
 11
1323.4481470143
 21
72.4332720391
 31
0.0
  0
LINE
  5
C16
330
1F
100
AcDbEntity
  8
0
  6
Continuous
 62
     8
370
    25
100
AcDbLine
 10
1319.4883508929
 20
55.7706717697
 30
0.0
 11
1323.4481481328
 21
53.7907731497
 31
0.0
  0
LINE
  5
C17
330
1F
100
AcDbEntity
  8
0
  6
Continuous
 62
     8
370
    25
100
AcDbLine
 10
1323.448147848
 20
58.5371363398
 30
0.0
 11
1319.1347975023
 21
56.3804611669
 31
0.0
  0
LINE
  5
C18
330
1F
100
AcDbEntity
  8
0
  6
Continuous
 62
     8
370
    25
100
AcDbLine
 10
1323.4481478952
 20
57.7505702709
 30
0.0
 11
1319.4883508929
 21
55.7706717697
 31
0.0
  0
LINE
  5
C19
330
1F
100
AcDbEntity
  8
0
  6
Continuous
 62
     8
370
    25
100
AcDbLine
 10
1323.4481470615
 20
71.6467059702
 30
0.0
 11
1323.1480765109
 21
71.4966706949
 31
0.0
  0
LINE
  5
C1A
330
1F
100
AcDbEntity
  8
0
  6
Continuous
 62
     8
370
    25
100
AcDbLine
 10
1323.1480765109
 20
69.7646198873
 30
0.0
 11
1323.4481471654
 21
69.9146552146
 31
0.0
  0
LINE
  5
C1B
330
1F
100
AcDbEntity
  8
0
  6
Continuous
 62
     8
370
    25
100
AcDbLine
 10
1333.6604539181
 20
90.8142669161
 30
0.0
 11
1334.0547505853
 21
90.6171185825
 31
0.0
  0
LINE
  5
C1C
330
1F
100
AcDbEntity
  8
0
  6
Continuous
 62
     8
370
    25
100
AcDbLine
 10
1347.6931627895
 20
97.869337426
 30
0.0
 11
1348.126175531
 21
97.6528310553
 31
0.0
  0
LINE
  5
C1D
330
1F
100
AcDbEntity
  8
0
  6
Continuous
 62
     7
370
    25
100
AcDbLine
 10
1565.9061789142
 20
435.2803712167
 30
0.0
 11
1565.9455874223
 21
435.2803712196
 31
0.0
  0
LINE
  5
C1E
330
1F
100
AcDbEntity
  8
0
  6
Continuous
 62
     7
370
    25
100
AcDbLine
 10
1565.9455871872
 20
438.4803712196
 30
0.0
 11
1565.906178679
 21
438.4803712167
 31
0.0
  0
LINE
  5
C1F
330
1F
100
AcDbEntity
  8
0
  6
Continuous
 62
     7
370
    25
100
AcDbLine
 10
1489.9491854314
 20
415.382063324
 30
0.0
 11
1489.9455888889
 21
415.322200048
 31
0.0
  0
LINE
  5
C20
330
1F
100
AcDbEntity
  8
0
  6
Continuous
 62
     7
370
    25
100
AcDbLine
 10
1489.9455890273
 20
413.438531222
 30
0.0
 11
1489.9489063001
 21
413.3810310977
 31
0.0
  0
LINE
  5
C21
330
1F
100
AcDbEntity
  8
0
  6
Continuous
 62
     7
370
    25
100
AcDbLine
 10
1489.9491821248
 20
460.382063324
 30
0.0
 11
1489.9455855822
 21
460.322200048
 31
0.0
  0
LINE
  5
C22
330
1F
100
AcDbEntity
  8
0
  6
Continuous
 62
     7
370
    25
100
AcDbLine
 10
1489.9455857207
 20
458.438531222
 30
0.0
 11
1489.9489029935
 21
458.3810310977
 31
0.0
  0
LINE
  5
C23
330
1F
100
AcDbEntity
  8
0
  6
Continuous
 62
     7
370
    25
100
AcDbLine
 10
1565.9455884805
 20
438.2803684273
 30
0.0
 11
1565.9154194745
 21
438.2803684273
 31
0.0
  0
LINE
  5
C24
330
1F
100
AcDbEntity
  8
0
  6
Continuous
 62
     7
370
    25
100
AcDbLine
 10
1565.9154194397
 20
435.4803684273
 30
0.0
 11
1565.9455884805
 21
435.4803684273
 31
0.0
  0
ARC
  5
C25
330
1F
100
AcDbEntity
  8
0
  6
Continuous
 62
     7
370
    25
100
AcDbCircle
 10
1533.4455873048
 20
436.8803688315
 30
0.0
 40
32.50000000000035
100
AcDbArc
 50
270.0000042102
 51
357.7975416639001
  0
LINE
  5
C26
330
1F
100
AcDbEntity
  8
0
  6
Continuous
 62
     7
370
    25
100
AcDbLine
 10
1533.4455894357
 20
407.8803688315
 30
0.0
 11
1533.4455896929
 21
404.3803688315
 31
0.0
  0
ARC
  5
C27
330
1F
100
AcDbEntity
  8
0
  6
Continuous
 62
     7
370
    25
100
AcDbCircle
 10
1533.4455873048
 20
436.8803688315
 30
0.0
 40
29.00000000000002
100
AcDbArc
 50
270.0000042102
 51
90.0000042102
  0
LINE
  5
C28
330
1F
100
AcDbEntity
  8
0
  6
Continuous
 62
     7
370
    25
100
AcDbLine
 10
1533.4455851738
 20
465.8803688315
 30
0.0
 11
1533.4455849166
 21
469.3803688315
 31
0.0
  0
ARC
  5
C29
330
1F
100
AcDbEntity
  8
0
  6
Continuous
 62
     7
370
    25
100
AcDbCircle
 10
1533.4455873048
 20
436.8803688315
 30
0.0
 40
32.50000000000019
100
AcDbArc
 50
2.2024667564
 51
90.0000042102
  0
SPLINE
  5
C2A
330
1F
100
AcDbEntity
  8
0
  6
Continuous
 62
     7
370
    25
100
AcDbSpline
210
0.0
220
0.0
230
1.0
 70
     8
 71
     3
 72
    13
 73
     9
 74
     0
 42
0.000000001
 43
0.00000001
 40
0.0
 40
0.0
 40
0.0
 40
0.0
 40
0.1869057518612812
 40
0.3736957167062776
 40
0.5620550788817393
 40
0.7490489850974461
 40
0.9369585072407506
 40
1.0
 40
1.0
 40
1.0
 40
1.0
 10
1565.921578344903
 20
438.1293708175242
 30
0.0
 10
1565.921199867292
 20
438.0040755470808
 30
0.0
 10
1565.920443146534
 20
437.7535626258787
 30
0.0
 10
1565.894939870535
 20
437.2429469698754
 30
0.0
 10
1565.891324244807
 20
436.7003822120623
 30
0.0
 10
1565.909659522554
 20
436.1765493262632
 30
0.0
 10
1565.925972282756
 20
435.8261562779664
 30
0.0
 10
1565.922460679539
 20
435.6704792892744
 30
0.0
 10
1565.921578528459
 20
435.6313716181649
 30
0.0
  0
LINE
  5
C2B
330
1F
100
AcDbEntity
  8
0
  6
Continuous
 62
     7
370
    25
100
AcDbLine
 10
1493.4455894357
 20
407.8803658922
 30
0.0
 11
1533.4455894357
 21
407.8803688315
 31
0.0
  0
LINE
  5
C2C
330
1F
100
AcDbEntity
  8
0
  6
Continuous
 62
     7
370
    25
100
AcDbLine
 10
1493.4455851738
 20
465.8803658922
 30
0.0
 11
1493.4455894357
 21
407.8803658922
 31
0.0
  0
LINE
  5
C2D
330
1F
100
AcDbEntity
  8
0
  6
Continuous
 62
     7
370
    25
100
AcDbLine
 10
1533.4455851738
 20
465.8803688315
 30
0.0
 11
1493.4455851738
 21
465.8803658922
 31
0.0
  0
LINE
  5
C2E
330
1F
100
AcDbEntity
  8
0
  6
Continuous
 62
     7
370
    25
100
AcDbLine
 10
1493.4455849166
 20
469.3803658922
 30
0.0
 11
1493.4455851738
 21
465.8803658922
 31
0.0
  0
LINE
  5
C2F
330
1F
100
AcDbEntity
  8
0
  6
Continuous
 62
     7
370
    25
100
AcDbLine
 10
1493.4455849166
 20
469.3803658922
 30
0.0
 11
1533.4455849166
 21
469.3803688315
 31
0.0
  0
LINE
  5
C30
330
1F
100
AcDbEntity
  8
0
  6
Continuous
 62
     7
370
    25
100
AcDbLine
 10
1533.4455896929
 20
404.3803688315
 30
0.0
 11
1493.4455896929
 21
404.3803658922
 31
0.0
  0
LINE
  5
C31
330
1F
100
AcDbEntity
  8
0
  6
Continuous
 62
     7
370
    25
100
AcDbLine
 10
1493.4455894357
 20
407.8803658922
 30
0.0
 11
1493.4455896929
 21
404.3803658922
 31
0.0
  0
LINE
  5
C32
330
1F
100
AcDbEntity
  8
0
  6
Continuous
 62
     7
370
    25
100
AcDbLine
 10
1489.9455851738
 20
465.880365635
 30
0.0
 11
1493.4455851738
 21
465.8803658922
 31
0.0
  0
ARC
  5
C33
330
1F
100
AcDbEntity
  8
0
  6
Continuous
 62
     7
370
    25
100
AcDbCircle
 10
1493.4455851738
 20
465.8803658922
 30
0.0
 40
3.500000000000009
100
AcDbArc
 50
90.0000042102
 51
180.0000042102
  0
LINE
  5
C34
330
1F
100
AcDbEntity
  8
0
  6
Continuous
 62
     7
370
    25
100
AcDbLine
 10
1489.9455894357
 20
407.880365635
 30
0.0
 11
1489.9455890499
 21
413.1313660354
 31
0.0
  0
SPLINE
  5
C35
330
1F
100
AcDbEntity
  8
0
  6
Continuous
 62
     7
370
    25
100
AcDbSpline
210
0.0
220
0.0
230
1.0
 70
     8
 71
     3
 72
    13
 73
     9
 74
     0
 42
0.000000001
 43
0.00000001
 40
0.0
 40
0.0
 40
0.0
 40
0.0
 40
0.1872033915711457
 40
0.3742863583766552
 40
0.5625967254382628
 40
0.748288533902085
 40
0.935560369258285
 40
1.0
 40
1.0
 40
1.0
 40
1.0
 10
1489.945589049874
 20
413.131366035361
 30
0.0
 10
1489.950462433751
 20
413.2568997658449
 30
0.0
 10
1489.96020606654
 20
413.5078864730938
 30
0.0
 10
1489.995741515457
 20
414.018902667091
 30
0.0
 10
1490.000813469042
 20
414.5609414547952
 30
0.0
 10
1489.975213464898
 20
415.0827863326269
 30
0.0
 10
1489.948572848323
 20
415.4329449571248
 30
0.0
 10
1489.946197077709
 20
415.5893297887422
 30
0.0
 10
1489.945588866318
 20
415.6293652347204
 30
0.0
  0
LINE
  5
C36
330
1F
100
AcDbEntity
  8
0
  6
Continuous
 62
     7
370
    25
100
AcDbLine
 10
1489.9455888663
 20
415.6293652347
 30
0.0
 11
1489.9455857432
 21
458.1313660354
 31
0.0
  0
SPLINE
  5
C37
330
1F
100
AcDbEntity
  8
0
  6
Continuous
 62
     7
370
    25
100
AcDbSpline
210
0.0
220
0.0
230
1.0
 70
     8
 71
     3
 72
    13
 73
     9
 74
     0
 42
0.000000001
 43
0.00000001
 40
0.0
 40
0.0
 40
0.0
 40
0.0
 40
0.1872033915711421
 40
0.3742863583766515
 40
0.5625967254382628
 40
0.7482885339020812
 40
0.9355603692582842
 40
1.0
 40
1.0
 40
1.0
 40
1.0
 10
1489.945585743221
 20
458.1313660353609
 30
0.0
 10
1489.950459127098
 20
458.2568997658448
 30
0.0
 10
1489.960202759888
 20
458.5078864730937
 30
0.0
 10
1489.995738208805
 20
459.0189026670909
 30
0.0
 10
1490.000810162389
 20
459.5609414547951
 30
0.0
 10
1489.975210158246
 20
460.0827863326269
 30
0.0
 10
1489.948569541671
 20
460.4329449571247
 30
0.0
 10
1489.946193771057
 20
460.5893297887421
 30
0.0
 10
1489.945585559665
 20
460.6293652347202
 30
0.0
  0
LINE
  5
C38
330
1F
100
AcDbEntity
  8
0
  6
Continuous
 62
     7
370
    25
100
AcDbLine
 10
1489.9455855597
 20
460.6293652347
 30
0.0
 11
1489.9455851738
 21
465.880365635
 31
0.0
  0
LINE
  5
C39
330
1F
100
AcDbEntity
  8
0
  6
Continuous
 62
     7
370
    25
100
AcDbLine
 10
1489.9455894357
 20
407.880365635
 30
0.0
 11
1493.4455894357
 21
407.8803658922
 31
0.0
  0
ARC
  5
C3A
330
1F
100
AcDbEntity
  8
0
  6
Continuous
 62
     7
370
    25
100
AcDbCircle
 10
1493.4455894357
 20
407.8803658922
 30
0.0
 40
3.500000000000009
100
AcDbArc
 50
180.0000042102
 51
270.0000042102
  0
SPLINE
  5
C3B
330
1F
100
AcDbEntity
  8
0
  6
Continuous
 62
     7
370
    25
100
AcDbSpline
210
0.0
220
0.0
230
1.0
 70
     8
 71
     3
 72
    10
 73
     6
 74
     0
 42
0.000000001
 43
0.00000001
 40
0.0
 40
0.0
 40
0.0
 40
0.0
 40
0.0182981358694542
 40
0.7202051970870524
 40
0.9999999999999999
 40
0.9999999999999999
 40
0.9999999999999999
 40
0.9999999999999999
 10
1565.906288824104
 20
435.2826607831983
 30
0.0
 10
1565.906252384122
 20
435.281902559384
 30
0.0
 10
1565.90481812521
 20
435.2520592608364
 30
0.0
 10
1565.908221548905
 20
435.3137825987914
 30
0.0
 10
1565.913622402038
 20
435.4434203716697
 30
0.0
 10
1565.91516169894
 20
435.4803684273247
 30
0.0
  0
SPLINE
  5
C3C
330
1F
100
AcDbEntity
  8
0
  6
Continuous
 62
     7
370
    25
100
AcDbSpline
210
0.0
220
0.0
230
1.0
 70
     8
 71
     3
 72
     9
 73
     5
 74
     0
 42
0.000000001
 43
0.00000001
 40
0.0
 40
0.0
 40
0.0
 40
0.0
 40
0.5443613255792019
 40
1.0
 40
1.0
 40
1.0
 40
1.0
 10
1565.915310767483
 20
438.2803684273248
 30
0.0
 10
1565.912346349953
 20
438.3465215749369
 30
0.0
 10
1565.906900670052
 20
438.4680459090578
 30
0.0
 10
1565.907089317947
 20
438.4624941924554
 30
0.0
 10
1565.907175273224
 20
438.4599646156619
 30
0.0
  0
LINE
  5
C3D
330
1F
100
AcDbEntity
  8
0
  6
Continuous
 62
     7
370
    25
100
AcDbLine
 10
1489.9455888889
 20
415.322200048
 30
0.0
 11
1489.9455890273
 21
413.438531222
 31
0.0
  0
LINE
  5
C3E
330
1F
100
AcDbEntity
  8
0
  6
Continuous
 62
     7
370
    25
100
AcDbLine
 10
1489.9455855822
 20
460.322200048
 30
0.0
 11
1489.9455857207
 21
458.438531222
 31
0.0
  0
LINE
  5
C3F
330
1F
100
AcDbEntity
  8
0
  6
Continuous
 62
     7
370
    25
100
AcDbLine
 10
1565.9455884805
 20
435.7083317225
 30
0.0
 11
1565.9455884805
 21
438.2803684273
 31
0.0
  0
LINE
  5
C40
330
1F
100
AcDbEntity
  8
0
  6
Continuous
 62
     7
370
    25
100
AcDbLine
 10
1565.9455884805
 20
435.4803684273
 30
0.0
 11
1565.9455884805
 21
435.7083317225
 31
0.0
  0
ARC
  5
C41
330
1F
100
AcDbEntity
  8
0
  6
Continuous
 62
     7
370
    25
100
AcDbCircle
 10
1562.4455873048
 20
318.1006769883
 30
0.0
 40
3.500000000000113
100
AcDbArc
 50
270.0
 51
350.4499733725
  0
LINE
  5
C42
330
1F
100
AcDbEntity
  8
0
  6
Continuous
 62
     7
370
    25
100
AcDbLine
 10
1565.9455873048
 20
320.7006767328
 30
0.0
 11
1565.9455873048
 21
322.6006769883
 31
0.0
  0
ARC
  5
C43
330
1F
100
AcDbEntity
  8
0
  6
Continuous
 62
     7
370
    25
100
AcDbCircle
 10
1562.4455873048
 20
348.9006769883
 30
0.0
 40
3.5
100
AcDbArc
 50
0.0
 51
90.0
  0
LINE
  5
C44
330
1F
100
AcDbEntity
  8
0
  6
Continuous
 62
     7
370
    25
100
AcDbLine
 10
1565.9455873048
 20
335.2006767328
 30
0.0
 11
1565.9455873048
 21
348.9006769883
 31
0.0
  0
LINE
  5
C45
330
1F
100
AcDbEntity
  8
0
  6
Continuous
 62
     7
370
    25
100
AcDbLine
 10
1565.9455873048
 20
331.4006769883
 30
0.0
 11
1565.9455873048
 21
332.020308136
 31
0.0
  0
LINE
  5
C46
330
1F
100
AcDbEntity
  8
0
  6
Continuous
 62
     7
370
    25
100
AcDbLine
 10
1532.3955861291
 20
327.6006769883
 30
0.0
 11
1532.0955861291
 21
327.9006769883
 31
0.0
  0
LINE
  5
C47
330
1F
100
AcDbEntity
  8
0
  6
Continuous
 62
     7
370
    25
100
AcDbLine
 10
1523.7955861291
 20
327.9006769883
 30
0.0
 11
1523.4955861291
 21
327.6006769883
 31
0.0
  0
LINE
  5
C48
330
1F
100
AcDbEntity
  8
0
  6
Continuous
 62
     7
370
    25
100
AcDbLine
 10
1533.4455884805
 20
329.6006769883
 30
0.0
 11
1533.4455884805
 21
331.1006769883
 31
0.0
  0
LINE
  5
C49
330
1F
100
AcDbEntity
  8
0
  6
Continuous
 62
     7
370
    25
100
AcDbLine
 10
1532.9455884805
 20
329.1006769883
 30
0.0
 11
1533.4455884805
 21
329.6006769883
 31
0.0
  0
LINE
  5
C4A
330
1F
100
AcDbEntity
  8
0
  6
Continuous
 62
     7
370
    25
100
AcDbLine
 10
1561.9455873048
 20
322.6006769883
 30
0.0
 11
1561.9455873048
 21
323.1006769883
 31
0.0
  0
LINE
  5
C4B
330
1F
100
AcDbEntity
  8
0
  6
Continuous
 62
     7
370
    25
100
AcDbLine
 10
1534.0455861291
 20
323.1006769883
 30
0.0
 11
1533.5455861291
 21
323.6006769883
 31
0.0
  0
LINE
  5
C4C
330
1F
100
AcDbEntity
  8
0
  6
Continuous
 62
     7
370
    25
100
AcDbLine
 10
1522.3455861291
 20
323.6006769883
 30
0.0
 11
1521.8455861291
 21
323.1006769883
 31
0.0
  0
LINE
  5
C4D
330
1F
100
AcDbEntity
  8
0
  6
Continuous
 62
     7
370
    25
100
AcDbLine
 10
1533.5455861291
 20
323.6006769883
 30
0.0
 11
1533.5455861291
 21
327.6006769883
 31
0.0
  0
LINE
  5
C4E
330
1F
100
AcDbEntity
  8
0
  6
Continuous
 62
     7
370
    25
100
AcDbLine
 10
1522.3455861291
 20
327.6006769883
 30
0.0
 11
1522.3455861291
 21
323.6006769883
 31
0.0
  0
LINE
  5
C4F
330
1F
100
AcDbEntity
  8
0
  6
Continuous
 62
     7
370
    25
100
AcDbLine
 10
1562.4455873048
 20
314.6006769883
 30
0.0
 11
1533.4455851738
 21
314.6006769883
 31
0.0
  0
LWPOLYLINE
  5
C50
330
1F
100
AcDbEntity
  8
0
  6
Continuous
 62
     7
370
    25
100
AcDbPolyline
 90
       10
 70
   128
 43
0.0
 10
1533.4455851738
 20
314.6006769883
 10
1533.4455851292
 20
314.6538498527
 10
1533.4455850859
 20
314.8117528155
 10
1533.4455850452
 20
315.069588075
 10
1533.4455850085
 20
315.4195214374
 10
1533.4455849768
 20
315.8509203544
 10
1533.4455849511
 20
316.3506769883
 10
1533.4455849321
 20
316.9036064866
 10
1533.4455849205
 20
317.4929083664
 10
1533.4455849166
 20
318.1006769883
  0
LINE
  5
C51
330
1F
100
AcDbEntity
  8
0
  6
Continuous
 62
     7
370
    25
100
AcDbLine
 10
1533.4455849166
 20
318.1006769883
 30
0.0
 11
1565.9215783449
 21
318.1006769883
 31
0.0
  0
SPLINE
  5
C52
330
1F
100
AcDbEntity
  8
0
  6
Continuous
 62
     7
370
    25
100
AcDbSpline
210
0.0
220
0.0
230
1.0
 70
     8
 71
     3
 72
    10
 73
     6
 74
     0
 42
0.000000001
 43
0.00000001
 40
0.0
 40
0.0
 40
0.0
 40
0.0
 40
0.3741140209572436
 40
0.747996280474266
 40
1.0
 40
1.0
 40
1.0
 40
1.0
 10
1565.921578344903
 20
318.1006769882676
 30
0.0
 10
1565.921363460718
 20
317.9734492594306
 30
0.0
 10
1565.920933825468
 20
317.7190726185879
 30
0.0
 10
1565.896079048644
 20
317.5215556790217
 30
0.0
 10
1565.896168758376
 20
317.5210320530114
 30
0.0
 10
1565.89620487867
 20
317.5208212227537
 30
0.0
  0
SPLINE
  5
C53
330
1F
100
AcDbEntity
  8
0
  6
Continuous
 62
     7
370
    25
100
AcDbSpline
210
0.0
220
0.0
230
1.0
 70
     8
 71
     3
 72
    14
 73
    10
 74
     0
 42
0.000000001
 43
0.00000001
 40
0.0
 40
0.0
 40
0.0
 40
0.0
 40
0.1500508697184094
 40
0.3000973468234836
 40
0.4502578714933729
 40
0.6004932262112072
 40
0.7506044495981321
 40
0.9005863070017038
 40
0.9999999999999999
 40
0.9999999999999999
 40
0.9999999999999999
 40
0.9999999999999999
 10
1565.945587304769
 20
320.7006769882676
 30
0.0
 10
1565.944692637348
 20
320.6830106230757
 30
0.0
 10
1565.942903328696
 20
320.6476784098599
 30
0.0
 10
1565.930463141654
 20
320.3722132206449
 30
0.0
 10
1565.916630558362
 20
319.9665296027686
 30
0.0
 10
1565.906673548467
 20
319.4591014050318
 30
0.0
 10
1565.905207816157
 20
318.9142005217996
 30
0.0
 10
1565.911859770994
 20
318.4430508840008
 30
0.0
 10
1565.918808466119
 20
318.1982565507507
 30
0.0
 10
1565.921578344903
 20
318.1006769882676
 30
0.0
  0
LINE
  5
C54
330
1F
100
AcDbEntity
  8
0
  6
Continuous
 62
     7
370
    25
100
AcDbLine
 10
1533.4455849166
 20
318.1006769883
 30
0.0
 11
1533.4455849166
 21
322.6006769883
 31
0.0
  0
LINE
  5
C55
330
1F
100
AcDbEntity
  8
0
  6
Continuous
 62
     7
370
    25
100
AcDbLine
 10
1565.9455873048
 20
322.6006769883
 30
0.0
 11
1533.4455849166
 21
322.6006769883
 31
0.0
  0
LINE
  5
C56
330
1F
100
AcDbEntity
  8
0
  6
Continuous
 62
     7
370
    25
100
AcDbLine
 10
1493.4455849166
 20
318.1006769883
 30
0.0
 11
1533.4455849166
 21
318.1006769883
 31
0.0
  0
LINE
  5
C57
330
1F
100
AcDbEntity
  8
0
  6
Continuous
 62
     7
370
    25
100
AcDbLine
 10
1493.4455849166
 20
322.6006769883
 30
0.0
 11
1493.4455849166
 21
318.1006769883
 31
0.0
  0
LINE
  5
C58
330
1F
100
AcDbEntity
  8
0
  6
Continuous
 62
     7
370
    25
100
AcDbLine
 10
1493.4455849166
 20
322.6006769883
 30
0.0
 11
1533.4455849166
 21
322.6006769883
 31
0.0
  0
LINE
  5
C59
330
1F
100
AcDbEntity
  8
0
  6
Continuous
 62
     7
370
    25
100
AcDbLine
 10
1533.4455851738
 20
314.6006769883
 30
0.0
 11
1493.4455851738
 21
314.6006769883
 31
0.0
  0
LWPOLYLINE
  5
C5A
330
1F
100
AcDbEntity
  8
0
  6
Continuous
 62
     7
370
    25
100
AcDbPolyline
 90
       10
 70
   128
 43
0.0
 10
1493.4455849166
 20
318.1006769883
 10
1493.4455849205
 20
317.4929083664
 10
1493.4455849321
 20
316.9036064866
 10
1493.4455849511
 20
316.3506769883
 10
1493.4455849768
 20
315.8509203544
 10
1493.4455850085
 20
315.4195214374
 10
1493.4455850452
 20
315.069588075
 10
1493.4455850859
 20
314.8117528155
 10
1493.4455851292
 20
314.6538498527
 10
1493.4455851738
 20
314.6006769883
  0
LINE
  5
C5B
330
1F
100
AcDbEntity
  8
0
  6
Continuous
 62
     7
370
    25
100
AcDbLine
 10
1493.4455849166
 20
318.1006769883
 30
0.0
 11
1489.9455851738
 21
318.1006769883
 31
0.0
  0
LINE
  5
C5C
330
1F
100
AcDbEntity
  8
0
  6
Continuous
 62
     7
370
    25
100
AcDbLine
 10
1489.9455851738
 20
318.1006769883
 30
0.0
 11
1489.9455851738
 21
322.6006769883
 31
0.0
  0
LINE
  5
C5D
330
1F
100
AcDbEntity
  8
0
  6
Continuous
 62
     7
370
    25
100
AcDbLine
 10
1489.9455851738
 20
322.6006769883
 30
0.0
 11
1493.4455849166
 21
322.6006769883
 31
0.0
  0
ARC
  5
C5E
330
1F
100
AcDbEntity
  8
0
  6
Continuous
 62
     7
370
    25
100
AcDbCircle
 10
1493.4455851738
 20
318.1006769883
 30
0.0
 40
3.500000000000009
100
AcDbArc
 50
179.9999957898
 51
270.0
  0
SPLINE
  5
C5F
330
1F
100
AcDbEntity
  8
0
  6
Continuous
 62
     7
370
    25
100
AcDbSpline
210
0.0
220
0.0
230
1.0
 70
     8
 71
     3
 72
    10
 73
     6
 74
     0
 42
0.000000001
 43
0.00000001
 40
0.0
 40
0.0
 40
0.0
 40
0.0
 40
0.3744244852316386
 40
0.7486081095445661
 40
1.0
 40
1.0
 40
1.0
 40
1.0
 10
1489.945585743221
 20
318.1006769882676
 30
0.0
 10
1489.950229249512
 20
317.9732660929305
 30
0.0
 10
1489.959513275005
 20
317.7185262635236
 30
0.0
 10
1489.994161977741
 20
317.5212157744267
 30
0.0
 10
1489.994029997036
 20
317.5209614908667
 30
0.0
 10
1489.993976959668
 20
317.5208593052419
 30
0.0
  0
LWPOLYLINE
  5
C60
330
1F
100
AcDbEntity
  8
0
  6
Continuous
 62
     7
370
    25
100
AcDbPolyline
 90
       10
 70
   128
 43
0.0
 10
1489.9455857432
 20
318.1006769883
 10
1489.9455857585
 20
318.4401125857
 10
1489.9455857672
 20
318.8204711216
 10
1489.9455857687
 20
319.218188824
 10
1489.9455857629
 20
319.608626495
 10
1489.9455857503
 20
319.9675959452
 10
1489.9455857315
 20
320.2728584881
 10
1489.9455857077
 20
320.5055026591
 10
1489.9455856805
 20
320.651115809
 10
1489.9455856514
 20
320.7006769883
  0
LINE
  5
C61
330
1F
100
AcDbEntity
  8
0
  6
Continuous
 62
     7
370
    25
100
AcDbLine
 10
1533.4455851738
 20
352.4006769883
 30
0.0
 11
1562.4455873048
 21
352.4006769883
 31
0.0
  0
LWPOLYLINE
  5
C62
330
1F
100
AcDbEntity
  8
0
  6
Continuous
 62
     7
370
    25
100
AcDbPolyline
 90
       10
 70
   128
 43
0.0
 10
1533.4455851738
 20
352.4006769883
 10
1533.4455851292
 20
352.3475041238
 10
1533.4455850859
 20
352.189601161
 10
1533.4455850452
 20
351.9317659015
 10
1533.4455850085
 20
351.5818325392
 10
1533.4455849768
 20
351.1504336222
 10
1533.4455849511
 20
350.6506769883
 10
1533.4455849321
 20
350.0977474899
 10
1533.4455849205
 20
349.5084456101
 10
1533.4455849166
 20
348.9006769883
  0
LINE
  5
C63
330
1F
100
AcDbEntity
  8
0
  6
Continuous
 62
     7
370
    25
100
AcDbLine
 10
1533.4455849166
 20
331.4006769883
 30
0.0
 11
1565.9455873048
 21
331.4006769883
 31
0.0
  0
LINE
  5
C64
330
1F
100
AcDbEntity
  8
0
  6
Continuous
 62
     7
370
    25
100
AcDbLine
 10
1533.4455849166
 20
331.4006769883
 30
0.0
 11
1533.4455849166
 21
348.9006769883
 31
0.0
  0
SPLINE
  5
C65
330
1F
100
AcDbEntity
  8
0
  6
Continuous
 62
     7
370
    25
100
AcDbSpline
210
0.0
220
0.0
230
1.0
 70
     8
 71
     3
 72
    17
 73
    13
 74
     0
 42
0.000000001
 43
0.00000001
 40
0.0
 40
0.0
 40
0.0
 40
0.0
 40
0.1072818487108628
 40
0.2145605568356024
 40
0.321920805531331
 40
0.4293345554556614
 40
0.5366595552202108
 40
0.6438920622062739
 40
0.7511726916751551
 40
0.8585668964375404
 40
0.9659629885465613
 40
0.9999999999999999
 40
0.9999999999999999
 40
0.9999999999999999
 40
0.9999999999999999
 10
1565.945587304769
 20
335.2006769882676
 30
0.0
 10
1565.944692625901
 20
335.1830084724605
 30
0.0
 10
1565.942903294356
 20
335.1476719580773
 30
0.0
 10
1565.930463279051
 20
334.8722390350666
 30
0.0
 10
1565.916630042577
 20
334.4664326960386
 30
0.0
 10
1565.906675474409
 20
333.959463255364
 30
0.0
 10
1565.905200637623
 20
333.4128518030437
 30
0.0
 10
1565.91272964354
 20
332.888364792868
 30
0.0
 10
1565.926172391619
 20
332.4406925380542
 30
0.0
 10
1565.938909713717
 20
332.1361753710254
 30
0.0
 10
1565.946025017487
 20
331.9916649793524
 30
0.0
 10
1565.944900967696
 20
332.0147520477141
 30
0.0
 10
1565.944630456092
 20
332.0203081360021
 30
0.0
  0
LINE
  5
C66
330
1F
100
AcDbEntity
  8
0
  6
Continuous
 62
     7
370
    25
100
AcDbLine
 10
1509.4455851738
 20
352.4006769883
 30
0.0
 11
1533.4455851738
 21
352.4006769883
 31
0.0
  0
LINE
  5
C67
330
1F
100
AcDbEntity
  8
0
  6
Continuous
 62
     7
370
    25
100
AcDbLine
 10
1533.4455849166
 20
348.9006769883
 30
0.0
 11
1509.4455849166
 21
348.9006769883
 31
0.0
  0
LWPOLYLINE
  5
C68
330
1F
100
AcDbEntity
  8
0
  6
Continuous
 62
     7
370
    25
100
AcDbPolyline
 90
       10
 70
   128
 43
0.0
 10
1509.4455851738
 20
352.4006769883
 10
1509.4455851292
 20
352.3475041238
 10
1509.4455850859
 20
352.189601161
 10
1509.4455850452
 20
351.9317659015
 10
1509.4455850085
 20
351.5818325392
 10
1509.4455849768
 20
351.1504336222
 10
1509.4455849511
 20
350.6506769883
 10
1509.4455849321
 20
350.0977474899
 10
1509.4455849205
 20
349.5084456101
 10
1509.4455849166
 20
348.9006769883
  0
LINE
  5
C69
330
1F
100
AcDbEntity
  8
0
  6
Continuous
 62
     7
370
    25
100
AcDbLine
 10
1509.4455849166
 20
348.9006769883
 30
0.0
 11
1509.4455849166
 21
331.4006769883
 31
0.0
  0
LINE
  5
C6A
330
1F
100
AcDbEntity
  8
0
  6
Continuous
 62
     7
370
    25
100
AcDbLine
 10
1509.4455849166
 20
331.4006769883
 30
0.0
 11
1533.4455849166
 21
331.4006769883
 31
0.0
  0
LINE
  5
C6B
330
1F
100
AcDbEntity
  8
0
  6
Continuous
 62
     7
370
    25
100
AcDbLine
 10
1505.9455851738
 20
348.9006769883
 30
0.0
 11
1509.4455849166
 21
348.9006769883
 31
0.0
  0
ARC
  5
C6C
330
1F
100
AcDbEntity
  8
0
  6
Continuous
 62
     7
370
    25
100
AcDbCircle
 10
1509.4455851738
 20
348.9006769883
 30
0.0
 40
3.500000000000009
100
AcDbArc
 50
90.0
 51
179.9999957898
  0
LINE
  5
C6D
330
1F
100
AcDbEntity
  8
0
  6
Continuous
 62
     7
370
    25
100
AcDbLine
 10
1505.9455851738
 20
331.4006769883
 30
0.0
 11
1505.9455851738
 21
348.9006769883
 31
0.0
  0
LINE
  5
C6E
330
1F
100
AcDbEntity
  8
0
  6
Continuous
 62
     7
370
    25
100
AcDbLine
 10
1509.4455849166
 20
331.4006769883
 30
0.0
 11
1505.9455851738
 21
331.4006769883
 31
0.0
  0
LINE
  5
C6F
330
1F
100
AcDbEntity
  8
0
  6
Continuous
 62
     7
370
    25
100
AcDbLine
 10
1527.9455858241
 20
327.9006769883
 30
0.0
 11
1523.7955861291
 21
327.9006769883
 31
0.0
  0
LINE
  5
C70
330
1F
100
AcDbEntity
  8
0
  6
Continuous
 62
     7
370
    25
100
AcDbLine
 10
1532.0955861291
 20
327.9006769883
 30
0.0
 11
1527.9455858241
 21
327.9006769883
 31
0.0
  0
LINE
  5
C71
330
1F
100
AcDbEntity
  8
0
  6
Continuous
 62
     7
370
    25
100
AcDbLine
 10
1561.9926914108
 20
331.1006769883
 30
0.0
 11
1533.3455884805
 21
331.1006769883
 31
0.0
  0
LINE
  5
C72
330
1F
100
AcDbEntity
  8
0
  6
Continuous
 62
     7
370
    25
100
AcDbLine
 10
1533.3455884805
 20
331.1006769883
 30
0.0
 11
1513.4455884805
 21
331.1006769883
 31
0.0
  0
LINE
  5
C73
330
1F
100
AcDbEntity
  8
0
  6
Continuous
 62
     7
370
    25
100
AcDbLine
 10
1513.4455884805
 20
331.1006769883
 30
0.0
 11
1507.9455884805
 21
331.1006769883
 31
0.0
  0
ARC
  5
C74
330
1F
100
AcDbEntity
  8
0
  6
Continuous
 62
     7
370
    25
100
AcDbCircle
 10
1507.9455884805
 20
331.6006769883
 30
0.0
 40
0.5
100
AcDbArc
 50
203.5781784782
 51
270.0
  0
LINE
  5
C75
330
1F
100
AcDbEntity
  8
0
  6
Continuous
 62
     7
370
    25
100
AcDbLine
 10
1524.1455884805
 20
329.6006769883
 30
0.0
 11
1533.4455884805
 21
329.6006769883
 31
0.0
  0
LINE
  5
C76
330
1F
100
AcDbEntity
  8
0
  6
Continuous
 62
     7
370
    25
100
AcDbLine
 10
1524.1455884805
 20
331.1006769883
 30
0.0
 11
1524.1455884805
 21
329.6006769883
 31
0.0
  0
LINE
  5
C77
330
1F
100
AcDbEntity
  8
0
  6
Continuous
 62
     7
370
    25
100
AcDbLine
 10
1524.1455884805
 20
329.1006769883
 30
0.0
 11
1532.9455884805
 21
329.1006769883
 31
0.0
  0
LINE
  5
C78
330
1F
100
AcDbEntity
  8
0
  6
Continuous
 62
     7
370
    25
100
AcDbLine
 10
1524.1455884805
 20
329.1006769883
 30
0.0
 11
1524.1455884805
 21
329.6006769883
 31
0.0
  0
LINE
  5
C79
330
1F
100
AcDbEntity
  8
0
  6
Continuous
 62
     7
370
    25
100
AcDbLine
 10
1505.8455884805
 20
331.6006769883
 30
0.0
 11
1505.8455884805
 21
350.1935702071
 31
0.0
  0
LINE
  5
C7A
330
1F
100
AcDbEntity
  8
0
  6
Continuous
 62
     7
370
    25
100
AcDbLine
 10
1507.9455884805
 20
331.1006769883
 30
0.0
 11
1506.3455884805
 21
331.1006769883
 31
0.0
  0
ARC
  5
C7B
330
1F
100
AcDbEntity
  8
0
  6
Continuous
 62
     7
370
    25
100
AcDbCircle
 10
1506.3455884805
 20
331.6006769883
 30
0.0
 40
0.5
100
AcDbArc
 50
180.0
 51
270.0
  0
LINE
  5
C7C
330
1F
100
AcDbEntity
  8
0
  6
Continuous
 62
     7
370
    25
100
AcDbLine
 10
1509.4455885723
 20
352.4006769883
 30
0.0
 11
1508.0526952617
 21
352.4006769883
 31
0.0
  0
ARC
  5
C7D
330
1F
100
AcDbEntity
  8
0
  6
Continuous
 62
     7
370
    25
100
AcDbCircle
 10
1508.0526952617
 20
351.9006769883
 30
0.0
 40
0.500000000000004
100
AcDbArc
 50
90.0
 51
135.0
  0
ARC
  5
C7E
330
1F
100
AcDbEntity
  8
0
  6
Continuous
 62
     7
370
    25
100
AcDbCircle
 10
1506.3455884805
 20
350.1935702071
 30
0.0
 40
0.5
100
AcDbArc
 50
135.0
 51
180.0
  0
LINE
  5
C7F
330
1F
100
AcDbEntity
  8
0
  6
Continuous
 62
     7
370
    25
100
AcDbLine
 10
1505.9920350899
 20
350.5471235977
 30
0.0
 11
1507.6991418711
 21
352.2542303789
 31
0.0
  0
SPLINE
  5
C80
330
1F
100
AcDbEntity
  8
0
  6
Continuous
 62
     7
370
    25
100
AcDbSpline
210
0.0
220
0.0
230
1.0
 70
     8
 71
     3
 72
    12
 73
     8
 74
     0
 42
0.000000001
 43
0.00000001
 40
0.0
 40
0.0
 40
0.0
 40
0.0
 40
0.2914927064612416
 40
0.4356709655701145
 40
0.5796068083119047
 40
0.8702796305088311
 40
1.0
 40
1.0
 40
1.0
 40
1.0
 10
1563.319014866948
 20
331.1006769882676
 30
0.0
 10
1563.375525491138
 20
331.1059982885247
 30
0.0
 10
1563.459987426754
 20
331.1139516128096
 30
0.0
 10
1563.562466801398
 20
331.1611658638858
 30
0.0
 10
1563.655489422066
 20
331.2228923387352
 30
0.0
 10
1563.731626173189
 20
331.3049970249025
 30
0.0
 10
1563.766847214343
 20
331.3781150281988
 30
0.0
 10
1563.777715341046
 20
331.4006769882676
 30
0.0
  0
SPLINE
  5
C81
330
1F
100
AcDbEntity
  8
0
  6
Continuous
 62
     7
370
    25
100
AcDbSpline
210
0.0
220
0.0
230
1.0
 70
    24
 71
     3
 72
    10
 73
     6
 74
     0
 42
0.000000001
 43
0.00000001
 40
0.0
 40
0.0
 40
0.0
 40
0.0
 40
0.3337121229004493
 40
0.6673289648891795
 40
1.0
 40
1.0
 40
1.0
 40
1.0
 10
1563.31901513718
 20
331.1006769882676
 30
0.0
 10
1563.245865201443
 20
331.1006769882676
 30
0.0
 10
1563.099586215612
 20
331.1006769882676
 30
0.0
 10
1562.662407539493
 20
331.1006769882676
 30
0.0
 10
1562.215718759615
 20
331.1006769882676
 30
0.0
 10
1561.992691410803
 20
331.1006769882676
 30
0.0
  0
LINE
  5
C82
330
1F
100
AcDbEntity
  8
0
  6
Continuous
 62
     7
370
    25
100
AcDbLine
 10
1565.9455884805
 20
317.701478853
 30
0.0
 11
1565.9455884805
 21
320.501478853
 31
0.0
  0
LINE
  5
C83
330
1F
100
AcDbEntity
  8
0
  6
Continuous
 62
     7
370
    25
100
AcDbLine
 10
1561.9455873048
 20
323.1006769883
 30
0.0
 11
1531.4455850636
 21
323.1006769883
 31
0.0
  0
LINE
  5
C84
330
1F
100
AcDbEntity
  8
0
  6
Continuous
 62
     7
370
    25
100
AcDbLine
 10
1531.4455850636
 20
323.1006769883
 30
0.0
 11
1498.4455850636
 21
323.1006769883
 31
0.0
  0
LINE
  5
C85
330
1F
100
AcDbEntity
  8
0
  6
Continuous
 62
     7
370
    25
100
AcDbLine
 10
1491.9455855412
 20
322.6006769883
 30
0.0
 11
1491.9455855412
 21
323.1006769883
 31
0.0
  0
LINE
  5
C86
330
1F
100
AcDbEntity
  8
0
  6
Continuous
 62
     7
370
    25
100
AcDbLine
 10
1498.4455850636
 20
323.1006769883
 30
0.0
 11
1491.9455855412
 21
323.1006769883
 31
0.0
  0
LINE
  5
C87
330
1F
100
AcDbEntity
  8
0
  6
Continuous
 62
     7
370
    25
100
AcDbLine
 10
1533.5455861291
 20
323.6006769883
 30
0.0
 11
1522.3455861291
 21
323.6006769883
 31
0.0
  0
LINE
  5
C88
330
1F
100
AcDbEntity
  8
0
  6
Continuous
 62
     7
370
    25
100
AcDbLine
 10
1522.3455861291
 20
327.6006769883
 30
0.0
 11
1533.5455861291
 21
327.6006769883
 31
0.0
  0
LINE
  5
C89
330
1F
100
AcDbEntity
  8
0
  6
Continuous
 62
     8
370
    25
100
AcDbLine
 10
1565.9455873048
 20
348.9006769883
 30
0.0
 11
1533.4455849166
 21
348.9006769883
 31
0.0
  0
LINE
  5
C8A
330
1F
100
AcDbEntity
  8
0
  6
Continuous
 62
     8
370
    25
100
AcDbLine
 10
1533.3455884805
 20
331.1006769883
 30
0.0
 11
1533.3455884805
 21
331.4006769883
 31
0.0
  0
ARC
  5
C8B
330
1F
100
AcDbEntity
  8
0
  6
Continuous
 62
     8
370
    25
100
AcDbCircle
 10
1561.9863865096
 20
331.5768701702
 30
0.0
 40
0.4762349192310904
100
AcDbArc
 50
270.7585642503
 51
338.2861618053
  0
LINE
  5
C8C
330
1F
100
AcDbEntity
  8
0
  6
Continuous
 62
     8
370
    25
100
AcDbLine
 10
1513.4455884805
 20
331.1006769883
 30
0.0
 11
1513.4455884805
 21
331.4006769883
 31
0.0
  0
LINE
  5
C8D
330
1F
100
AcDbEntity
  8
0
  6
Continuous
 62
     8
370
    25
100
AcDbLine
 10
1506.1931357699
 20
350.1935702071
 30
0.0
 11
1505.8455884805
 21
350.1935702071
 31
0.0
  0
LINE
  5
C8E
330
1F
100
AcDbEntity
  8
0
  6
Continuous
 62
     8
370
    25
100
AcDbLine
 10
1505.9455851738
 20
331.6006769883
 30
0.0
 11
1505.8455884805
 21
331.6006769883
 31
0.0
  0
LINE
  5
C8F
330
1F
100
AcDbEntity
  8
0
  6
Continuous
 62
     8
370
    25
100
AcDbLine
 10
1506.3455884805
 20
331.4006769883
 30
0.0
 11
1506.3455884805
 21
331.1006769883
 31
0.0
  0
LINE
  5
C90
330
1F
100
AcDbEntity
  8
0
  6
Continuous
 62
     8
370
    25
100
AcDbLine
 10
1508.0526952617
 20
352.4006769883
 30
0.0
 11
1508.0526952617
 21
352.1115736999
 31
0.0
  0
LINE
  5
C91
330
1F
100
AcDbEntity
  8
0
  6
Continuous
 62
     8
370
    25
100
AcDbLine
 10
1507.9083499043
 20
352.0450223456
 30
0.0
 11
1507.6991418711
 21
352.2542303789
 31
0.0
  0
LINE
  5
C92
330
1F
100
AcDbEntity
  8
0
  6
Continuous
 62
     8
370
    25
100
AcDbLine
 10
1506.2379947524
 20
350.3011639352
 30
0.0
 11
1505.9920350899
 21
350.5471235977
 31
0.0
  0
LINE
  5
C93
330
1F
100
AcDbEntity
  8
0
  6
Continuous
 62
     8
370
    25
100
AcDbLine
 10
1531.4455850636
 20
322.6006769883
 30
0.0
 11
1531.4455850636
 21
323.1006769883
 31
0.0
  0
LINE
  5
C94
330
1F
100
AcDbEntity
  8
0
  6
Continuous
 62
     8
370
    25
100
AcDbLine
 10
1498.4455850636
 20
322.6006769883
 30
0.0
 11
1498.4455850636
 21
323.1006769883
 31
0.0
  0
LINE
  5
C95
330
1F
100
AcDbEntity
  8
0
  6
Continuous
 62
     7
370
    25
100
AcDbLine
 10
1565.906178679
 20
232.7484587435
 30
0.0
 11
1565.9455871872
 21
232.7484587406
 31
0.0
  0
LINE
  5
C96
330
1F
100
AcDbEntity
  8
0
  6
Continuous
 62
     7
370
    25
100
AcDbLine
 10
1565.9455874223
 20
235.9484587406
 30
0.0
 11
1565.9061789142
 21
235.9484587435
 31
0.0
  0
LINE
  5
C97
330
1F
100
AcDbEntity
  8
0
  6
Continuous
 62
     7
370
    25
100
AcDbLine
 10
1491.4589569745
 20
258.3808667493
 30
0.0
 11
1491.4455890706
 21
258.3796972103
 31
0.0
  0
LINE
  5
C98
330
1F
100
AcDbEntity
  8
0
  6
Continuous
 62
     7
370
    25
100
AcDbLine
 10
1491.4455855389
 20
210.3172312197
 30
0.0
 11
1491.4589534427
 21
210.3160616787
 31
0.0
  0
LINE
  5
C99
330
1F
100
AcDbEntity
  8
0
  6
Continuous
 62
     7
370
    25
100
AcDbLine
 10
1493.4455849166
 20
201.848464068
 30
0.0
 11
1509.4455849166
 21
201.8484628923
 31
0.0
  0
ARC
  5
C9A
330
1F
100
AcDbEntity
  8
0
  6
Continuous
 62
     7
370
    25
100
AcDbCircle
 10
1493.4455851738
 20
205.348464068
 30
0.0
 40
3.500000000000009
100
AcDbArc
 50
179.9999957898
 51
269.9999957898
  0
LINE
  5
C9B
330
1F
100
AcDbEntity
  8
0
  6
Continuous
 62
     7
370
    25
100
AcDbLine
 10
1489.9455894357
 20
263.3484643252
 30
0.0
 11
1489.9455851738
 21
205.3484643252
 31
0.0
  0
ARC
  5
C9C
330
1F
100
AcDbEntity
  8
0
  6
Continuous
 62
     7
370
    25
100
AcDbCircle
 10
1493.4455894357
 20
263.348464068
 30
0.0
 40
3.500000000000009
100
AcDbArc
 50
89.9999957898
 51
179.9999957898
  0
LINE
  5
C9D
330
1F
100
AcDbEntity
  8
0
  6
Continuous
 62
     7
370
    25
100
AcDbLine
 10
1509.4455896929
 20
266.8484628923
 30
0.0
 11
1493.4455896929
 21
266.848464068
 31
0.0
  0
ARC
  5
C9E
330
1F
100
AcDbEntity
  8
0
  6
Continuous
 62
     7
370
    25
100
AcDbCircle
 10
1493.4455894357
 20
263.348464068
 30
0.0
 40
2.000000000000062
100
AcDbArc
 50
89.9999957898
 51
179.9999957898
  0
LINE
  5
C9F
330
1F
100
AcDbEntity
  8
0
  6
Continuous
 62
     7
370
    25
100
AcDbLine
 10
1491.4455851738
 20
205.348464215
 30
0.0
 11
1491.4455894357
 21
263.348464215
 31
0.0
  0
ARC
  5
CA0
330
1F
100
AcDbEntity
  8
0
  6
Continuous
 62
     7
370
    25
100
AcDbCircle
 10
1493.4455851738
 20
205.348464068
 30
0.0
 40
2.000000000000091
100
AcDbArc
 50
179.9999957898
 51
269.9999957898
  0
LINE
  5
CA1
330
1F
100
AcDbEntity
  8
0
  6
Continuous
 62
     7
370
    25
100
AcDbLine
 10
1506.5733037036
 20
203.3484631034
 30
0.0
 11
1493.4455850269
 21
203.348464068
 31
0.0
  0
LINE
  5
CA2
330
1F
100
AcDbEntity
  8
0
  6
Continuous
 62
     7
370
    25
100
AcDbLine
 10
1493.4455895827
 20
265.348464068
 30
0.0
 11
1506.5733082594
 21
265.3484631034
 31
0.0
  0
LINE
  5
CA3
330
1F
100
AcDbEntity
  8
0
  6
Continuous
 62
     7
370
    25
100
AcDbLine
 10
1493.4455895827
 20
265.348464068
 30
0.0
 11
1493.4455894725
 21
263.848464068
 31
0.0
  0
ARC
  5
CA4
330
1F
100
AcDbEntity
  8
0
  6
Continuous
 62
     7
370
    25
100
AcDbCircle
 10
1493.4455894357
 20
263.348464068
 30
0.0
 40
0.4999999999999445
100
AcDbArc
 50
89.9999957898
 51
179.9999957898
  0
LINE
  5
CA5
330
1F
100
AcDbEntity
  8
0
  6
Continuous
 62
     7
370
    25
100
AcDbLine
 10
1491.4455894357
 20
263.348464215
 30
0.0
 11
1492.9455894357
 21
263.3484641048
 31
0.0
  0
LINE
  5
CA6
330
1F
100
AcDbEntity
  8
0
  6
Continuous
 62
     7
370
    25
100
AcDbLine
 10
1492.9455851738
 20
205.3484641048
 30
0.0
 11
1491.4455851738
 21
205.348464215
 31
0.0
  0
ARC
  5
CA7
330
1F
100
AcDbEntity
  8
0
  6
Continuous
 62
     7
370
    25
100
AcDbCircle
 10
1493.4455851738
 20
205.348464068
 30
0.0
 40
0.5000000000000013
100
AcDbArc
 50
179.9999957898
 51
269.9999957898
  0
LINE
  5
CA8
330
1F
100
AcDbEntity
  8
0
  6
Continuous
 62
     7
370
    25
100
AcDbLine
 10
1493.4455851371
 20
204.848464068
 30
0.0
 11
1493.4455850269
 21
203.348464068
 31
0.0
  0
LINE
  5
CA9
330
1F
100
AcDbEntity
  8
0
  6
Continuous
 62
     7
370
    25
100
AcDbLine
 10
1509.4455896929
 20
266.8484628923
 30
0.0
 11
1509.4455894357
 21
263.3484628923
 31
0.0
  0
LINE
  5
CAA
330
1F
100
AcDbEntity
  8
0
  6
Continuous
 62
     7
370
    25
100
AcDbLine
 10
1505.9455894357
 20
263.3484631495
 30
0.0
 11
1509.4455894357
 21
263.3484628923
 31
0.0
  0
ARC
  5
CAB
330
1F
100
AcDbEntity
  8
0
  6
Continuous
 62
     7
370
    25
100
AcDbCircle
 10
1509.4455894357
 20
263.3484628923
 30
0.0
 40
3.500000000000237
100
AcDbArc
 50
89.9999957898
 51
179.9999957898
  0
LINE
  5
CAC
330
1F
100
AcDbEntity
  8
0
  6
Continuous
 62
     7
370
    25
100
AcDbLine
 10
1509.4455896929
 20
266.8484628923
 30
0.0
 11
1533.4455896929
 21
266.8484611288
 31
0.0
  0
LINE
  5
CAD
330
1F
100
AcDbEntity
  8
0
  6
Continuous
 62
     7
370
    25
100
AcDbLine
 10
1533.4455896929
 20
266.8484611288
 30
0.0
 11
1533.4455894357
 21
263.3484611288
 31
0.0
  0
LINE
  5
CAE
330
1F
100
AcDbEntity
  8
0
  6
Continuous
 62
     7
370
    25
100
AcDbLine
 10
1533.4455894357
 20
263.3484611288
 30
0.0
 11
1509.4455894357
 21
263.3484628923
 31
0.0
  0
LINE
  5
CAF
330
1F
100
AcDbEntity
  8
0
  6
Continuous
 62
     7
370
    25
100
AcDbLine
 10
1505.9455885723
 20
251.5984631495
 30
0.0
 11
1505.9455894357
 21
263.3484631495
 31
0.0
  0
LINE
  5
CB0
330
1F
100
AcDbEntity
  8
0
  6
Continuous
 62
     7
370
    25
100
AcDbLine
 10
1509.4455894357
 20
263.3484628923
 30
0.0
 11
1509.4455885723
 21
251.5984628923
 31
0.0
  0
LINE
  5
CB1
330
1F
100
AcDbEntity
  8
0
  6
Continuous
 62
     7
370
    25
100
AcDbLine
 10
1509.4455885723
 20
251.5984628923
 30
0.0
 11
1505.9455885723
 21
251.5984631495
 31
0.0
  0
LINE
  5
CB2
330
1F
100
AcDbEntity
  8
0
  6
Continuous
 62
     7
370
    25
100
AcDbLine
 10
1512.6455860372
 20
217.0984626572
 30
0.0
 11
1512.6455885723
 21
251.5984626572
 31
0.0
  0
LINE
  5
CB3
330
1F
100
AcDbEntity
  8
0
  6
Continuous
 62
     7
370
    25
100
AcDbLine
 10
1512.6455885723
 20
251.5984626572
 30
0.0
 11
1509.4455885723
 21
251.5984628923
 31
0.0
  0
ARC
  5
CB4
330
1F
100
AcDbEntity
  8
0
  6
Continuous
 62
     7
370
    25
100
AcDbCircle
 10
1533.4455873048
 20
234.3484611288
 30
0.0
 40
29.00000000000002
100
AcDbArc
 50
269.9999957898
 51
89.9999957898
  0
LINE
  5
CB5
330
1F
100
AcDbEntity
  8
0
  6
Continuous
 62
     7
370
    25
100
AcDbLine
 10
1509.4455851738
 20
205.3484628923
 30
0.0
 11
1533.4455851738
 21
205.3484611288
 31
0.0
  0
LINE
  5
CB6
330
1F
100
AcDbEntity
  8
0
  6
Continuous
 62
     7
370
    25
100
AcDbLine
 10
1509.4455860372
 20
217.0984628923
 30
0.0
 11
1509.4455851738
 21
205.3484628923
 31
0.0
  0
LINE
  5
CB7
330
1F
100
AcDbEntity
  8
0
  6
Continuous
 62
     7
370
    25
100
AcDbLine
 10
1509.4455860372
 20
217.0984628923
 30
0.0
 11
1512.6455860372
 21
217.0984626572
 31
0.0
  0
ARC
  5
CB8
330
1F
100
AcDbEntity
  8
0
  6
Continuous
 62
     7
370
    25
100
AcDbCircle
 10
1533.4455873048
 20
234.3484611288
 30
0.0
 40
32.50000000000009
100
AcDbArc
 50
269.9999957898
 51
89.9999957898
  0
LINE
  5
CB9
330
1F
100
AcDbEntity
  8
0
  6
Continuous
 62
     7
370
    25
100
AcDbLine
 10
1533.4455851738
 20
205.3484611288
 30
0.0
 11
1533.4455849166
 21
201.8484611288
 31
0.0
  0
LINE
  5
CBA
330
1F
100
AcDbEntity
  8
0
  6
Continuous
 62
     7
370
    25
100
AcDbLine
 10
1509.4455851738
 20
205.3484628923
 30
0.0
 11
1505.9455851738
 21
205.3484631495
 31
0.0
  0
LINE
  5
CBB
330
1F
100
AcDbEntity
  8
0
  6
Continuous
 62
     7
370
    25
100
AcDbLine
 10
1505.9455851738
 20
205.3484631495
 30
0.0
 11
1505.9455860372
 21
217.0984631495
 31
0.0
  0
LINE
  5
CBC
330
1F
100
AcDbEntity
  8
0
  6
Continuous
 62
     7
370
    25
100
AcDbLine
 10
1505.9455860372
 20
217.0984631495
 30
0.0
 11
1509.4455860372
 21
217.0984628923
 31
0.0
  0
LINE
  5
CBD
330
1F
100
AcDbEntity
  8
0
  6
Continuous
 62
     7
370
    25
100
AcDbLine
 10
1509.4455851738
 20
205.3484628923
 30
0.0
 11
1509.4455849166
 21
201.8484628923
 31
0.0
  0
ARC
  5
CBE
330
1F
100
AcDbEntity
  8
0
  6
Continuous
 62
     7
370
    25
100
AcDbCircle
 10
1509.4455851738
 20
205.3484628923
 30
0.0
 40
3.500000000000038
100
AcDbArc
 50
179.9999957898
 51
269.9999957898
  0
LINE
  5
CBF
330
1F
100
AcDbEntity
  8
0
  6
Continuous
 62
     7
370
    25
100
AcDbLine
 10
1533.4455849166
 20
201.8484611288
 30
0.0
 11
1509.4455849166
 21
201.8484628923
 31
0.0
  0
LINE
  5
CC0
330
1F
100
AcDbEntity
  8
0
  6
Continuous
 62
     7
370
    25
100
AcDbLine
 10
1505.9455885723
 20
251.5984631495
 30
0.0
 11
1505.9455885393
 21
251.1484616113
 31
0.0
  0
LINE
  5
CC1
330
1F
100
AcDbEntity
  8
0
  6
Continuous
 62
     7
370
    25
100
AcDbLine
 10
1505.9455860703
 20
217.5484647465
 30
0.0
 11
1505.9455860372
 21
217.0984631495
 31
0.0
  0
ARC
  5
CC2
330
1F
100
AcDbEntity
  8
0
  6
Continuous
 62
     7
370
    25
100
AcDbCircle
 10
1498.4455890389
 20
257.9484637006
 30
0.0
 40
7.000000000000019
100
AcDbArc
 50
89.9999957898
 51
179.9999957898
  0
SPLINE
  5
CC3
330
1F
100
AcDbEntity
  8
0
  6
Continuous
 62
     7
370
    25
100
AcDbSpline
210
0.0
220
0.0
230
1.0
 70
     8
 71
     3
 72
    27
 73
    23
 74
     0
 42
0.000000001
 43
0.00000001
 40
0.0
 40
0.0
 40
0.0
 40
0.0
 40
0.0137771303131946
 40
0.0547616637028926
 40
0.095746210254268
 40
0.1162383919830128
 40
0.1572229575660397
 40
0.1777151416083564
 40
0.2186997252796347
 40
0.2391919115109585
 40
0.2801765122439369
 40
0.3006687005307771
 40
0.3416533172213712
 40
0.3826379439038695
 40
0.4031301352980036
 40
0.4441147759594626
 40
0.4646069690135968
 40
0.5055916223917549
 40
0.5260838169458327
 40
0.6080553595550114
 40
0.9361298182370078
 40
1.0
 40
1.0
 40
1.0
 40
1.0
 10
1491.445586137598
 20
212.1510903605019
 30
0.0
 10
1491.445586332967
 20
212.1497184288799
 30
0.0
 10
1491.445587109524
 20
212.144265242592
 30
0.0
 10
1491.445591209737
 20
212.1347193163211
 30
0.0
 10
1491.445598184233
 20
212.1244916167559
 30
0.0
 10
1491.445607162922
 20
212.1142535515386
 30
0.0
 10
1491.445615770583
 20
212.1060551293508
 30
0.0
 10
1491.445628080044
 20
212.0957972966645
 30
0.0
 10
1491.445639062699
 20
212.0875832316893
 30
0.0
 10
1491.445653964679
 20
212.0773062063402
 30
0.0
 10
1491.445666727691
 20
212.0690770766137
 30
0.0
 10
1491.445683494619
 20
212.058781642779
 30
0.0
 10
1491.445700957964
 20
212.0484772707301
 30
0.0
 10
1491.445719044994
 20
212.0381614881008
 30
0.0
 10
1491.445737380251
 20
212.0278375645519
 30
0.0
 10
1491.445752161786
 20
212.0195720072081
 30
0.0
 10
1491.445770574736
 20
212.0092325374551
 30
0.0
 10
1491.4457851749
 20
212.0009550649982
 30
0.0
 10
1491.445810232845
 20
211.9864596069623
 30
0.0
 10
1491.445882342019
 20
211.9429088328576
 30
0.0
 10
1491.445937672521
 20
211.8947698089429
 30
0.0
 10
1491.445941400404
 20
211.8549525116476
 30
0.0
 10
1491.44594200789
 20
211.8484639983394
 30
0.0
  0
SPLINE
  5
CC4
330
1F
100
AcDbEntity
  8
0
  6
Continuous
 62
     7
370
    25
100
AcDbSpline
210
0.0
220
0.0
230
1.0
 70
     8
 71
     3
 72
    26
 73
    22
 74
     0
 42
0.000000001
 43
0.00000001
 40
0.0
 40
0.0
 40
0.0
 40
0.0
 40
0.0100747712199976
 40
0.0503742313382412
 40
0.2115959459077872
 40
0.3728168785875312
 40
0.5340364026843673
 40
0.5541859754879639
 40
0.5944853726832665
 40
0.634784760934375
 40
0.6549343309296702
 40
0.695233704762183
 40
0.7153832728731778
 40
0.7556826311359283
 40
0.7758321972231276
 40
0.8161315388273386
 40
0.8362811027586006
 40
0.8765804266873324
 40
0.9168797383070703
 40
0.9370292983809186
 40
1.0
 40
1.0
 40
1.0
 40
1.0
 10
1491.445945314542
 20
256.8484639983392
 30
0.0
 10
1491.445945298415
 20
256.8474230894373
 30
0.0
 10
1491.445945217784
 20
256.8422185061585
 30
0.0
 10
1491.445941956993
 20
256.8203571168825
 30
0.0
 10
1491.44591830505
 20
256.7828858909554
 30
0.0
 10
1491.44585313213
 20
256.7330085634852
 30
0.0
 10
1491.445791854944
 20
256.6977772081711
 30
0.0
 10
1491.445751283856
 20
256.6750322995934
 30
0.0
 10
1491.445732820739
 20
256.664702288816
 30
0.0
 10
1491.445714597978
 20
256.6543830404942
 30
0.0
 10
1491.445696774023
 20
256.6440722708117
 30
0.0
 10
1491.445682922973
 20
256.6358305237259
 30
0.0
 10
1491.445666349089
 20
256.6255373388273
 30
0.0
 10
1491.445653775825
 20
256.6173100508879
 30
0.0
 10
1491.445639156641
 20
256.6070353796798
 30
0.0
 10
1491.445628435694
 20
256.5988232317903
 30
0.0
 10
1491.445616504252
 20
256.5885678488381
 30
0.0
 10
1491.445606146804
 20
256.5783222181869
 30
0.0
 10
1491.445598315259
 20
256.5680902175101
 30
0.0
 10
1491.445591062448
 20
256.5555672786323
 30
0.0
 10
1491.445589852287
 20
256.5471493847582
 30
0.0
 10
1491.445588935487
 20
256.5407721107625
 30
0.0
  0
LINE
  5
CC5
330
1F
100
AcDbEntity
  8
0
  6
Continuous
 62
     7
370
    25
100
AcDbLine
 10
1506.33271307
 20
264.9484631211
 30
0.0
 11
1498.4455895533
 21
264.9484637006
 31
0.0
  0
ARC
  5
CC6
330
1F
100
AcDbEntity
  8
0
  6
Continuous
 62
     7
370
    25
100
AcDbCircle
 10
1498.4455855706
 20
210.7484637006
 30
0.0
 40
6.999999999999848
100
AcDbArc
 50
179.9999957898
 51
269.9999957898
  0
LINE
  5
CC7
330
1F
100
AcDbEntity
  8
0
  6
Continuous
 62
     7
370
    25
100
AcDbLine
 10
1498.4455850562
 20
203.7484637006
 30
0.0
 11
1506.332708573
 21
203.7484631211
 31
0.0
  0
SPLINE
  5
CC8
330
1F
100
AcDbEntity
  8
0
  6
Continuous
 62
     7
370
    25
100
AcDbSpline
210
0.0
220
0.0
230
1.0
 70
     8
 71
     3
 72
    40
 73
    36
 74
     0
 42
0.000000001
 43
0.00000001
 40
0.0
 40
0.0
 40
0.0
 40
0.0
 40
0.0090928650573683
 40
0.0292724943728402
 40
0.0696320042700481
 40
0.1099915142379443
 40
0.1301711435732063
 40
0.1705306536494698
 40
0.1907102829973703
 40
0.2310697931829039
 40
0.2512494225442227
 40
0.2916089328394046
 40
0.3117885622136983
 40
0.3521480726174224
 40
0.3925075830914522
 40
0.4126872124863397
 40
0.4530467230622413
 40
0.4732263524691505
 40
0.5135858631413265
 40
0.5337654925595362
 40
0.5741250033210304
 40
0.614484514137548
 40
0.6346641435725798
 40
0.6750236544640746
 40
0.6952032839076907
 40
0.7355627948652566
 40
0.7759223058594779
 40
0.7961019353144749
 40
0.8364614463549073
 40
0.8566410758142603
 40
0.8970005868879374
 40
0.9171802163517443
 40
0.9585886101040062
 40
0.9792941234480842
 40
0.9999999999999999
 40
0.9999999999999999
 40
0.9999999999999999
 40
0.9999999999999999
 10
1491.445589012212
 20
256.5410743341882
 30
0.0
 10
1491.445589052801
 20
256.541993381627
 30
0.0
 10
1491.445589183471
 20
256.5449520542579
 30
0.0
 10
1491.445589855353
 20
256.5519951656543
 30
0.0
 10
1491.445591631676
 20
256.5622127391576
 30
0.0
 10
1491.445594421551
 20
256.5724463639084
 30
0.0
 10
1491.445597868931
 20
256.5826912827482
 30
0.0
 10
1491.445601120471
 20
256.5908961626281
 30
0.0
 10
1491.445605712523
 20
256.6011628372982
 30
0.0
 10
1491.445609773367
 20
256.6093845059863
 30
0.0
 10
1491.445615246674
 20
256.6196714022241
 30
0.0
 10
1491.445619908997
 20
256.6279086333813
 30
0.0
 10
1491.445626007698
 20
256.6382142184362
 30
0.0
 10
1491.445632336279
 20
256.6485286760412
 30
0.0
 10
1491.445638864594
 20
256.6588542229792
 30
0.0
 10
1491.445645465976
 20
256.6691875302743
 30
0.0
 10
1491.445650775779
 20
256.6774602449912
 30
0.0
 10
1491.445657377229
 20
256.6878081248094
 30
0.0
 10
1491.445662602255
 20
256.6960918810461
 30
0.0
 10
1491.445668997572
 20
256.7064527910614
 30
0.0
 10
1491.445675225742
 20
256.7168197407913
 30
0.0
 10
1491.445681151715
 20
256.7271939973645
 30
0.0
 10
1491.445686796651
 20
256.7375731741181
 30
0.0
 10
1491.445691067342
 20
256.7458803100258
 30
0.0
 10
1491.445696051836
 20
256.7562683751477
 30
0.0
 10
1491.445700660845
 20
256.7666604081725
 30
0.0
 10
1491.445704716109
 20
256.777056983507
 30
0.0
 10
1491.445708322149
 20
256.7874564034763
 30
0.0
 10
1491.445710835476
 20
256.7957780744597
 30
0.0
 10
1491.445713486956
 20
256.8061822268833
 30
0.0
 10
1491.445715206741
 20
256.8145070631643
 30
0.0
 10
1491.445716856512
 20
256.8250225794175
 30
0.0
 10
1491.445717744754
 20
256.8335117964463
 30
0.0
 10
1491.445718210958
 20
256.8420557014923
 30
0.0
 10
1491.445718253942
 20
256.8463278875089
 30
0.0
 10
1491.445718275435
 20
256.8484639992523
 30
0.0
  0
SPLINE
  5
CC9
330
1F
100
AcDbEntity
  8
0
  6
Continuous
 62
     7
370
    25
100
AcDbSpline
210
0.0
220
0.0
230
1.0
 70
     8
 71
     3
 72
    39
 73
    35
 74
     0
 42
0.000000001
 43
0.00000001
 40
0.0
 40
0.0
 40
0.0
 40
0.0
 40
0.0102507425086314
 40
0.0512540327869458
 40
0.0922573230593575
 40
0.1127588400986036
 40
0.1537621303497801
 40
0.1947654205798234
 40
0.2152669376129128
 40
0.2562702278005963
 40
0.2767717448281221
 40
0.3177750349604434
 40
0.3382765519803514
 40
0.3792798420494644
 40
0.4202831320700324
 40
0.440784649073737
 40
0.4817879390127197
 40
0.5022894560054244
 40
0.5432927458544351
 40
0.5637942628350737
 40
0.6047975525869033
 40
0.645800842271191
 40
0.6663023592293328
 40
0.7073056488070592
 40
0.7278071657522707
 40
0.7688104552201317
 40
0.7893119721502883
 40
0.8303152615080654
 40
0.8508167784228847
 40
0.8918200676687733
 40
0.9328233568410066
 40
0.9533248737314544
 40
0.9851444569847378
 40
0.9999999999999999
 40
0.9999999999999999
 40
0.9999999999999999
 40
0.9999999999999999
 10
1491.445714968783
 20
211.8484639992525
 30
0.0
 10
1491.445714962985
 20
211.8495049074648
 30
0.0
 10
1491.445714933994
 20
211.8547094810456
 30
0.0
 10
1491.445714433715
 20
211.8640776599334
 30
0.0
 10
1491.445713189187
 20
211.8744858724397
 30
0.0
 10
1491.445711416381
 20
211.8848928764532
 30
0.0
 10
1491.445709129215
 20
211.8952984882688
 30
0.0
 10
1491.445706179033
 20
211.9057015006788
 30
0.0
 10
1491.445702756591
 20
211.916101999601
 30
0.0
 10
1491.445699652047
 20
211.9244202474673
 30
0.0
 10
1491.445695345793
 20
211.9348147637803
 30
0.0
 10
1491.445691574963
 20
211.9431276043168
 30
0.0
 10
1491.445686494767
 20
211.9535145855641
 30
0.0
 10
1491.445681070209
 20
211.9638973217286
 30
0.0
 10
1491.445675250572
 20
211.9742736498926
 30
0.0
 10
1491.445669188076
 20
211.9846446118283
 30
0.0
 10
1491.445664166394
 20
211.9929369481601
 30
0.0
 10
1491.445657734865
 20
212.0032962254324
 30
0.0
 10
1491.44565249144
 20
212.0115785957477
 30
0.0
 10
1491.44564588097
 20
212.0219246436247
 30
0.0
 10
1491.445639249096
 20
212.0322636019045
 30
0.0
 10
1491.445632684925
 20
212.0425923638931
 30
0.0
 10
1491.445626247537
 20
212.0529129220667
 30
0.0
 10
1491.445621230273
 20
212.0611626663937
 30
0.0
 10
1491.445615204914
 20
212.0714658713595
 30
0.0
 10
1491.445610614546
 20
212.0797011201304
 30
0.0
 10
1491.445605248036
 20
212.0899854367026
 30
0.0
 10
1491.445601286457
 20
212.0982049568742
 30
0.0
 10
1491.445596834924
 20
212.108468859321
 30
0.0
 10
1491.445592932196
 20
212.1187220279198
 30
0.0
 10
1491.445589859792
 20
212.1289604277804
 30
0.0
 10
1491.445587756636
 20
212.1382703247351
 30
0.0
 10
1491.445586549795
 20
212.1449668370817
 30
0.0
 10
1491.445586237116
 20
212.1496119389825
 30
0.0
 10
1491.445586137598
 20
212.1510903605019
 30
0.0
  0
ARC
  5
CCA
330
1F
100
AcDbEntity
  8
0
  6
Continuous
 62
     7
370
    25
100
AcDbCircle
 10
1508.1410836093
 20
250.9109615329
 30
0.0
 40
0.446339276783959
100
AcDbArc
 50
101.421753659
 51
188.0494669755
  0
LINE
  5
CCB
330
1F
100
AcDbEntity
  8
0
  6
Continuous
 62
     7
370
    25
100
AcDbLine
 10
1508.0526952617
 20
251.3484615329
 30
0.0
 11
1508.0526952617
 21
250.8484615329
 31
0.0
  0
LINE
  5
CCC
330
1F
100
AcDbEntity
  8
0
  6
Continuous
 62
     7
370
    25
100
AcDbLine
 10
1508.0526952617
 20
250.8484615329
 30
0.0
 11
1507.6991418711
 21
250.8484615329
 31
0.0
  0
LINE
  5
CCD
330
1F
100
AcDbEntity
  8
0
  6
Continuous
 62
     7
370
    25
100
AcDbLine
 10
1507.6991418711
 20
217.8484615329
 30
0.0
 11
1507.6991418711
 21
250.8484615329
 31
0.0
  0
LINE
  5
CCE
330
1F
100
AcDbEntity
  8
0
  6
Continuous
 62
     7
370
    25
100
AcDbLine
 10
1508.0526952617
 20
217.8484615329
 30
0.0
 11
1508.0526952617
 21
250.8484615329
 31
0.0
  0
LINE
  5
CCF
330
1F
100
AcDbEntity
  8
0
  6
Continuous
 62
     7
370
    25
100
AcDbLine
 10
1507.6991418711
 20
217.8484615329
 30
0.0
 11
1508.0526952617
 21
217.8484615329
 31
0.0
  0
LINE
  5
CD0
330
1F
100
AcDbEntity
  8
0
  6
Continuous
 62
     7
370
    25
100
AcDbLine
 10
1510.4455884805
 20
251.3484615329
 30
0.0
 11
1510.4455884805
 21
250.8484615329
 31
0.0
  0
LINE
  5
CD1
330
1F
100
AcDbEntity
  8
0
  6
Continuous
 62
     7
370
    25
100
AcDbLine
 10
1508.0526952617
 20
250.8484615329
 30
0.0
 11
1510.4455884805
 21
250.8484615329
 31
0.0
  0
LINE
  5
CD2
330
1F
100
AcDbEntity
  8
0
  6
Continuous
 62
     7
370
    25
100
AcDbLine
 10
1508.0526952617
 20
251.3484615329
 30
0.0
 11
1510.4455884805
 21
251.3484615329
 31
0.0
  0
LINE
  5
CD3
330
1F
100
AcDbEntity
  8
0
  6
Continuous
 62
     7
370
    25
100
AcDbLine
 10
1510.4455884805
 20
217.8484615329
 30
0.0
 11
1508.0526952617
 21
217.8484615329
 31
0.0
  0
SPLINE
  5
CD4
330
1F
100
AcDbEntity
  8
0
  6
Continuous
 62
     7
370
    25
100
AcDbSpline
210
0.0
220
0.0
230
1.0
 70
     8
 71
     3
 72
    11
 73
     7
 74
     0
 42
0.000000001
 43
0.00000001
 40
0.0
 40
0.0
 40
0.0
 40
0.0
 40
0.2500000000001121
 40
0.5000000000000874
 40
0.7500000000000104
 40
1.0
 40
1.0
 40
1.0
 40
1.0
 10
1511.945588480468
 20
249.3484615329116
 30
0.0
 10
1511.923041121287
 20
249.5450170986211
 30
0.0
 10
1511.877946402925
 20
249.9381282300399
 30
0.0
 10
1511.531072583242
 20
250.4339456356854
 30
0.0
 10
1511.035255177596
 20
250.7808194553686
 30
0.0
 10
1510.642144046177
 20
250.8259141737307
 30
0.0
 10
1510.445588480468
 20
250.8484615329117
 30
0.0
  0
LINE
  5
CD5
330
1F
100
AcDbEntity
  8
0
  6
Continuous
 62
     7
370
    25
100
AcDbLine
 10
1511.9455884805
 20
219.3484615329
 30
0.0
 11
1511.9455884805
 21
249.3484615329
 31
0.0
  0
SPLINE
  5
CD6
330
1F
100
AcDbEntity
  8
0
  6
Continuous
 62
     7
370
    25
100
AcDbSpline
210
0.0
220
0.0
230
1.0
 70
     8
 71
     3
 72
    11
 73
     7
 74
     0
 42
0.000000001
 43
0.00000001
 40
0.0
 40
0.0
 40
0.0
 40
0.0
 40
0.2499999999999938
 40
0.4999999999999216
 40
0.7500000000000205
 40
1.0
 40
1.0
 40
1.0
 40
1.0
 10
1510.445588480468
 20
217.8484615329117
 30
0.0
 10
1510.642144046177
 20
217.8710088920928
 30
0.0
 10
1511.035255177596
 20
217.9161036104549
 30
0.0
 10
1511.531072583242
 20
218.2629774301382
 30
0.0
 10
1511.877946402925
 20
218.7587948357838
 30
0.0
 10
1511.923041121287
 20
219.1519059672025
 30
0.0
 10
1511.945588480468
 20
219.3484615329119
 30
0.0
  0
LINE
  5
CD7
330
1F
100
AcDbEntity
  8
0
  6
Continuous
 62
     7
370
    25
100
AcDbLine
 10
1508.0526952617
 20
217.8484615329
 30
0.0
 11
1508.0526952617
 21
217.3484615329
 31
0.0
  0
ARC
  5
CD8
330
1F
100
AcDbEntity
  8
0
  6
Continuous
 62
     7
370
    25
100
AcDbCircle
 10
1508.1410836093
 20
217.7859615329
 30
0.0
 40
0.4463392767837189
100
AcDbArc
 50
171.9505330244
 51
258.5782463411001
  0
LINE
  5
CD9
330
1F
100
AcDbEntity
  8
0
  6
Continuous
 62
     7
370
    25
100
AcDbLine
 10
1510.4455884805
 20
217.8484615329
 30
0.0
 11
1510.4455884805
 21
217.3484615329
 31
0.0
  0
LINE
  5
CDA
330
1F
100
AcDbEntity
  8
0
  6
Continuous
 62
     7
370
    25
100
AcDbLine
 10
1510.4455884805
 20
217.3484615329
 30
0.0
 11
1508.0526952617
 21
217.3484615329
 31
0.0
  0
ARC
  5
CDB
330
1F
100
AcDbEntity
  8
0
  6
Continuous
 62
     7
370
    25
100
AcDbCircle
 10
1510.4455884805
 20
249.3484615329
 30
0.0
 40
2.0
100
AcDbArc
 50
0.0
 51
90.0
  0
LINE
  5
CDC
330
1F
100
AcDbEntity
  8
0
  6
Continuous
 62
     7
370
    25
100
AcDbLine
 10
1512.4455884805
 20
249.3484615329
 30
0.0
 11
1511.9455884805
 21
249.3484615329
 31
0.0
  0
LINE
  5
CDD
330
1F
100
AcDbEntity
  8
0
  6
Continuous
 62
     7
370
    25
100
AcDbLine
 10
1512.4455884805
 20
249.3484615329
 30
0.0
 11
1512.4455884805
 21
219.3484615329
 31
0.0
  0
LINE
  5
CDE
330
1F
100
AcDbEntity
  8
0
  6
Continuous
 62
     7
370
    25
100
AcDbLine
 10
1512.4455884805
 20
219.3484615329
 30
0.0
 11
1511.9455884805
 21
219.3484615329
 31
0.0
  0
ARC
  5
CDF
330
1F
100
AcDbEntity
  8
0
  6
Continuous
 62
     7
370
    25
100
AcDbCircle
 10
1510.4455884805
 20
219.3484615329
 30
0.0
 40
2.0
100
AcDbArc
 50
270.0
 51
0.0
  0
LINE
  5
CE0
330
1F
100
AcDbEntity
  8
0
  6
Continuous
 62
     7
370
    25
100
AcDbLine
 10
1507.6991418711
 20
250.8484615329
 30
0.0
 11
1505.9920350899
 21
250.8484615329
 31
0.0
  0
ARC
  5
CE1
330
1F
100
AcDbEntity
  8
0
  6
Continuous
 62
     7
370
    25
100
AcDbCircle
 10
1506.4339768281
 20
250.9109615329
 30
0.0
 40
0.4463392767835239
100
AcDbArc
 50
101.4217536589
 51
188.0494669756
  0
LINE
  5
CE2
330
1F
100
AcDbEntity
  8
0
  6
Continuous
 62
     7
370
    25
100
AcDbLine
 10
1506.3455884805
 20
251.3484615329
 30
0.0
 11
1508.0526952617
 21
251.3484615329
 31
0.0
  0
LINE
  5
CE3
330
1F
100
AcDbEntity
  8
0
  6
Continuous
 62
     7
370
    25
100
AcDbLine
 10
1505.9920350899
 20
217.8484615329
 30
0.0
 11
1507.6991418711
 21
217.8484615329
 31
0.0
  0
LINE
  5
CE4
330
1F
100
AcDbEntity
  8
0
  6
Continuous
 62
     7
370
    25
100
AcDbLine
 10
1505.9920350899
 20
217.8484615329
 30
0.0
 11
1505.9920350899
 21
250.8484615329
 31
0.0
  0
LINE
  5
CE5
330
1F
100
AcDbEntity
  8
0
  6
Continuous
 62
     7
370
    25
100
AcDbLine
 10
1508.0526952617
 20
217.3484615329
 30
0.0
 11
1506.3455884805
 21
217.3484615329
 31
0.0
  0
ARC
  5
CE6
330
1F
100
AcDbEntity
  8
0
  6
Continuous
 62
     7
370
    25
100
AcDbCircle
 10
1506.4339768281
 20
217.7859615329
 30
0.0
 40
0.4463392767832667
100
AcDbArc
 50
171.9505330244
 51
258.5782463411001
  0
LINE
  5
CE7
330
1F
100
AcDbEntity
  8
0
  6
Continuous
 62
     7
370
    25
100
AcDbLine
 10
1507.4455884805
 20
217.0984630393
 30
0.0
 11
1507.4455884805
 21
217.3484615329
 31
0.0
  0
LINE
  5
CE8
330
1F
100
AcDbEntity
  8
0
  6
Continuous
 62
     7
370
    25
100
AcDbLine
 10
1507.4455884805
 20
251.3484615329
 30
0.0
 11
1507.4455884805
 21
251.5984630393
 31
0.0
  0
ARC
  5
CE9
330
1F
100
AcDbEntity
  8
0
  6
Continuous
 62
     7
370
    25
100
AcDbCircle
 10
1506.3455884805
 20
250.8484615329
 30
0.0
 40
0.5
100
AcDbArc
 50
90.0
 51
180.0
  0
LINE
  5
CEA
330
1F
100
AcDbEntity
  8
0
  6
Continuous
 62
     7
370
    25
100
AcDbLine
 10
1505.9920350899
 20
250.8484615329
 30
0.0
 11
1505.8455884805
 21
250.8484615329
 31
0.0
  0
LINE
  5
CEB
330
1F
100
AcDbEntity
  8
0
  6
Continuous
 62
     7
370
    25
100
AcDbLine
 10
1505.8455884805
 20
217.8484615329
 30
0.0
 11
1505.8455884805
 21
250.8484615329
 31
0.0
  0
LINE
  5
CEC
330
1F
100
AcDbEntity
  8
0
  6
Continuous
 62
     7
370
    25
100
AcDbLine
 10
1505.8455884805
 20
217.8484615329
 30
0.0
 11
1505.9920350899
 21
217.8484615329
 31
0.0
  0
ARC
  5
CED
330
1F
100
AcDbEntity
  8
0
  6
Continuous
 62
     7
370
    25
100
AcDbCircle
 10
1506.3455884805
 20
217.8484615329
 30
0.0
 40
0.5000000000000284
100
AcDbArc
 50
180.0
 51
270.0
  0
LINE
  5
CEE
330
1F
100
AcDbEntity
  8
0
  6
Continuous
 62
     7
370
    25
100
AcDbLine
 10
1506.2833074034
 20
203.8484631247
 30
0.0
 11
1498.4455850636
 21
203.8484637006
 31
0.0
  0
ARC
  5
CEF
330
1F
100
AcDbEntity
  8
0
  6
Continuous
 62
     7
370
    25
100
AcDbCircle
 10
1498.4455855412
 20
210.3484637006
 30
0.0
 40
6.499999999999989
100
AcDbArc
 50
179.9999957898
 51
269.9999957898
  0
LINE
  5
CF0
330
1F
100
AcDbEntity
  8
0
  6
Continuous
 62
     7
370
    25
100
AcDbLine
 10
1491.9455855412
 20
210.3484641782
 30
0.0
 11
1491.9455890683
 21
258.3484641782
 31
0.0
  0
ARC
  5
CF1
330
1F
100
AcDbEntity
  8
0
  6
Continuous
 62
     7
370
    25
100
AcDbCircle
 10
1498.4455890683
 20
258.3484637006
 30
0.0
 40
6.499999999999961
100
AcDbArc
 50
89.9999957898
 51
179.9999957898
  0
LINE
  5
CF2
330
1F
100
AcDbEntity
  8
0
  6
Continuous
 62
     7
370
    25
100
AcDbLine
 10
1498.4455895459
 20
264.8484637006
 30
0.0
 11
1506.2833118858
 21
264.8484631247
 31
0.0
  0
LINE
  5
CF3
330
1F
100
AcDbEntity
  8
0
  6
Continuous
 62
     8
370
    25
100
AcDbLine
 10
1492.9455894357
 20
263.3484641048
 30
0.0
 11
1492.9455893571
 21
262.2785911237
 31
0.0
  0
LINE
  5
CF4
330
1F
100
AcDbEntity
  8
0
  6
Continuous
 62
     8
370
    25
100
AcDbLine
 10
1494.6786278321
 20
263.8484639774
 30
0.0
 11
1493.4455894725
 21
263.848464068
 31
0.0
  0
LINE
  5
CF5
330
1F
100
AcDbEntity
  8
0
  6
Continuous
 62
     8
370
    25
100
AcDbLine
 10
1492.9455852524
 20
206.4183370858
 30
0.0
 11
1492.9455851738
 21
205.3484641048
 31
0.0
  0
LINE
  5
CF6
330
1F
100
AcDbEntity
  8
0
  6
Continuous
 62
     8
370
    25
100
AcDbLine
 10
1493.4455851371
 20
204.848464068
 30
0.0
 11
1494.6786234967
 21
204.8484639774
 31
0.0
  0
LINE
  5
CF7
330
1F
100
AcDbEntity
  8
0
  6
Continuous
 62
     8
370
    25
100
AcDbLine
 10
1491.9455890389
 20
257.9484641782
 30
0.0
 11
1491.4455890389
 21
257.948464215
 31
0.0
  0
LINE
  5
CF8
330
1F
100
AcDbEntity
  8
0
  6
Continuous
 62
     8
370
    25
100
AcDbLine
 10
1498.4455895459
 20
264.8484637006
 30
0.0
 11
1498.4455895533
 21
264.9484637006
 31
0.0
  0
LINE
  5
CF9
330
1F
100
AcDbEntity
  8
0
  6
Continuous
 62
     8
370
    25
100
AcDbLine
 10
1491.9455855706
 20
210.7484641782
 30
0.0
 11
1491.4455855706
 21
210.748464215
 31
0.0
  0
LINE
  5
CFA
330
1F
100
AcDbEntity
  8
0
  6
Continuous
 62
     8
370
    25
100
AcDbLine
 10
1498.4455850636
 20
203.8484637006
 30
0.0
 11
1498.4455850562
 21
203.7484637006
 31
0.0
  0
LINE
  5
CFB
330
1F
100
AcDbEntity
  8
0
  6
Continuous
 62
     8
370
    25
100
AcDbLine
 10
1510.4455884805
 20
217.0984628188
 30
0.0
 11
1510.4455884805
 21
217.3484615329
 31
0.0
  0
LINE
  5
CFC
330
1F
100
AcDbEntity
  8
0
  6
Continuous
 62
     8
370
    25
100
AcDbLine
 10
1510.4455884805
 20
251.3484615329
 30
0.0
 11
1510.4455884805
 21
251.5984628188
 31
0.0
  0
CIRCLE
  5
CFD
330
1F
100
AcDbEntity
  8
0
  6
HIDDEN
 62
     1
370
    18
100
AcDbCircle
 10
1527.9455884805
 20
250.3484615329
 30
0.0
 40
8.000000000000249
  0
CIRCLE
  5
CFE
330
1F
100
AcDbEntity
  8
0
  6
HIDDEN
 62
     1
370
    18
100
AcDbCircle
 10
1527.9455861291
 20
218.3484615329
 30
0.0
 40
8.000000000000021
  0
LINE
  5
CFF
330
1F
100
AcDbEntity
  8
0
  6
HIDDEN
 62
     7
370
    18
100
AcDbLine
 10
1505.9455893255
 20
261.8484631495
 30
0.0
 11
1505.9455885723
 21
251.5984631495
 31
0.0
  0
LINE
  5
D00
330
1F
100
AcDbEntity
  8
0
  6
HIDDEN
 62
     7
370
    18
100
AcDbLine
 10
1505.9455885393
 20
251.1484616113
 30
0.0
 11
1505.9455860703
 21
217.5484647465
 31
0.0
  0
LINE
  5
D01
330
1F
100
AcDbEntity
  8
0
  6
HIDDEN
 62
     7
370
    18
100
AcDbLine
 10
1505.9455860372
 20
217.0984631495
 30
0.0
 11
1505.945585284
 21
206.8484631495
 31
0.0
  0
CIRCLE
  5
D02
330
1F
100
AcDbEntity
  8
0
  6
HIDDEN
 62
     1
370
    18
100
AcDbCircle
 10
1527.9455861291
 20
218.3484615329
 30
0.0
 40
8.000000000000021
  0
CIRCLE
  5
D03
330
1F
100
AcDbEntity
  8
0
  6
HIDDEN
 62
     1
370
    18
100
AcDbCircle
 10
1527.9455884805
 20
250.3484615329
 30
0.0
 40
8.000000000000249
  0
LINE
  5
D04
330
1F
100
AcDbEntity
  8
0
  6
HIDDEN
 62
     7
370
    18
100
AcDbLine
 10
1505.9455893255
 20
261.8484631495
 30
0.0
 11
1505.945585284
 21
206.8484631495
 31
0.0
  0
INSERT
  5
D10
330
1F
100
AcDbEntity
  8
0
  6
Continuous
 62
     1
370
     0
100
AcDbBlockReference
  2
SW_CENTERMARKSYMBOL_4
 10
1527.9455884805
 20
250.3484615329
 30
0.0
  0
INSERT
  5
D1C
330
1F
100
AcDbEntity
  8
0
  6
Continuous
 62
     1
370
     0
100
AcDbBlockReference
  2
SW_CENTERMARKSYMBOL_5
 10
1527.9455861291
 20
218.3484615329
 30
0.0
  0
ARC
  5
D1D
330
1F
100
AcDbEntity
  8
0
  6
Continuous
 62
     7
370
    25
100
AcDbCircle
 10
1562.4455873048
 20
143.5917419638
 30
0.0
 40
3.5
100
AcDbArc
 50
9.529489646100002
 51
90.0
  0
LINE
  5
D1E
330
1F
100
AcDbEntity
  8
0
  6
Continuous
 62
     7
370
    25
100
AcDbLine
 10
1565.9455873048
 20
139.0917419638
 30
0.0
 11
1565.9455873048
 21
140.9917422192
 31
0.0
  0
LINE
  5
D1F
330
1F
100
AcDbEntity
  8
0
  6
Continuous
 62
     7
370
    25
100
AcDbLine
 10
1565.9455873048
 20
129.672110816
 30
0.0
 11
1565.9455873048
 21
130.2917419638
 31
0.0
  0
LINE
  5
D20
330
1F
100
AcDbEntity
  8
0
  6
Continuous
 62
     7
370
    25
100
AcDbLine
 10
1565.9455873048
 20
112.7917419638
 30
0.0
 11
1565.9455873048
 21
126.4917422192
 31
0.0
  0
ARC
  5
D21
330
1F
100
AcDbEntity
  8
0
  6
Continuous
 62
     7
370
    25
100
AcDbCircle
 10
1562.4455873048
 20
112.7917419638
 30
0.0
 40
3.5
100
AcDbArc
 50
270.0
 51
0.0
  0
LINE
  5
D22
330
1F
100
AcDbEntity
  8
0
  6
Continuous
 62
     7
370
    25
100
AcDbLine
 10
1523.4955884805
 20
134.0917419638
 30
0.0
 11
1523.7955884805
 21
133.7917419638
 31
0.0
  0
LINE
  5
D23
330
1F
100
AcDbEntity
  8
0
  6
Continuous
 62
     7
370
    25
100
AcDbLine
 10
1532.0955884805
 20
133.7917419638
 30
0.0
 11
1532.3955884805
 21
134.0917419638
 31
0.0
  0
LINE
  5
D24
330
1F
100
AcDbEntity
  8
0
  6
Continuous
 62
     7
370
    25
100
AcDbLine
 10
1533.4455884805
 20
132.0917419638
 30
0.0
 11
1532.9455884805
 21
132.5917419638
 31
0.0
  0
LINE
  5
D25
330
1F
100
AcDbEntity
  8
0
  6
Continuous
 62
     7
370
    25
100
AcDbLine
 10
1533.4455884805
 20
130.5917419638
 30
0.0
 11
1533.4455884805
 21
132.0917419638
 31
0.0
  0
LINE
  5
D26
330
1F
100
AcDbEntity
  8
0
  6
Continuous
 62
     7
370
    25
100
AcDbLine
 10
1561.9455873048
 20
138.5917419638
 30
0.0
 11
1561.9455873048
 21
139.0917419638
 31
0.0
  0
LINE
  5
D27
330
1F
100
AcDbEntity
  8
0
  6
Continuous
 62
     7
370
    25
100
AcDbLine
 10
1521.8455884805
 20
138.5917419638
 30
0.0
 11
1522.3455884805
 21
138.0917419638
 31
0.0
  0
LINE
  5
D28
330
1F
100
AcDbEntity
  8
0
  6
Continuous
 62
     7
370
    25
100
AcDbLine
 10
1533.5455884805
 20
138.0917419638
 30
0.0
 11
1534.0455884805
 21
138.5917419638
 31
0.0
  0
LINE
  5
D29
330
1F
100
AcDbEntity
  8
0
  6
Continuous
 62
     7
370
    25
100
AcDbLine
 10
1522.3455884805
 20
138.0917419638
 30
0.0
 11
1522.3455884805
 21
134.0917419638
 31
0.0
  0
LINE
  5
D2A
330
1F
100
AcDbEntity
  8
0
  6
Continuous
 62
     7
370
    25
100
AcDbLine
 10
1533.5455884805
 20
134.0917419638
 30
0.0
 11
1533.5455884805
 21
138.0917419638
 31
0.0
  0
LWPOLYLINE
  5
D2B
330
1F
100
AcDbEntity
  8
0
  6
Continuous
 62
     7
370
    25
100
AcDbPolyline
 90
       10
 70
   128
 43
0.0
 10
1493.4455894357
 20
147.0917419638
 10
1493.4455894804
 20
147.0385690993
 10
1493.4455895237
 20
146.8806661365
 10
1493.4455895643
 20
146.622830877
 10
1493.445589601
 20
146.2728975147
 10
1493.4455896327
 20
145.8414985977
 10
1493.4455896585
 20
145.3417419638
 10
1493.4455896774
 20
144.7888124654
 10
1493.445589689
 20
144.1995105856
 10
1493.4455896929
 20
143.5917419638
  0
LINE
  5
D2C
330
1F
100
AcDbEntity
  8
0
  6
Continuous
 62
     7
370
    25
100
AcDbLine
 10
1489.9455894357
 20
143.5917419638
 30
0.0
 11
1493.4455896929
 21
143.5917419638
 31
0.0
  0
ARC
  5
D2D
330
1F
100
AcDbEntity
  8
0
  6
Continuous
 62
     7
370
    25
100
AcDbCircle
 10
1493.4455894357
 20
143.5917419638
 30
0.0
 40
3.500000000000009
100
AcDbArc
 50
90.0
 51
179.9999957898
  0
LINE
  5
D2E
330
1F
100
AcDbEntity
  8
0
  6
Continuous
 62
     7
370
    25
100
AcDbLine
 10
1493.4455896929
 20
143.5917419638
 30
0.0
 11
1493.4455896929
 21
139.0917419638
 31
0.0
  0
LINE
  5
D2F
330
1F
100
AcDbEntity
  8
0
  6
Continuous
 62
     7
370
    25
100
AcDbLine
 10
1493.4455896929
 20
139.0917419638
 30
0.0
 11
1489.9455894357
 21
139.0917419638
 31
0.0
  0
LINE
  5
D30
330
1F
100
AcDbEntity
  8
0
  6
Continuous
 62
     7
370
    25
100
AcDbLine
 10
1489.9455894357
 20
139.0917419638
 30
0.0
 11
1489.9455894357
 21
143.5917419638
 31
0.0
  0
LINE
  5
D31
330
1F
100
AcDbEntity
  8
0
  6
Continuous
 62
     7
370
    25
100
AcDbLine
 10
1493.4455894357
 20
147.0917419638
 30
0.0
 11
1533.4455894357
 21
147.0917419638
 31
0.0
  0
LWPOLYLINE
  5
D32
330
1F
100
AcDbEntity
  8
0
  6
Continuous
 62
     7
370
    25
100
AcDbPolyline
 90
       10
 70
   128
 43
0.0
 10
1533.4455894357
 20
147.0917419638
 10
1533.4455894804
 20
147.0385690993
 10
1533.4455895237
 20
146.8806661365
 10
1533.4455895643
 20
146.622830877
 10
1533.445589601
 20
146.2728975147
 10
1533.4455896327
 20
145.8414985977
 10
1533.4455896585
 20
145.3417419638
 10
1533.4455896774
 20
144.7888124654
 10
1533.445589689
 20
144.1995105856
 10
1533.4455896929
 20
143.5917419638
  0
LINE
  5
D33
330
1F
100
AcDbEntity
  8
0
  6
Continuous
 62
     7
370
    25
100
AcDbLine
 10
1533.4455896929
 20
143.5917419638
 30
0.0
 11
1493.4455896929
 21
143.5917419638
 31
0.0
  0
LINE
  5
D34
330
1F
100
AcDbEntity
  8
0
  6
Continuous
 62
     7
370
    25
100
AcDbLine
 10
1533.4455896929
 20
143.5917419638
 30
0.0
 11
1533.4455896929
 21
139.0917419638
 31
0.0
  0
LINE
  5
D35
330
1F
100
AcDbEntity
  8
0
  6
Continuous
 62
     7
370
    25
100
AcDbLine
 10
1533.4455896929
 20
139.0917419638
 30
0.0
 11
1493.4455896929
 21
139.0917419638
 31
0.0
  0
LINE
  5
D36
330
1F
100
AcDbEntity
  8
0
  6
Continuous
 62
     7
370
    25
100
AcDbLine
 10
1565.9215785285
 20
143.5917419638
 30
0.0
 11
1533.4455896929
 21
143.5917419638
 31
0.0
  0
LINE
  5
D37
330
1F
100
AcDbEntity
  8
0
  6
Continuous
 62
     7
370
    25
100
AcDbLine
 10
1533.4455894357
 20
147.0917419638
 30
0.0
 11
1562.4455873048
 21
147.0917419638
 31
0.0
  0
SPLINE
  5
D38
330
1F
100
AcDbEntity
  8
0
  6
Continuous
 62
     7
370
    25
100
AcDbSpline
210
0.0
220
0.0
230
1.0
 70
     8
 71
     3
 72
    11
 73
     7
 74
     0
 42
0.000000001
 43
0.00000001
 40
0.0
 40
0.0
 40
0.0
 40
0.0
 40
0.1249585138703842
 40
0.4985840948552334
 40
0.8740391340284842
 40
1.0
 40
1.0
 40
1.0
 40
1.0
 10
1565.89620643003
 20
144.1715845746331
 30
0.0
 10
1565.89553590435
 20
144.1772123252575
 30
0.0
 10
1565.892860508899
 20
144.1996670333376
 30
0.0
 10
1565.910649218393
 20
144.0532733156489
 30
0.0
 10
1565.92590288761
 20
143.819026910001
 30
0.0
 10
1565.922446746806
 20
143.6373748433444
 30
0.0
 10
1565.921578528459
 20
143.5917419637591
 30
0.0
  0
SPLINE
  5
D39
330
1F
100
AcDbEntity
  8
0
  6
Continuous
 62
     7
370
    25
100
AcDbSpline
210
0.0
220
0.0
230
1.0
 70
     8
 71
     3
 72
    15
 73
    11
 74
     0
 42
0.000000001
 43
0.00000001
 40
0.0
 40
0.0
 40
0.0
 40
0.0
 40
0.004080560966935
 40
0.1543114329868642
 40
0.3044726849954724
 40
0.4544755140198581
 40
0.6044785259266705
 40
0.7546398554566958
 40
0.9048707255204536
 40
1.0
 40
1.0
 40
1.0
 40
1.0
 10
1565.921578528459
 20
143.5917419637591
 30
0.0
 10
1565.921461739645
 20
143.5879351023939
 30
0.0
 10
1565.917045226954
 20
143.4439739565598
 30
0.0
 10
1565.909048873929
 20
143.1176055298398
 30
0.0
 10
1565.904632807787
 20
142.5775425143648
 30
0.0
 10
1565.909512077005
 20
142.0389956223039
 30
0.0
 10
1565.921588155297
 20
141.5622188534853
 30
0.0
 10
1565.93542579019
 20
141.2037954360625
 30
0.0
 10
1565.944307661357
 20
141.0175501020582
 30
0.0
 10
1565.945229785438
 20
140.9989524946447
 30
0.0
 10
1565.945587304769
 20
140.9917419637592
 30
0.0
  0
LINE
  5
D3A
330
1F
100
AcDbEntity
  8
0
  6
Continuous
 62
     7
370
    25
100
AcDbLine
 10
1533.4455896929
 20
139.0917419638
 30
0.0
 11
1565.9455873048
 21
139.0917419638
 31
0.0
  0
LINE
  5
D3B
330
1F
100
AcDbEntity
  8
0
  6
Continuous
 62
     7
370
    25
100
AcDbLine
 10
1489.9455894357
 20
143.5917419638
 30
0.0
 11
1489.9455890499
 21
143.5917419638
 31
0.0
  0
SPLINE
  5
D3C
330
1F
100
AcDbEntity
  8
0
  6
Continuous
 62
     7
370
    25
100
AcDbSpline
210
0.0
220
0.0
230
1.0
 70
     8
 71
     3
 72
    10
 73
     6
 74
     0
 42
0.000000001
 43
0.00000001
 40
0.0
 40
0.0
 40
0.0
 40
0.0
 40
0.374424485231647
 40
0.7486081095445821
 40
1.0
 40
1.0
 40
1.0
 40
1.0
 10
1489.945589049874
 20
143.5917419637589
 30
0.0
 10
1489.950232556164
 20
143.719152859096
 30
0.0
 10
1489.959516581657
 20
143.9738926885029
 30
0.0
 10
1489.994165284393
 20
144.1712031775999
 30
0.0
 10
1489.994033303688
 20
144.1714574611599
 30
0.0
 10
1489.99398026632
 20
144.1715596467847
 30
0.0
  0
SPLINE
  5
D3D
330
1F
100
AcDbEntity
  8
0
  6
Continuous
 62
     7
370
    25
100
AcDbSpline
210
0.0
220
0.0
230
1.0
 70
     8
 71
     3
 72
     9
 73
     5
 74
     0
 42
0.000000001
 43
0.00000001
 40
0.0
 40
0.0
 40
0.0
 40
0.0
 40
0.5557703188211456
 40
1.0
 40
1.0
 40
1.0
 40
1.0
 10
1489.959287043381
 20
143.8607986077037
 30
0.0
 10
1489.954900880703
 20
143.8203045177063
 30
0.0
 10
1489.94700883874
 20
143.7474433219458
 30
0.0
 10
1489.946025634724
 20
143.6396340446432
 30
0.0
 10
1489.945588866318
 20
143.5917419637589
 30
0.0
  0
LINE
  5
D3E
330
1F
100
AcDbEntity
  8
0
  6
Continuous
 62
     7
370
    25
100
AcDbLine
 10
1489.9455888663
 20
143.5917419638
 30
0.0
 11
1489.9455857432
 21
143.5917419638
 31
0.0
  0
SPLINE
  5
D3F
330
1F
100
AcDbEntity
  8
0
  6
Continuous
 62
     7
370
    25
100
AcDbSpline
210
0.0
220
0.0
230
1.0
 70
     8
 71
     3
 72
    10
 73
     6
 74
     0
 42
0.000000001
 43
0.00000001
 40
0.0
 40
0.0
 40
0.0
 40
0.0
 40
0.3744244852316279
 40
0.7486081095445611
 40
0.9999999999999999
 40
0.9999999999999999
 40
0.9999999999999999
 40
0.9999999999999999
 10
1489.945585743221
 20
143.5917419637594
 30
0.0
 10
1489.950229249512
 20
143.7191528590965
 30
0.0
 10
1489.959513275005
 20
143.9738926885034
 30
0.0
 10
1489.994161977741
 20
144.1712031776003
 30
0.0
 10
1489.994029997036
 20
144.1714574611603
 30
0.0
 10
1489.993976959668
 20
144.1715596467852
 30
0.0
  0
SPLINE
  5
D40
330
1F
100
AcDbEntity
  8
0
  6
Continuous
 62
     7
370
    25
100
AcDbSpline
210
0.0
220
0.0
230
1.0
 70
     8
 71
     3
 72
     9
 73
     5
 74
     0
 42
0.000000001
 43
0.00000001
 40
0.0
 40
0.0
 40
0.0
 40
0.0
 40
0.5557703188218919
 40
1.0
 40
1.0
 40
1.0
 40
1.0
 10
1489.959283736728
 20
143.8607986077046
 30
0.0
 10
1489.954897574051
 20
143.820304517707
 30
0.0
 10
1489.947005532088
 20
143.7474433219464
 30
0.0
 10
1489.946022328072
 20
143.6396340446437
 30
0.0
 10
1489.945585559666
 20
143.5917419637594
 30
0.0
  0
LINE
  5
D41
330
1F
100
AcDbEntity
  8
0
  6
Continuous
 62
     7
370
    25
100
AcDbLine
 10
1489.9455855597
 20
143.5917419638
 30
0.0
 11
1489.9455851738
 21
143.5917419638
 31
0.0
  0
ARC
  5
D42
330
1F
100
AcDbEntity
  8
0
  6
Continuous
 62
     7
370
    25
100
AcDbCircle
 10
1493.4455851738
 20
143.5917419638
 30
0.0
 40
3.5
100
AcDbArc
 50
90.0
 51
179.9999957898
  0
LINE
  5
D43
330
1F
100
AcDbEntity
  8
0
  6
Continuous
 62
     7
370
    25
100
AcDbLine
 10
1493.4455851738
 20
147.0917419638
 30
0.0
 11
1493.4455894357
 21
147.0917419638
 31
0.0
  0
LINE
  5
D44
330
1F
100
AcDbEntity
  8
0
  6
Continuous
 62
     7
370
    25
100
AcDbLine
 10
1489.9455851738
 20
143.5917419638
 30
0.0
 11
1489.9455851738
 21
143.5335763768
 31
0.0
  0
LINE
  5
D45
330
1F
100
AcDbEntity
  8
0
  6
Continuous
 62
     7
370
    25
100
AcDbLine
 10
1489.9455851738
 20
141.6499075508
 30
0.0
 11
1489.9455851738
 21
139.0917419638
 31
0.0
  0
LWPOLYLINE
  5
D46
330
1F
100
AcDbEntity
  8
0
  6
Continuous
 62
     7
370
    25
100
AcDbPolyline
 90
       19
 70
   128
 43
0.0
 10
1489.9455857432
 20
143.5917419638
 10
1489.9455857585
 20
143.2523063663
 10
1489.9455857672
 20
142.8719478304
 10
1489.9455857687
 20
142.474230128
 10
1489.9455857629
 20
142.083792457
 10
1489.9455857503
 20
141.7248230068
 10
1489.9455857315
 20
141.4195604639
 10
1489.9455857077
 20
141.1869162929
 10
1489.9455856805
 20
141.0413031431
 10
1489.9455856514
 20
140.9917419638
 10
1489.9455856224
 20
141.0413031431
 10
1489.9455855952
 20
141.1869162929
 10
1489.9455855714
 20
141.4195604639
 10
1489.9455855526
 20
141.7248230068
 10
1489.94558554
 20
142.083792457
 10
1489.9455855342
 20
142.474230128
 10
1489.9455855357
 20
142.8719478304
 10
1489.9455855444
 20
143.2523063663
 10
1489.9455855597
 20
143.5917419638
  0
LWPOLYLINE
  5
D47
330
1F
100
AcDbEntity
  8
0
  6
Continuous
 62
     7
370
    25
100
AcDbPolyline
 90
       19
 70
   128
 43
0.0
 10
1489.9455890499
 20
143.5917419638
 10
1489.9455890652
 20
143.2523063663
 10
1489.9455890738
 20
142.8719478304
 10
1489.9455890753
 20
142.474230128
 10
1489.9455890696
 20
142.083792457
 10
1489.9455890569
 20
141.7248230068
 10
1489.9455890381
 20
141.4195604639
 10
1489.9455890144
 20
141.1869162929
 10
1489.9455889871
 20
141.0413031431
 10
1489.9455889581
 20
140.9917419638
 10
1489.9455889291
 20
141.0413031431
 10
1489.9455889018
 20
141.1869162929
 10
1489.9455888781
 20
141.4195604639
 10
1489.9455888593
 20
141.7248230068
 10
1489.9455888466
 20
142.083792457
 10
1489.9455888408
 20
142.474230128
 10
1489.9455888423
 20
142.8719478304
 10
1489.945588851
 20
143.2523063663
 10
1489.9455888663
 20
143.5917419638
  0
LINE
  5
D48
330
1F
100
AcDbEntity
  8
0
  6
Continuous
 62
     7
370
    25
100
AcDbLine
 10
1509.4455896929
 20
130.2917419638
 30
0.0
 11
1509.4455896929
 21
112.7917419638
 31
0.0
  0
LINE
  5
D49
330
1F
100
AcDbEntity
  8
0
  6
Continuous
 62
     7
370
    25
100
AcDbLine
 10
1509.4455896929
 20
112.7917419638
 30
0.0
 11
1505.9455894357
 21
112.7917419638
 31
0.0
  0
LINE
  5
D4A
330
1F
100
AcDbEntity
  8
0
  6
Continuous
 62
     7
370
    25
100
AcDbLine
 10
1505.9455894357
 20
112.7917419638
 30
0.0
 11
1505.9455894357
 21
130.2917419638
 31
0.0
  0
LINE
  5
D4B
330
1F
100
AcDbEntity
  8
0
  6
Continuous
 62
     7
370
    25
100
AcDbLine
 10
1505.9455894357
 20
130.2917419638
 30
0.0
 11
1509.4455896929
 21
130.2917419638
 31
0.0
  0
LWPOLYLINE
  5
D4C
330
1F
100
AcDbEntity
  8
0
  6
Continuous
 62
     7
370
    25
100
AcDbPolyline
 90
       10
 70
   128
 43
0.0
 10
1509.4455896929
 20
112.7917419638
 10
1509.445589689
 20
112.1839733419
 10
1509.4455896774
 20
111.5946714621
 10
1509.4455896585
 20
111.0417419638
 10
1509.4455896327
 20
110.5419853299
 10
1509.445589601
 20
110.1105864128
 10
1509.4455895643
 20
109.7606530505
 10
1509.4455895237
 20
109.502817791
 10
1509.4455894804
 20
109.3449148282
 10
1509.4455894357
 20
109.2917419638
  0
ARC
  5
D4D
330
1F
100
AcDbEntity
  8
0
  6
Continuous
 62
     7
370
    25
100
AcDbCircle
 10
1509.4455894357
 20
112.7917419638
 30
0.0
 40
3.500000000000237
100
AcDbArc
 50
179.9999957898
 51
270.0
  0
LINE
  5
D4E
330
1F
100
AcDbEntity
  8
0
  6
Continuous
 62
     7
370
    25
100
AcDbLine
 10
1533.4455896929
 20
130.2917419638
 30
0.0
 11
1533.4455896929
 21
112.7917419638
 31
0.0
  0
LINE
  5
D4F
330
1F
100
AcDbEntity
  8
0
  6
Continuous
 62
     7
370
    25
100
AcDbLine
 10
1509.4455896929
 20
112.7917419638
 30
0.0
 11
1533.4455896929
 21
112.7917419638
 31
0.0
  0
LINE
  5
D50
330
1F
100
AcDbEntity
  8
0
  6
Continuous
 62
     7
370
    25
100
AcDbLine
 10
1533.4455896929
 20
130.2917419638
 30
0.0
 11
1509.4455896929
 21
130.2917419638
 31
0.0
  0
LWPOLYLINE
  5
D51
330
1F
100
AcDbEntity
  8
0
  6
Continuous
 62
     7
370
    25
100
AcDbPolyline
 90
       10
 70
   128
 43
0.0
 10
1533.4455896929
 20
112.7917419638
 10
1533.445589689
 20
112.1839733419
 10
1533.4455896774
 20
111.5946714621
 10
1533.4455896585
 20
111.0417419638
 10
1533.4455896327
 20
110.5419853299
 10
1533.445589601
 20
110.1105864128
 10
1533.4455895643
 20
109.7606530505
 10
1533.4455895237
 20
109.502817791
 10
1533.4455894804
 20
109.3449148282
 10
1533.4455894357
 20
109.2917419638
  0
LINE
  5
D52
330
1F
100
AcDbEntity
  8
0
  6
Continuous
 62
     7
370
    25
100
AcDbLine
 10
1533.4455894357
 20
109.2917419638
 30
0.0
 11
1509.4455894357
 21
109.2917419638
 31
0.0
  0
ARC
  5
D53
330
1F
100
AcDbEntity
  8
0
  6
Continuous
 62
     7
370
    25
100
AcDbCircle
 10
1598.4230964477
 20
128.0916977469
 30
0.0
 40
32.51689497224019
100
AcDbArc
 50
177.2141655213
 51
182.8203105988
  0
LINE
  5
D54
330
1F
100
AcDbEntity
  8
0
  6
Continuous
 62
     7
370
    25
100
AcDbLine
 10
1565.9455873048
 20
130.2917419638
 30
0.0
 11
1533.4455896929
 21
130.2917419638
 31
0.0
  0
LINE
  5
D55
330
1F
100
AcDbEntity
  8
0
  6
Continuous
 62
     7
370
    25
100
AcDbLine
 10
1562.4455873048
 20
109.2917419638
 30
0.0
 11
1533.4455894357
 21
109.2917419638
 31
0.0
  0
LINE
  5
D56
330
1F
100
AcDbEntity
  8
0
  6
Continuous
 62
     7
370
    25
100
AcDbLine
 10
1505.9455885723
 20
130.2917419638
 30
0.0
 11
1505.9455885264
 21
125.0417419638
 31
0.0
  0
LINE
  5
D57
330
1F
100
AcDbEntity
  8
0
  6
Continuous
 62
     7
370
    25
100
AcDbLine
 10
1505.9455885723
 20
119.0417419638
 30
0.0
 11
1505.9455885723
 21
112.7917419638
 31
0.0
  0
LINE
  5
D58
330
1F
100
AcDbEntity
  8
0
  6
Continuous
 62
     7
370
    25
100
AcDbLine
 10
1505.9455885723
 20
112.7917419638
 30
0.0
 11
1505.9455894357
 21
112.7917419638
 31
0.0
  0
LWPOLYLINE
  5
D59
330
1F
100
AcDbEntity
  8
0
  6
Continuous
 62
     7
370
    25
100
AcDbPolyline
 90
       19
 70
   128
 43
0.0
 10
1505.9455889581
 20
119.0417419638
 10
1505.9455889779
 20
119.0538190818
 10
1505.9455890167
 20
119.1498533817
 10
1505.9455890537
 20
119.3388353601
 10
1505.9455890877
 20
119.6146909806
 10
1505.9455891174
 20
119.9685540168
 10
1505.9455891421
 20
120.3890510194
 10
1505.9455891608
 20
120.8626668688
 10
1505.945589173
 20
121.3741791619
 10
1505.9455891783
 20
121.9071474727
 10
1505.9455891765
 20
122.4444417612
 10
1505.9455891678
 20
122.9687929469
 10
1505.9455891522
 20
123.4633479512
 10
1505.9455891304
 20
123.9122113693
 10
1505.9455891031
 20
124.3009563618
 10
1505.9455890712
 20
124.6170883446
 10
1505.9455890356
 20
124.8504465757
 10
1505.9455889975
 20
124.9935307296
 10
1505.9455889581
 20
125.0417419638
  0
LINE
  5
D5A
330
1F
100
AcDbEntity
  8
0
  6
Continuous
 62
     7
370
    25
100
AcDbLine
 10
1509.4455894357
 20
109.2917419638
 30
0.0
 11
1509.4455885723
 21
109.2917419638
 31
0.0
  0
ARC
  5
D5B
330
1F
100
AcDbEntity
  8
0
  6
Continuous
 62
     7
370
    25
100
AcDbCircle
 10
1509.4455885723
 20
112.7917419638
 30
0.0
 40
3.500000000000009
100
AcDbArc
 50
179.9999957898
 51
270.0
  0
LINE
  5
D5C
330
1F
100
AcDbEntity
  8
0
  6
Continuous
 62
     7
370
    25
100
AcDbLine
 10
1512.6455860372
 20
109.2917419638
 30
0.0
 11
1512.6455885723
 21
109.2917419638
 31
0.0
  0
LWPOLYLINE
  5
D5D
330
1F
100
AcDbEntity
  8
0
  6
Continuous
 62
     7
370
    25
100
AcDbPolyline
 90
       21
 70
   128
 43
0.0
 10
1489.9455889581
 20
141.6499075508
 10
1489.9455889367
 20
141.696004208
 10
1489.9455889174
 20
141.8297819178
 10
1489.9455889021
 20
142.0381455857
 10
1489.9455888923
 20
142.3006991243
 10
1489.9455888889
 20
142.5917419638
 10
1489.9455888923
 20
142.8827848033
 10
1489.9455889021
 20
143.1453383418
 10
1489.9455889174
 20
143.3537020098
 10
1489.9455889367
 20
143.4874797195
 10
1489.9455889581
 20
143.5335763768
 10
1489.9455889795
 20
143.4874797195
 10
1489.9455889988
 20
143.3537020098
 10
1489.9455890141
 20
143.1453383418
 10
1489.9455890239
 20
142.8827848033
 10
1489.9455890273
 20
142.5917419638
 10
1489.9455890239
 20
142.3006991243
 10
1489.9455890141
 20
142.0381455857
 10
1489.9455889988
 20
141.8297819178
 10
1489.9455889795
 20
141.696004208
 10
1489.9455889581
 20
141.6499075508
  0
LINE
  5
D5E
330
1F
100
AcDbEntity
  8
0
  6
Continuous
 62
     7
370
    25
100
AcDbLine
 10
1523.7955884805
 20
133.7917419638
 30
0.0
 11
1532.0955884805
 21
133.7917419638
 31
0.0
  0
LINE
  5
D5F
330
1F
100
AcDbEntity
  8
0
  6
Continuous
 62
     7
370
    25
100
AcDbLine
 10
1507.9455884805
 20
130.5917419638
 30
0.0
 11
1513.4455884805
 21
130.5917419638
 31
0.0
  0
ARC
  5
D60
330
1F
100
AcDbEntity
  8
0
  6
Continuous
 62
     7
370
    25
100
AcDbCircle
 10
1507.9455884805
 20
130.0917419638
 30
0.0
 40
0.5
100
AcDbArc
 50
90.0
 51
156.4218215218
  0
LINE
  5
D61
330
1F
100
AcDbEntity
  8
0
  6
Continuous
 62
     7
370
    25
100
AcDbLine
 10
1513.4455884805
 20
130.5917419638
 30
0.0
 11
1533.3455884805
 21
130.5917419638
 31
0.0
  0
LINE
  5
D62
330
1F
100
AcDbEntity
  8
0
  6
Continuous
 62
     7
370
    25
100
AcDbLine
 10
1533.3455884805
 20
130.5917419638
 30
0.0
 11
1561.9926914108
 21
130.5917419638
 31
0.0
  0
LINE
  5
D63
330
1F
100
AcDbEntity
  8
0
  6
Continuous
 62
     7
370
    25
100
AcDbLine
 10
1524.1455884805
 20
132.5917419638
 30
0.0
 11
1524.1455884805
 21
132.0917419638
 31
0.0
  0
LINE
  5
D64
330
1F
100
AcDbEntity
  8
0
  6
Continuous
 62
     7
370
    25
100
AcDbLine
 10
1532.9455884805
 20
132.5917419638
 30
0.0
 11
1524.1455884805
 21
132.5917419638
 31
0.0
  0
LINE
  5
D65
330
1F
100
AcDbEntity
  8
0
  6
Continuous
 62
     7
370
    25
100
AcDbLine
 10
1533.4455884805
 20
132.0917419638
 30
0.0
 11
1524.1455884805
 21
132.0917419638
 31
0.0
  0
LINE
  5
D66
330
1F
100
AcDbEntity
  8
0
  6
Continuous
 62
     7
370
    25
100
AcDbLine
 10
1524.1455884805
 20
130.5917419638
 30
0.0
 11
1524.1455884805
 21
132.0917419638
 31
0.0
  0
ARC
  5
D67
330
1F
100
AcDbEntity
  8
0
  6
Continuous
 62
     7
370
    25
100
AcDbCircle
 10
1506.3455884805
 20
130.0917419638
 30
0.0
 40
0.5
100
AcDbArc
 50
90.0
 51
180.0
  0
LINE
  5
D68
330
1F
100
AcDbEntity
  8
0
  6
Continuous
 62
     7
370
    25
100
AcDbLine
 10
1506.3455884805
 20
130.5917419638
 30
0.0
 11
1507.9455884805
 21
130.5917419638
 31
0.0
  0
LINE
  5
D69
330
1F
100
AcDbEntity
  8
0
  6
Continuous
 62
     7
370
    25
100
AcDbLine
 10
1505.8455884805
 20
111.4988487449
 30
0.0
 11
1505.8455884805
 21
130.0917419638
 31
0.0
  0
LINE
  5
D6A
330
1F
100
AcDbEntity
  8
0
  6
Continuous
 62
     7
370
    25
100
AcDbLine
 10
1508.0526952617
 20
109.2917419638
 30
0.0
 11
1509.4455860372
 21
109.2917419638
 31
0.0
  0
ARC
  5
D6B
330
1F
100
AcDbEntity
  8
0
  6
Continuous
 62
     7
370
    25
100
AcDbCircle
 10
1506.3455884805
 20
111.4988487449
 30
0.0
 40
0.5
100
AcDbArc
 50
180.0
 51
225.0
  0
ARC
  5
D6C
330
1F
100
AcDbEntity
  8
0
  6
Continuous
 62
     7
370
    25
100
AcDbCircle
 10
1508.0526952617
 20
109.7917419638
 30
0.0
 40
0.5000000000000442
100
AcDbArc
 50
225.0
 51
270.0
  0
LINE
  5
D6D
330
1F
100
AcDbEntity
  8
0
  6
Continuous
 62
     7
370
    25
100
AcDbLine
 10
1507.6991418711
 20
109.4381885732
 30
0.0
 11
1505.9920350899
 21
111.1452953544
 31
0.0
  0
SPLINE
  5
D6E
330
1F
100
AcDbEntity
  8
0
  6
Continuous
 62
     7
370
    25
100
AcDbSpline
210
0.0
220
0.0
230
1.0
 70
     8
 71
     3
 72
    14
 73
    10
 74
     0
 42
0.000000001
 43
0.00000001
 40
0.0
 40
0.0
 40
0.0
 40
0.0
 40
0.1399610906516486
 40
0.2828791310781492
 40
0.4299181401466153
 40
0.5732517840200696
 40
0.7165843868791418
 40
0.8563835626995792
 40
1.0
 40
1.0
 40
1.0
 40
1.0
 10
1563.778225867033
 20
130.291741963759
 30
0.0
 10
1563.766250752996
 20
130.3160664790932
 30
0.0
 10
1563.742047527387
 20
130.3652294123739
 30
0.0
 10
1563.69024043784
 20
130.4309394872001
 30
0.0
 10
1563.628556976566
 20
130.4880384106269
 30
0.0
 10
1563.557893570877
 20
130.5339546366354
 30
0.0
 10
1563.481977062328
 20
130.566789718734
 30
0.0
 10
1563.401645043396
 20
130.5877814150327
 30
0.0
 10
1563.346804467103
 20
130.5904099796673
 30
0.0
 10
1563.319014861231
 20
130.5917419637591
 30
0.0
  0
SPLINE
  5
D6F
330
1F
100
AcDbEntity
  8
0
  6
Continuous
 62
     7
370
    25
100
AcDbSpline
210
0.0
220
0.0
230
1.0
 70
    24
 71
     3
 72
    10
 73
     6
 74
     0
 42
0.000000001
 43
0.00000001
 40
0.0
 40
0.0
 40
0.0
 40
0.0
 40
0.3322171091050009
 40
0.665823509601807
 40
1.0
 40
1.0
 40
1.0
 40
1.0
 10
1561.992691410809
 20
130.5917419637591
 30
0.0
 10
1562.215425396855
 20
130.5917419637591
 30
0.0
 10
1562.661824815284
 20
130.5917419637591
 30
0.0
 10
1563.099357845012
 20
130.5917419637591
 30
0.0
 10
1563.245754373599
 20
130.5917419637591
 30
0.0
 10
1563.319015127651
 20
130.5917419637591
 30
0.0
  0
LINE
  5
D70
330
1F
100
AcDbEntity
  8
0
  6
Continuous
 62
     7
370
    25
100
AcDbLine
 10
1565.9455884805
 20
143.3566619563
 30
0.0
 11
1565.9455884805
 21
143.9909400991
 31
0.0
  0
LINE
  5
D71
330
1F
100
AcDbEntity
  8
0
  6
Continuous
 62
     7
370
    25
100
AcDbLine
 10
1565.9455884805
 20
141.1909400991
 30
0.0
 11
1565.9455884805
 21
143.3566619563
 31
0.0
  0
LINE
  5
D72
330
1F
100
AcDbEntity
  8
0
  6
Continuous
 62
     7
370
    25
100
AcDbLine
 10
1505.9455884805
 20
123.6825743796
 30
0.0
 11
1505.9455884805
 21
119.0417419638
 31
0.0
  0
LINE
  5
D73
330
1F
100
AcDbEntity
  8
0
  6
Continuous
 62
     7
370
    25
100
AcDbLine
 10
1505.9455884805
 20
125.0417419638
 30
0.0
 11
1505.9455884805
 21
123.6825743796
 31
0.0
  0
LINE
  5
D74
330
1F
100
AcDbEntity
  8
0
  6
Continuous
 62
     7
370
    25
100
AcDbLine
 10
1491.9455890683
 20
138.5917419638
 30
0.0
 11
1491.9455890683
 21
139.0917419638
 31
0.0
  0
LINE
  5
D75
330
1F
100
AcDbEntity
  8
0
  6
Continuous
 62
     7
370
    25
100
AcDbLine
 10
1491.9455890683
 20
138.5917419638
 30
0.0
 11
1498.4455895459
 21
138.5917419638
 31
0.0
  0
LINE
  5
D76
330
1F
100
AcDbEntity
  8
0
  6
Continuous
 62
     7
370
    25
100
AcDbLine
 10
1498.4455895459
 20
138.5917419638
 30
0.0
 11
1531.4455895459
 21
138.5917419638
 31
0.0
  0
LINE
  5
D77
330
1F
100
AcDbEntity
  8
0
  6
Continuous
 62
     7
370
    25
100
AcDbLine
 10
1531.4455895459
 20
138.5917419638
 30
0.0
 11
1561.9455873048
 21
138.5917419638
 31
0.0
  0
LINE
  5
D78
330
1F
100
AcDbEntity
  8
0
  6
Continuous
 62
     7
370
    25
100
AcDbLine
 10
1491.9455855412
 20
139.0917419638
 30
0.0
 11
1491.9455855412
 21
138.5917419638
 31
0.0
  0
LINE
  5
D79
330
1F
100
AcDbEntity
  8
0
  6
Continuous
 62
     7
370
    25
100
AcDbLine
 10
1522.3455884805
 20
138.0917419638
 30
0.0
 11
1533.5455884805
 21
138.0917419638
 31
0.0
  0
LINE
  5
D7A
330
1F
100
AcDbEntity
  8
0
  6
Continuous
 62
     7
370
    25
100
AcDbLine
 10
1533.5455884805
 20
134.0917419638
 30
0.0
 11
1522.3455884805
 21
134.0917419638
 31
0.0
  0
LINE
  5
D7B
330
1F
100
AcDbEntity
  8
0
  6
Continuous
 62
     8
370
    25
100
AcDbLine
 10
1533.4455896929
 20
112.7917419638
 30
0.0
 11
1565.9455873048
 21
112.7917419638
 31
0.0
  0
LINE
  5
D7C
330
1F
100
AcDbEntity
  8
0
  6
Continuous
 62
     8
370
    25
100
AcDbLine
 10
1513.4455884805
 20
130.5917419638
 30
0.0
 11
1513.4455884805
 21
130.2917419638
 31
0.0
  0
LINE
  5
D7D
330
1F
100
AcDbEntity
  8
0
  6
Continuous
 62
     8
370
    25
100
AcDbLine
 10
1533.3455884805
 20
130.5917419638
 30
0.0
 11
1533.3455884805
 21
130.2917419638
 31
0.0
  0
ARC
  5
D7E
330
1F
100
AcDbEntity
  8
0
  6
Continuous
 62
     8
370
    25
100
AcDbCircle
 10
1561.9863865096
 20
130.1155487818
 30
0.0
 40
0.47623491923209
100
AcDbArc
 50
21.7138381948
 51
89.2414357497
  0
LINE
  5
D7F
330
1F
100
AcDbEntity
  8
0
  6
Continuous
 62
     8
370
    25
100
AcDbLine
 10
1506.3455884805
 20
130.5917419638
 30
0.0
 11
1506.3455884805
 21
130.2917419638
 31
0.0
  0
LINE
  5
D80
330
1F
100
AcDbEntity
  8
0
  6
Continuous
 62
     8
370
    25
100
AcDbLine
 10
1505.8455884805
 20
130.0917419638
 30
0.0
 11
1505.9455885723
 21
130.0917419638
 31
0.0
  0
LINE
  5
D81
330
1F
100
AcDbEntity
  8
0
  6
Continuous
 62
     8
370
    25
100
AcDbLine
 10
1505.8455884805
 20
111.4988487449
 30
0.0
 11
1506.1931391684
 21
111.4988487449
 31
0.0
  0
LINE
  5
D82
330
1F
100
AcDbEntity
  8
0
  6
Continuous
 62
     8
370
    25
100
AcDbLine
 10
1508.0526952617
 20
109.5808467264
 30
0.0
 11
1508.0526952617
 21
109.2917419638
 31
0.0
  0
LINE
  5
D83
330
1F
100
AcDbEntity
  8
0
  6
Continuous
 62
     8
370
    25
100
AcDbLine
 10
1505.9920350899
 20
111.1452953544
 30
0.0
 11
1506.237997118
 21
111.3912573825
 31
0.0
  0
LINE
  5
D84
330
1F
100
AcDbEntity
  8
0
  6
Continuous
 62
     8
370
    25
100
AcDbLine
 10
1507.6991418711
 20
109.4381885732
 30
0.0
 11
1507.9083510202
 21
109.6473977223
 31
0.0
  0
LINE
  5
D85
330
1F
100
AcDbEntity
  8
0
  6
Continuous
 62
     8
370
    25
100
AcDbLine
 10
1498.4455895459
 20
139.0917419638
 30
0.0
 11
1498.4455895459
 21
138.5917419638
 31
0.0
  0
LINE
  5
D86
330
1F
100
AcDbEntity
  8
0
  6
Continuous
 62
     8
370
    25
100
AcDbLine
 10
1531.4455895459
 20
139.0917419638
 30
0.0
 11
1531.4455895459
 21
138.5917419638
 31
0.0
  0
LINE
  5
D87
330
1F
100
AcDbEntity
  8
0
  6
Continuous
 62
     7
370
    25
100
AcDbLine
 10
1422.3460035292
 20
254.7984615329
 30
0.0
 11
1422.0460035292
 21
254.4984615329
 31
0.0
  0
LINE
  5
D88
330
1F
100
AcDbEntity
  8
0
  6
Continuous
 62
     7
370
    25
100
AcDbLine
 10
1422.0460035292
 20
246.1984615329
 30
0.0
 11
1422.3460035292
 21
245.8984615329
 31
0.0
  0
LINE
  5
D89
330
1F
100
AcDbEntity
  8
0
  6
Continuous
 62
     7
370
    25
100
AcDbLine
 10
1422.3460035292
 20
222.7984615329
 30
0.0
 11
1422.0460035292
 21
222.4984615329
 31
0.0
  0
LINE
  5
D8A
330
1F
100
AcDbEntity
  8
0
  6
Continuous
 62
     7
370
    25
100
AcDbLine
 10
1422.0460035292
 20
214.1984615329
 30
0.0
 11
1422.3460035292
 21
213.8984615329
 31
0.0
  0
LINE
  5
D8B
330
1F
100
AcDbEntity
  8
0
  6
Continuous
 62
     7
370
    25
100
AcDbLine
 10
1418.8460035292
 20
244.8484615329
 30
0.0
 11
1420.3460035292
 21
244.8484615329
 31
0.0
  0
LINE
  5
D8C
330
1F
100
AcDbEntity
  8
0
  6
Continuous
 62
     7
370
    25
100
AcDbLine
 10
1420.3460035292
 20
255.8484615329
 30
0.0
 11
1418.8460035292
 21
255.8484615329
 31
0.0
  0
LINE
  5
D8D
330
1F
100
AcDbEntity
  8
0
  6
Continuous
 62
     7
370
    25
100
AcDbLine
 10
1420.3460035292
 20
244.8484615329
 30
0.0
 11
1420.8460035292
 21
245.3484615329
 31
0.0
  0
LINE
  5
D8E
330
1F
100
AcDbEntity
  8
0
  6
Continuous
 62
     7
370
    25
100
AcDbLine
 10
1420.8460035292
 20
255.3484615329
 30
0.0
 11
1420.3460035292
 21
255.8484615329
 31
0.0
  0
LINE
  5
D8F
330
1F
100
AcDbEntity
  8
0
  6
Continuous
 62
     7
370
    25
100
AcDbLine
 10
1418.8460035292
 20
212.8484615329
 30
0.0
 11
1420.3460035292
 21
212.8484615329
 31
0.0
  0
LINE
  5
D90
330
1F
100
AcDbEntity
  8
0
  6
Continuous
 62
     7
370
    25
100
AcDbLine
 10
1420.3460035292
 20
223.8484615329
 30
0.0
 11
1418.8460035292
 21
223.8484615329
 31
0.0
  0
LINE
  5
D91
330
1F
100
AcDbEntity
  8
0
  6
Continuous
 62
     7
370
    25
100
AcDbLine
 10
1420.3460035292
 20
212.8484615329
 30
0.0
 11
1420.8460035292
 21
213.3484615329
 31
0.0
  0
LINE
  5
D92
330
1F
100
AcDbEntity
  8
0
  6
Continuous
 62
     7
370
    25
100
AcDbLine
 10
1420.8460035292
 20
223.3484615329
 30
0.0
 11
1420.3460035292
 21
223.8484615329
 31
0.0
  0
LINE
  5
D93
330
1F
100
AcDbEntity
  8
0
  6
Continuous
 62
     7
370
    25
100
AcDbLine
 10
1426.8460035292
 20
256.4484615329
 30
0.0
 11
1426.3460035292
 21
255.9484615329
 31
0.0
  0
LINE
  5
D94
330
1F
100
AcDbEntity
  8
0
  6
Continuous
 62
     7
370
    25
100
AcDbLine
 10
1426.3460035292
 20
244.7484615329
 30
0.0
 11
1426.8460035292
 21
244.2484615329
 31
0.0
  0
LINE
  5
D95
330
1F
100
AcDbEntity
  8
0
  6
Continuous
 62
     7
370
    25
100
AcDbLine
 10
1426.8460035292
 20
224.4484615329
 30
0.0
 11
1426.3460035292
 21
223.9484615329
 31
0.0
  0
LINE
  5
D96
330
1F
100
AcDbEntity
  8
0
  6
Continuous
 62
     7
370
    25
100
AcDbLine
 10
1426.3460035292
 20
212.7484615329
 30
0.0
 11
1426.8460035292
 21
212.2484615329
 31
0.0
  0
LINE
  5
D97
330
1F
100
AcDbEntity
  8
0
  6
Continuous
 62
     7
370
    25
100
AcDbLine
 10
1426.3460035292
 20
255.9484615329
 30
0.0
 11
1422.3460035292
 21
255.9484615329
 31
0.0
  0
LINE
  5
D98
330
1F
100
AcDbEntity
  8
0
  6
Continuous
 62
     7
370
    25
100
AcDbLine
 10
1422.3460035292
 20
244.7484615329
 30
0.0
 11
1426.3460035292
 21
244.7484615329
 31
0.0
  0
LINE
  5
D99
330
1F
100
AcDbEntity
  8
0
  6
Continuous
 62
     7
370
    25
100
AcDbLine
 10
1426.3460035292
 20
223.9484615329
 30
0.0
 11
1422.3460035292
 21
223.9484615329
 31
0.0
  0
LINE
  5
D9A
330
1F
100
AcDbEntity
  8
0
  6
Continuous
 62
     7
370
    25
100
AcDbLine
 10
1422.3460035292
 20
212.7484615329
 30
0.0
 11
1426.3460035292
 21
212.7484615329
 31
0.0
  0
LINE
  5
D9B
330
1F
100
AcDbEntity
  8
0
  6
Continuous
 62
     7
370
    25
100
AcDbLine
 10
1431.8460035292
 20
235.5974583421
 30
0.0
 11
1431.8460035292
 21
266.8484611288
 31
0.0
  0
ARC
  5
D9C
330
1F
100
AcDbEntity
  8
0
  6
Continuous
 62
     7
370
    25
100
AcDbCircle
 10
1431.8460035292
 20
263.3484611288
 30
0.0
 40
3.500000000000123
100
AcDbArc
 50
0.0
 51
90.0
  0
LINE
  5
D9D
330
1F
100
AcDbEntity
  8
0
  6
Continuous
 62
     7
370
    25
100
AcDbLine
 10
1435.3460035292
 20
263.3484611288
 30
0.0
 11
1435.3460035292
 21
205.3484611288
 31
0.0
  0
ARC
  5
D9E
330
1F
100
AcDbEntity
  8
0
  6
Continuous
 62
     7
370
    25
100
AcDbCircle
 10
1431.8460035292
 20
205.3484611288
 30
0.0
 40
3.500000000000009
100
AcDbArc
 50
270.0
 51
0.0
  0
LINE
  5
D9F
330
1F
100
AcDbEntity
  8
0
  6
Continuous
 62
     7
370
    25
100
AcDbLine
 10
1431.8460035292
 20
201.8484611288
 30
0.0
 11
1431.8460035292
 21
233.0994591427
 31
0.0
  0
SPLINE
  5
DA0
330
1F
100
AcDbEntity
  8
0
  6
Continuous
 62
     7
370
    25
100
AcDbSpline
210
0.0
220
0.0
230
1.0
 70
     8
 71
     3
 72
    13
 73
     9
 74
     0
 42
0.000000001
 43
0.00000001
 40
0.0
 40
0.0
 40
0.0
 40
0.0
 40
0.1869057518612813
 40
0.3736957167062775
 40
0.5620550788817392
 40
0.7490489850974461
 40
0.9369585072407501
 40
1.0
 40
1.0
 40
1.0
 40
1.0
 10
1431.84600352923
 20
233.0994591427123
 30
0.0
 10
1431.974562196486
 20
233.2247544131557
 30
0.0
 10
1432.231599889658
 20
233.4752673343578
 30
0.0
 10
1432.433806101704
 20
233.9858829903611
 30
0.0
 10
1432.466979859028
 20
234.5284477481743
 30
0.0
 10
1432.315566760457
 20
235.0522806339734
 30
0.0
 10
1432.07272529898
 20
235.4026736822702
 30
0.0
 10
1431.891523337688
 20
235.5583506709621
 30
0.0
 10
1431.84600352923
 20
235.5974583420716
 30
0.0
  0
SPLINE
  5
DA1
330
1F
100
AcDbEntity
  8
0
  6
Continuous
 62
     7
370
    25
100
AcDbSpline
210
0.0
220
0.0
230
1.0
 70
     8
 71
     3
 72
    22
 73
    18
 74
     0
 42
0.000000001
 43
0.00000001
 40
0.0
 40
0.0
 40
0.0
 40
0.0
 40
0.0020403040214734
 40
0.0771566066120821
 40
0.1522380987954394
 40
0.22724037857285
 40
0.302242749792529
 40
0.3773242807370419
 40
0.4524405823495537
 40
0.5000057683259936
 40
0.5750303376428662
 40
0.6500527106784093
 40
0.7251321068384962
 40
0.8002489175909115
 40
0.8753036633939022
 40
0.9502937269514414
 40
1.0
 40
1.0
 40
1.0
 40
1.0
 10
1431.84600352923
 20
235.5974583420716
 30
0.0
 10
1431.842196669001
 20
235.6004876400667
 30
0.0
 10
1431.698235566115
 20
235.7150442704779
 30
0.0
 10
1431.371857610342
 20
235.8920131794312
 30
0.0
 10
1430.831837371009
 20
235.978971675547
 30
0.0
 10
1430.293133641948
 20
235.8824738288666
 30
0.0
 10
1429.816941572525
 20
235.6132550931524
 30
0.0
 10
1429.456333628935
 20
235.2017893279975
 30
0.0
 10
1429.277248891918
 20
234.7549920961681
 30
0.0
 10
1429.226775813708
 20
234.2831779556842
 30
0.0
 10
1429.307146118965
 20
233.8089169228994
 30
0.0
 10
1429.572283320507
 20
233.3304443494424
 30
0.0
 10
1429.980736666157
 20
232.9663438638452
 30
0.0
 10
1430.487422167886
 20
232.7574560102836
 30
0.0
 10
1431.03252236576
 20
232.7299838578875
 30
0.0
 10
1431.503623089362
 20
232.8606314507079
 30
0.0
 10
1431.748422101611
 20
233.0313911562651
 30
0.0
 10
1431.84600352923
 20
233.0994591427123
 30
0.0
  0
SPLINE
  5
DA2
330
1F
100
AcDbEntity
  8
0
  6
Continuous
 62
     7
370
    25
100
AcDbSpline
210
0.0
220
0.0
230
1.0
 70
     8
 71
     3
 72
    16
 73
    12
 74
     0
 42
0.000000001
 43
0.00000001
 40
0.0
 40
0.0
 40
0.0
 40
0.0
 40
0.1209581501277252
 40
0.241912409375313
 40
0.3629676939979876
 40
0.4840893201847105
 40
0.6051009712742144
 40
0.7259979608267862
 40
0.8469545577724661
 40
0.9680519246467231
 40
1.0
 40
1.0
 40
1.0
 40
1.0
 10
1429.24600352923
 20
234.3484588508495
 30
0.0
 10
1429.263669511168
 20
234.1686752297395
 30
0.0
 10
1429.299000906778
 20
233.809113770648
 30
0.0
 10
1429.57440225159
 20
233.3304852695692
 30
0.0
 10
1429.980150885193
 20
232.9663142920022
 30
0.0
 10
1430.487183732988
 20
232.7578165785573
 30
0.0
 10
1431.033494995359
 20
232.7286967692281
 30
0.0
 10
1431.559015708979
 20
232.8819022392815
 30
0.0
 10
1432.002712634418
 20
233.2001991868549
 30
0.0
 10
1432.243716779662
 20
233.5378187748567
 30
0.0
 10
1432.328338776295
 20
233.7478405830211
 30
0.0
 10
1432.346003529231
 20
233.7916824149333
 30
0.0
  0
SPLINE
  5
DA3
330
1F
100
AcDbEntity
  8
0
  6
Continuous
 62
     7
370
    25
100
AcDbSpline
210
0.0
220
0.0
230
1.0
 70
     8
 71
     3
 72
     9
 73
     5
 74
     0
 42
0.000000001
 43
0.00000001
 40
0.0
 40
0.0
 40
0.0
 40
0.0
 40
0.70112561322859
 40
1.0
 40
1.0
 40
1.0
 40
1.0
 10
1432.346003529231
 20
233.7916824149333
 30
0.0
 10
1432.38981099452
 20
233.9193984926021
 30
0.0
 10
1432.452292616161
 20
234.1015571176175
 30
0.0
 10
1432.432387310647
 20
234.2907111964516
 30
0.0
 10
1432.426438124667
 20
234.3472445057684
 30
0.0
  0
LINE
  5
DA4
330
1F
100
AcDbEntity
  8
0
  6
Continuous
 62
     7
370
    25
100
AcDbLine
 10
1431.8460035292
 20
266.8484611288
 30
0.0
 11
1427.3460035292
 21
266.8484611288
 31
0.0
  0
LINE
  5
DA5
330
1F
100
AcDbEntity
  8
0
  6
Continuous
 62
     7
370
    25
100
AcDbLine
 10
1431.8460035292
 20
201.8484611288
 30
0.0
 11
1427.3460035292
 21
201.8484611288
 31
0.0
  0
LINE
  5
DA6
330
1F
100
AcDbEntity
  8
0
  6
Continuous
 62
     7
370
    25
100
AcDbLine
 10
1427.3460035292
 20
266.8484611288
 30
0.0
 11
1427.3460035292
 21
201.8484611288
 31
0.0
  0
LINE
  5
DA7
330
1F
100
AcDbEntity
  8
0
  6
Continuous
 62
     7
370
    25
100
AcDbLine
 10
1431.8460035292
 20
266.848464068
 30
0.0
 11
1427.3460035292
 21
266.848464068
 31
0.0
  0
LINE
  5
DA8
330
1F
100
AcDbEntity
  8
0
  6
Continuous
 62
     7
370
    25
100
AcDbLine
 10
1431.8460035292
 20
266.8484611288
 30
0.0
 11
1431.8460035292
 21
266.848464068
 31
0.0
  0
ARC
  5
DA9
330
1F
100
AcDbEntity
  8
0
  6
Continuous
 62
     7
370
    25
100
AcDbCircle
 10
1431.8460035292
 20
263.348464068
 30
0.0
 40
3.500000000000009
100
AcDbArc
 50
0.0
 51
90.0
  0
LINE
  5
DAA
330
1F
100
AcDbEntity
  8
0
  6
Continuous
 62
     7
370
    25
100
AcDbLine
 10
1397.5460035292
 20
205.3484611288
 30
0.0
 11
1397.5460035292
 21
263.3484611288
 31
0.0
  0
ARC
  5
DAB
330
1F
100
AcDbEntity
  8
0
  6
Continuous
 62
     7
370
    25
100
AcDbCircle
 10
1401.0460035292
 20
263.3484611288
 30
0.0
 40
3.500000000000227
100
AcDbArc
 50
90.0
 51
180.0
  0
LINE
  5
DAC
330
1F
100
AcDbEntity
  8
0
  6
Continuous
 62
     7
370
    25
100
AcDbLine
 10
1401.0460035292
 20
266.8484611288
 30
0.0
 11
1401.0460035292
 21
201.8484611288
 31
0.0
  0
ARC
  5
DAD
330
1F
100
AcDbEntity
  8
0
  6
Continuous
 62
     7
370
    25
100
AcDbCircle
 10
1401.0460035292
 20
205.3484611288
 30
0.0
 40
3.500000000000227
100
AcDbArc
 50
180.0
 51
270.0
  0
LINE
  5
DAE
330
1F
100
AcDbEntity
  8
0
  6
Continuous
 62
     7
370
    25
100
AcDbLine
 10
1418.5460035292
 20
201.8484611288
 30
0.0
 11
1418.5460035292
 21
266.8484611288
 31
0.0
  0
LINE
  5
DAF
330
1F
100
AcDbEntity
  8
0
  6
Continuous
 62
     7
370
    25
100
AcDbLine
 10
1418.5460035292
 20
201.8484611288
 30
0.0
 11
1401.0460035292
 21
201.8484611288
 31
0.0
  0
LINE
  5
DB0
330
1F
100
AcDbEntity
  8
0
  6
Continuous
 62
     7
370
    25
100
AcDbLine
 10
1418.5460035292
 20
266.8484611288
 30
0.0
 11
1401.0460035292
 21
266.8484611288
 31
0.0
  0
SPLINE
  5
DB1
330
1F
100
AcDbEntity
  8
0
  6
Continuous
 62
     7
370
    25
100
AcDbSpline
210
0.0
220
0.0
230
1.0
 70
    11
 71
     3
 72
    26
 73
    22
 74
     0
 42
0.000000001
 43
0.00000001
 40
0.0
 40
0.0
 40
0.0
 40
0.0
 40
0.0536444329512337
 40
0.1072872955066947
 40
0.160970931014391
 40
0.2146813188861176
 40
0.2683473287754268
 40
0.3219670892505658
 40
0.3756109125409341
 40
0.4293115271924738
 40
0.4830130855790561
 40
0.5366583195781087
 40
0.5902778765803649
 40
0.6439423084311368
 40
0.6976523329545329
 40
0.7513374671709965
 40
0.8049659625471659
 40
0.8585945233068311
 40
0.912279685238485
 40
0.9659897090625184
 40
1.0
 40
1.0
 40
1.0
 40
1.0
 10
1414.74600352923
 20
234.3484587406278
 30
0.0
 10
1414.763671797303
 20
234.168663093714
 30
0.0
 10
1414.799007816225
 20
233.8090770632532
 30
0.0
 10
1415.074444456055
 20
233.3304243348569
 30
0.0
 10
1415.480236658546
 20
232.9662635604196
 30
0.0
 10
1415.987258944522
 20
232.757797317159
 30
0.0
 10
1416.533673352378
 20
232.7287006315667
 30
0.0
 10
1417.058895113609
 20
232.8819788537985
 30
0.0
 10
1417.503823555446
 20
233.2002733233182
 30
0.0
 10
1417.818592364501
 20
233.6480923446548
 30
0.0
 10
1417.967386537285
 20
234.1750044475552
 30
0.0
 10
1417.933405192736
 20
234.7212256810753
 30
0.0
 10
1417.7207889397
 20
235.2252427700675
 30
0.0
 10
1417.353378176425
 20
235.6306979291825
 30
0.0
 10
1416.872237131414
 20
235.8918719256129
 30
0.0
 10
1416.331705064694
 20
235.9790101004929
 30
0.0
 10
1415.793283707454
 20
235.8824611968566
 30
0.0
 10
1415.316473299505
 20
235.6132672228854
 30
0.0
 10
1414.958058930759
 20
235.2017534050475
 30
0.0
 10
1414.771811384928
 20
234.7551032201831
 30
0.0
 10
1414.75321398116
 20
234.4620710649761
 30
0.0
 10
1414.74600352923
 20
234.3484587406278
 30
0.0
  0
SPLINE
  5
DB2
330
1F
100
AcDbEntity
  8
0
  6
Continuous
 62
     7
370
    25
100
AcDbSpline
210
0.0
220
0.0
230
1.0
 70
     8
 71
     3
 72
    12
 73
     8
 74
     0
 42
0.000000001
 43
0.00000001
 40
0.0
 40
0.0
 40
0.0
 40
0.0
 40
0.214549980813483
 40
0.4290930353751208
 40
0.6438157981291781
 40
0.8586558581939793
 40
1.0
 40
1.0
 40
1.0
 40
1.0
 10
1416.34600352923
 20
232.7484588538856
 30
0.0
 10
1416.525687842679
 20
232.7661268882705
 30
0.0
 10
1416.885050668883
 20
232.8014623866685
 30
0.0
 10
1417.365166146658
 20
233.0768319492584
 30
0.0
 10
1417.723680490978
 20
233.482699197399
 30
0.0
 10
1417.927196082326
 20
233.9316460441407
 30
0.0
 10
1417.926055467297
 20
234.2308236059644
 30
0.0
 10
1417.925602838428
 20
234.3495458724251
 30
0.0
  0
SPLINE
  5
DB3
330
1F
100
AcDbEntity
  8
0
  6
Continuous
 62
     7
370
    25
100
AcDbSpline
210
0.0
220
0.0
230
1.0
 70
     8
 71
     3
 72
    13
 73
     9
 74
     0
 42
0.000000001
 43
0.00000001
 40
0.0
 40
0.0
 40
0.0
 40
0.0
 40
0.0054706887650303
 40
0.219909197605359
 40
0.4343477822293069
 40
0.6490343502233652
 40
0.8638308127792134
 40
1.0
 40
1.0
 40
1.0
 40
1.0
 10
1414.748245181234
 20
234.3480969674538
 30
0.0
 10
1414.74750061012
 20
234.3435927668586
 30
0.0
 10
1414.71757055137
 20
234.1625341869827
 30
0.0
 10
1414.825202006203
 20
233.7946802451846
 30
0.0
 10
1415.077365042965
 20
233.3196250304212
 30
0.0
 10
1415.49330831236
 20
232.9606403290961
 30
0.0
 10
1415.938932205838
 20
232.7743293701672
 30
0.0
 10
1416.232214559448
 20
232.7556904598138
 30
0.0
 10
1416.34600352923
 20
232.7484588538856
 30
0.0
  0
LINE
  5
DB4
330
1F
100
AcDbEntity
  8
0
  6
Continuous
 62
     7
370
    25
100
AcDbLine
 10
1401.0460035292
 20
266.8484628923
 30
0.0
 11
1401.0460035292
 21
266.8484611288
 31
0.0
  0
ARC
  5
DB5
330
1F
100
AcDbEntity
  8
0
  6
Continuous
 62
     7
370
    25
100
AcDbCircle
 10
1401.0460035292
 20
263.3484628923
 30
0.0
 40
3.500000000000227
100
AcDbArc
 50
90.0
 51
180.0
  0
LINE
  5
DB6
330
1F
100
AcDbEntity
  8
0
  6
Continuous
 62
     7
370
    25
100
AcDbLine
 10
1418.5460035292
 20
266.8484628923
 30
0.0
 11
1401.0460035292
 21
266.8484628923
 31
0.0
  0
LINE
  5
DB7
330
1F
100
AcDbEntity
  8
0
  6
Continuous
 62
     7
370
    25
100
AcDbLine
 10
1422.0460035292
 20
254.4984615329
 30
0.0
 11
1422.0460035292
 21
246.1984615329
 31
0.0
  0
LINE
  5
DB8
330
1F
100
AcDbEntity
  8
0
  6
Continuous
 62
     7
370
    25
100
AcDbLine
 10
1422.0460035292
 20
222.4984615329
 30
0.0
 11
1422.0460035292
 21
214.1984615329
 31
0.0
  0
SPLINE
  5
DB9
330
1F
100
AcDbEntity
  8
0
  6
Continuous
 62
     7
370
    25
100
AcDbSpline
210
0.0
220
0.0
230
1.0
 70
    24
 71
     3
 72
    14
 73
    10
 74
     0
 42
0.000000001
 43
0.00000001
 40
0.0
 40
0.0
 40
0.0
 40
0.0
 40
0.1399610906514693
 40
0.2828791310779997
 40
0.4299181401464965
 40
0.5732517840199807
 40
0.7165843868790828
 40
0.8563835626995492
 40
1.0
 40
1.0
 40
1.0
 40
1.0
 10
1418.54600352923
 20
236.5984615329118
 30
0.0
 10
1418.570328044564
 20
236.5984615329117
 30
0.0
 10
1418.619490977845
 20
236.5984615329117
 30
0.0
 10
1418.685201052671
 20
236.5984615329119
 30
0.0
 10
1418.742299976098
 20
236.5984615329113
 30
0.0
 10
1418.788216202106
 20
236.5984615329119
 30
0.0
 10
1418.821051284205
 20
236.5984615329117
 30
0.0
 10
1418.842042980504
 20
236.5984615329118
 30
0.0
 10
1418.844671545138
 20
236.5984615329118
 30
0.0
 10
1418.84600352923
 20
236.5984615329118
 30
0.0
  0
SPLINE
  5
DBA
330
1F
100
AcDbEntity
  8
0
  6
Continuous
 62
     7
370
    25
100
AcDbSpline
210
0.0
220
0.0
230
1.0
 70
    24
 71
     3
 72
    10
 73
     6
 74
     0
 42
0.000000001
 43
0.00000001
 40
0.0
 40
0.0
 40
0.0
 40
0.0
 40
0.3322171091050009
 40
0.665823509601807
 40
1.0
 40
1.0
 40
1.0
 40
1.0
 10
1418.84600352923
 20
243.5871569872735
 30
0.0
 10
1418.84600352923
 20
242.829440001064
 30
0.0
 10
1418.84600352923
 20
241.3108373487138
 30
0.0
 10
1418.84600352923
 20
238.9699229973648
 30
0.0
 10
1418.84600352923
 20
237.3893984862677
 30
0.0
 10
1418.84600352923
 20
236.5984615795151
 30
0.0
  0
SPLINE
  5
DBB
330
1F
100
AcDbEntity
  8
0
  6
Continuous
 62
     7
370
    25
100
AcDbSpline
210
0.0
220
0.0
230
1.0
 70
    24
 71
     3
 72
    12
 73
     8
 74
     0
 42
0.000000001
 43
0.00000001
 40
0.0
 40
0.0
 40
0.0
 40
0.0
 40
0.2914927064612278
 40
0.4356709655700937
 40
0.5796068083118772
 40
0.8702796305087896
 40
1.0
 40
1.0
 40
1.0
 40
1.0
 10
1418.84600352923
 20
232.0984615329118
 30
0.0
 10
1418.840682228973
 20
232.0984615329118
 30
0.0
 10
1418.832728904688
 20
232.0984615329117
 30
0.0
 10
1418.785514653612
 20
232.0984615329118
 30
0.0
 10
1418.723788178763
 20
232.0984615329116
 30
0.0
 10
1418.641683492595
 20
232.0984615329126
 30
0.0
 10
1418.568565489299
 20
232.098461532912
 30
0.0
 10
1418.54600352923
 20
232.0984615329118
 30
0.0
  0
SPLINE
  5
DBC
330
1F
100
AcDbEntity
  8
0
  6
Continuous
 62
     7
370
    25
100
AcDbSpline
210
0.0
220
0.0
230
1.0
 70
    24
 71
     3
 72
    10
 73
     6
 74
     0
 42
0.000000001
 43
0.00000001
 40
0.0
 40
0.0
 40
0.0
 40
0.0
 40
0.3337121229004493
 40
0.6673289648891795
 40
1.0
 40
1.0
 40
1.0
 40
1.0
 10
1418.84600352923
 20
232.098461485616
 30
0.0
 10
1418.84600352923
 20
231.3086246823108
 30
0.0
 10
1418.84600352923
 20
229.7291765885468
 30
0.0
 10
1418.84600352923
 20
227.3881959595973
 30
0.0
 10
1418.84600352923
 20
225.868523638724
 30
0.0
 10
1418.84600352923
 20
225.109766078531
 30
0.0
  0
ARC
  5
DBD
330
1F
100
AcDbEntity
  8
0
  6
Continuous
 62
     7
370
    25
100
AcDbCircle
 10
1418.3460035292
 20
204.2484615329
 30
0.0
 40
0.5000000000000073
100
AcDbArc
 50
293.5781784782001
 51
0.0
  0
LINE
  5
DBE
330
1F
100
AcDbEntity
  8
0
  6
Continuous
 62
     7
370
    25
100
AcDbLine
 10
1418.8460035292
 20
225.1097660785
 30
0.0
 11
1418.8460035292
 21
204.2484615329
 31
0.0
  0
ARC
  5
DBF
330
1F
100
AcDbEntity
  8
0
  6
Continuous
 62
     7
370
    25
100
AcDbCircle
 10
1418.3460035292
 20
264.4484615329
 30
0.0
 40
0.5000000000000073
100
AcDbArc
 50
360.0
 51
66.4218215218
  0
LINE
  5
DC0
330
1F
100
AcDbEntity
  8
0
  6
Continuous
 62
     7
370
    25
100
AcDbLine
 10
1418.8460035292
 20
264.4484615329
 30
0.0
 11
1418.8460035292
 21
243.5871569873
 31
0.0
  0
LINE
  5
DC1
330
1F
100
AcDbEntity
  8
0
  6
Continuous
 62
     7
370
    25
100
AcDbLine
 10
1418.8460035292
 20
236.5984615329
 30
0.0
 11
1418.8460035292
 21
232.0984615329
 31
0.0
  0
LINE
  5
DC2
330
1F
100
AcDbEntity
  8
0
  6
Continuous
 62
     7
370
    25
100
AcDbLine
 10
1420.3460035292
 20
244.8484615329
 30
0.0
 11
1420.3460035292
 21
255.8484615329
 31
0.0
  0
LINE
  5
DC3
330
1F
100
AcDbEntity
  8
0
  6
Continuous
 62
     7
370
    25
100
AcDbLine
 10
1420.8460035292
 20
245.3484615329
 30
0.0
 11
1420.8460035292
 21
255.3484615329
 31
0.0
  0
LINE
  5
DC4
330
1F
100
AcDbEntity
  8
0
  6
Continuous
 62
     7
370
    25
100
AcDbLine
 10
1420.3460035292
 20
212.8484615329
 30
0.0
 11
1420.3460035292
 21
223.8484615329
 31
0.0
  0
LINE
  5
DC5
330
1F
100
AcDbEntity
  8
0
  6
Continuous
 62
     7
370
    25
100
AcDbLine
 10
1420.8460035292
 20
213.3484615329
 30
0.0
 11
1420.8460035292
 21
223.3484615329
 31
0.0
  0
CIRCLE
  5
DC6
330
1F
100
AcDbEntity
  8
0
  6
Continuous
 62
     7
370
    25
100
AcDbCircle
 10
1430.8452016645
 20
234.3484615329
 30
0.0
 40
1.399999999999886
  0
LINE
  5
DC7
330
1F
100
AcDbEntity
  8
0
  6
Continuous
 62
     7
370
    25
100
AcDbLine
 10
1430.9088060575
 20
235.5014089795
 30
0.0
 11
1429.8785220831
 21
234.9800182763
 31
0.0
  0
LINE
  5
DC8
330
1F
100
AcDbEntity
  8
0
  6
Continuous
 62
     7
370
    25
100
AcDbLine
 10
1429.8785220831
 20
234.9800182763
 30
0.0
 11
1429.8149176901
 21
233.8270708298
 31
0.0
  0
LINE
  5
DC9
330
1F
100
AcDbEntity
  8
0
  6
Continuous
 62
     7
370
    25
100
AcDbLine
 10
1429.8149176901
 20
233.8270708298
 30
0.0
 11
1430.7815972715
 21
233.1955140864
 31
0.0
  0
LINE
  5
DCA
330
1F
100
AcDbEntity
  8
0
  6
Continuous
 62
     7
370
    25
100
AcDbLine
 10
1430.7815972715
 20
233.1955140864
 30
0.0
 11
1431.811881246
 21
233.7169047895
 31
0.0
  0
LINE
  5
DCB
330
1F
100
AcDbEntity
  8
0
  6
Continuous
 62
     7
370
    25
100
AcDbLine
 10
1431.875485639
 20
234.8698522361
 30
0.0
 11
1431.811881246
 21
233.7169047895
 31
0.0
  0
LINE
  5
DCC
330
1F
100
AcDbEntity
  8
0
  6
Continuous
 62
     7
370
    25
100
AcDbLine
 10
1431.875485639
 20
234.8698522361
 30
0.0
 11
1430.9088060575
 21
235.5014089795
 31
0.0
  0
CIRCLE
  5
DCD
330
1F
100
AcDbEntity
  8
0
  6
Continuous
 62
     7
370
    25
100
AcDbCircle
 10
1416.3460035292
 20
234.3484615329
 30
0.0
 40
1.400000000000053
  0
LINE
  5
DCE
330
1F
100
AcDbEntity
  8
0
  6
Continuous
 62
     7
370
    25
100
AcDbLine
 10
1416.4096078601
 20
235.5014089829
 30
0.0
 11
1415.3793239137
 21
234.9800182242
 31
0.0
  0
LINE
  5
DCF
330
1F
100
AcDbEntity
  8
0
  6
Continuous
 62
     7
370
    25
100
AcDbLine
 10
1415.3793239137
 20
234.9800182242
 30
0.0
 11
1415.3157195829
 21
233.8270707742
 31
0.0
  0
LINE
  5
DD0
330
1F
100
AcDbEntity
  8
0
  6
Continuous
 62
     7
370
    25
100
AcDbLine
 10
1415.3157195829
 20
233.8270707742
 30
0.0
 11
1416.2823991984
 21
233.1955140829
 31
0.0
  0
LINE
  5
DD1
330
1F
100
AcDbEntity
  8
0
  6
Continuous
 62
     7
370
    25
100
AcDbLine
 10
1416.2823991984
 20
233.1955140829
 30
0.0
 11
1417.3126831447
 21
233.7169048416
 31
0.0
  0
LINE
  5
DD2
330
1F
100
AcDbEntity
  8
0
  6
Continuous
 62
     7
370
    25
100
AcDbLine
 10
1417.3762874756
 20
234.8698522916
 30
0.0
 11
1417.3126831447
 21
233.7169048416
 31
0.0
  0
LINE
  5
DD3
330
1F
100
AcDbEntity
  8
0
  6
Continuous
 62
     7
370
    25
100
AcDbLine
 10
1417.3762874756
 20
234.8698522916
 30
0.0
 11
1416.4096078601
 21
235.5014089829
 31
0.0
  0
LINE
  5
DD4
330
1F
100
AcDbEntity
  8
0
  6
Continuous
 62
     7
370
    25
100
AcDbLine
 10
1427.3460035292
 20
264.8484612757
 30
0.0
 11
1426.8460035292
 21
264.8484612757
 31
0.0
  0
LINE
  5
DD5
330
1F
100
AcDbEntity
  8
0
  6
Continuous
 62
     7
370
    25
100
AcDbLine
 10
1427.3460035292
 20
203.8484612757
 30
0.0
 11
1426.8460035292
 21
203.8484612757
 31
0.0
  0
LINE
  5
DD6
330
1F
100
AcDbEntity
  8
0
  6
Continuous
 62
     7
370
    25
100
AcDbLine
 10
1426.8460035292
 20
264.8484612757
 30
0.0
 11
1426.8460035292
 21
203.8484612757
 31
0.0
  0
LINE
  5
DD7
330
1F
100
AcDbEntity
  8
0
  6
Continuous
 62
     7
370
    25
100
AcDbLine
 10
1426.3460035292
 20
250.3484611214
 30
0.0
 11
1426.3460035292
 21
244.7484615329
 31
0.0
  0
LINE
  5
DD8
330
1F
100
AcDbEntity
  8
0
  6
Continuous
 62
     7
370
    25
100
AcDbLine
 10
1426.3460035292
 20
255.9484615329
 30
0.0
 11
1426.3460035292
 21
250.3484611214
 31
0.0
  0
LINE
  5
DD9
330
1F
100
AcDbEntity
  8
0
  6
Continuous
 62
     7
370
    25
100
AcDbLine
 10
1426.3460035292
 20
218.3484611214
 30
0.0
 11
1426.3460035292
 21
212.7484615329
 31
0.0
  0
LINE
  5
DDA
330
1F
100
AcDbEntity
  8
0
  6
Continuous
 62
     7
370
    25
100
AcDbLine
 10
1426.3460035292
 20
223.9484615329
 30
0.0
 11
1426.3460035292
 21
218.3484611214
 31
0.0
  0
LINE
  5
DDB
330
1F
100
AcDbEntity
  8
0
  6
Continuous
 62
     7
370
    25
100
AcDbLine
 10
1422.3460035292
 20
250.3484611214
 30
0.0
 11
1422.3460035292
 21
255.9484615329
 31
0.0
  0
LINE
  5
DDC
330
1F
100
AcDbEntity
  8
0
  6
Continuous
 62
     7
370
    25
100
AcDbLine
 10
1422.3460035292
 20
244.7484615329
 30
0.0
 11
1422.3460035292
 21
250.3484611214
 31
0.0
  0
LINE
  5
DDD
330
1F
100
AcDbEntity
  8
0
  6
Continuous
 62
     7
370
    25
100
AcDbLine
 10
1422.3460035292
 20
218.3484611214
 30
0.0
 11
1422.3460035292
 21
223.9484615329
 31
0.0
  0
LINE
  5
DDE
330
1F
100
AcDbEntity
  8
0
  6
Continuous
 62
     7
370
    25
100
AcDbLine
 10
1422.3460035292
 20
212.7484615329
 30
0.0
 11
1422.3460035292
 21
218.3484611214
 31
0.0
  0
LINE
  5
DDF
330
1F
100
AcDbEntity
  8
0
  6
Continuous
 62
     7
370
    25
100
AcDbLine
 10
1427.3460035292
 20
264.8484637006
 30
0.0
 11
1426.8460035292
 21
264.8484637006
 31
0.0
  0
LWPOLYLINE
  5
DE0
330
1F
100
AcDbEntity
  8
0
  6
Continuous
 62
     8
370
    25
100
AcDbPolyline
 90
        7
 70
   128
 43
0.0
 10
1418.8460035292
 20
243.5871569873
 10
1418.8363961694
 20
243.6170968556
 10
1418.8079432955
 20
243.6458861515
 10
1418.7617383354
 20
243.6724185186
 10
1418.6995569198
 20
243.6956743329
 10
1418.6237886457
 20
243.7147598864
 10
1418.5460035292
 20
243.7278115429
  0
LWPOLYLINE
  5
DE1
330
1F
100
AcDbEntity
  8
0
  6
Continuous
 62
     8
370
    25
100
AcDbPolyline
 90
        7
 70
   128
 43
0.0
 10
1418.8460035292
 20
225.1097660785
 10
1418.8363961694
 20
225.0798262102
 10
1418.8079432955
 20
225.0510369143
 10
1418.7617383354
 20
225.0245045472
 10
1418.6995569198
 20
225.0012487329
 10
1418.6237886457
 20
224.9821631794
 10
1418.5460035292
 20
224.9691115229
  0
LINE
  5
DE2
330
1F
100
AcDbEntity
  8
0
  6
Continuous
 62
     7
370
    25
100
AcDbLine
 10
1666.0000992221
 20
213.8984615329
 30
0.0
 11
1666.3000992221
 21
214.1984615329
 31
0.0
  0
LINE
  5
DE3
330
1F
100
AcDbEntity
  8
0
  6
Continuous
 62
     7
370
    25
100
AcDbLine
 10
1666.3000992221
 20
222.4984615329
 30
0.0
 11
1666.0000992221
 21
222.7984615329
 31
0.0
  0
LINE
  5
DE4
330
1F
100
AcDbEntity
  8
0
  6
Continuous
 62
     7
370
    25
100
AcDbLine
 10
1666.0000992221
 20
245.8984615329
 30
0.0
 11
1666.3000992221
 21
246.1984615329
 31
0.0
  0
LINE
  5
DE5
330
1F
100
AcDbEntity
  8
0
  6
Continuous
 62
     7
370
    25
100
AcDbLine
 10
1666.3000992221
 20
254.4984615329
 30
0.0
 11
1666.0000992221
 21
254.7984615329
 31
0.0
  0
LINE
  5
DE6
330
1F
100
AcDbEntity
  8
0
  6
Continuous
 62
     7
370
    25
100
AcDbLine
 10
1669.5000992221
 20
223.8484615329
 30
0.0
 11
1668.0000992221
 21
223.8484615329
 31
0.0
  0
LINE
  5
DE7
330
1F
100
AcDbEntity
  8
0
  6
Continuous
 62
     7
370
    25
100
AcDbLine
 10
1668.0000992221
 20
212.8484615329
 30
0.0
 11
1669.5000992221
 21
212.8484615329
 31
0.0
  0
LINE
  5
DE8
330
1F
100
AcDbEntity
  8
0
  6
Continuous
 62
     7
370
    25
100
AcDbLine
 10
1668.0000992221
 20
223.8484615329
 30
0.0
 11
1667.5000992221
 21
223.3484615329
 31
0.0
  0
LINE
  5
DE9
330
1F
100
AcDbEntity
  8
0
  6
Continuous
 62
     7
370
    25
100
AcDbLine
 10
1667.5000992221
 20
213.3484615329
 30
0.0
 11
1668.0000992221
 21
212.8484615329
 31
0.0
  0
LINE
  5
DEA
330
1F
100
AcDbEntity
  8
0
  6
Continuous
 62
     7
370
    25
100
AcDbLine
 10
1669.5000992221
 20
255.8484615329
 30
0.0
 11
1668.0000992221
 21
255.8484615329
 31
0.0
  0
LINE
  5
DEB
330
1F
100
AcDbEntity
  8
0
  6
Continuous
 62
     7
370
    25
100
AcDbLine
 10
1668.0000992221
 20
244.8484615329
 30
0.0
 11
1669.5000992221
 21
244.8484615329
 31
0.0
  0
LINE
  5
DEC
330
1F
100
AcDbEntity
  8
0
  6
Continuous
 62
     7
370
    25
100
AcDbLine
 10
1668.0000992221
 20
255.8484615329
 30
0.0
 11
1667.5000992221
 21
255.3484615329
 31
0.0
  0
LINE
  5
DED
330
1F
100
AcDbEntity
  8
0
  6
Continuous
 62
     7
370
    25
100
AcDbLine
 10
1667.5000992221
 20
245.3484615329
 30
0.0
 11
1668.0000992221
 21
244.8484615329
 31
0.0
  0
LINE
  5
DEE
330
1F
100
AcDbEntity
  8
0
  6
Continuous
 62
     7
370
    25
100
AcDbLine
 10
1661.5000992221
 20
212.2484615329
 30
0.0
 11
1662.0000992221
 21
212.7484615329
 31
0.0
  0
LINE
  5
DEF
330
1F
100
AcDbEntity
  8
0
  6
Continuous
 62
     7
370
    25
100
AcDbLine
 10
1662.0000992221
 20
223.9484615329
 30
0.0
 11
1661.5000992221
 21
224.4484615329
 31
0.0
  0
LINE
  5
DF0
330
1F
100
AcDbEntity
  8
0
  6
Continuous
 62
     7
370
    25
100
AcDbLine
 10
1661.5000992221
 20
244.2484615329
 30
0.0
 11
1662.0000992221
 21
244.7484615329
 31
0.0
  0
LINE
  5
DF1
330
1F
100
AcDbEntity
  8
0
  6
Continuous
 62
     7
370
    25
100
AcDbLine
 10
1662.0000992221
 20
255.9484615329
 30
0.0
 11
1661.5000992221
 21
256.4484615329
 31
0.0
  0
LINE
  5
DF2
330
1F
100
AcDbEntity
  8
0
  6
Continuous
 62
     7
370
    25
100
AcDbLine
 10
1662.0000992221
 20
212.7484615329
 30
0.0
 11
1666.0000992221
 21
212.7484615329
 31
0.0
  0
LINE
  5
DF3
330
1F
100
AcDbEntity
  8
0
  6
Continuous
 62
     7
370
    25
100
AcDbLine
 10
1666.0000992221
 20
223.9484615329
 30
0.0
 11
1662.0000992221
 21
223.9484615329
 31
0.0
  0
LINE
  5
DF4
330
1F
100
AcDbEntity
  8
0
  6
Continuous
 62
     7
370
    25
100
AcDbLine
 10
1662.0000992221
 20
244.7484615329
 30
0.0
 11
1666.0000992221
 21
244.7484615329
 31
0.0
  0
LINE
  5
DF5
330
1F
100
AcDbEntity
  8
0
  6
Continuous
 62
     7
370
    25
100
AcDbLine
 10
1666.0000992221
 20
255.9484615329
 30
0.0
 11
1662.0000992221
 21
255.9484615329
 31
0.0
  0
ARC
  5
DF6
330
1F
100
AcDbEntity
  8
0
  6
Continuous
 62
     7
370
    25
100
AcDbCircle
 10
1656.5000992221
 20
205.348464068
 30
0.0
 40
3.500000000000038
100
AcDbArc
 50
180.0
 51
270.0
  0
LWPOLYLINE
  5
DF7
330
1F
100
AcDbEntity
  8
0
  6
Continuous
 62
     7
370
    25
100
AcDbPolyline
 90
       10
 70
   128
 43
0.0
 10
1656.5000992221
 20
205.3484643252
 10
1655.8923306003
 20
205.3484643213
 10
1655.3030287205
 20
205.3484643097
 10
1654.7500992221
 20
205.3484642907
 10
1654.2503425882
 20
205.348464265
 10
1653.8189436712
 20
205.3484642333
 10
1653.4690103089
 20
205.3484641966
 10
1653.2111750494
 20
205.348464156
 10
1653.0532720866
 20
205.3484641127
 10
1653.0000992221
 20
205.348464068
  0
LINE
  5
DF8
330
1F
100
AcDbEntity
  8
0
  6
Continuous
 62
     7
370
    25
100
AcDbLine
 10
1656.5000992221
 20
201.848464068
 30
0.0
 11
1656.5000992221
 21
205.3484643252
 31
0.0
  0
LINE
  5
DF9
330
1F
100
AcDbEntity
  8
0
  6
Continuous
 62
     7
370
    25
100
AcDbLine
 10
1661.0000992221
 20
201.848464068
 30
0.0
 11
1656.5000992221
 21
201.848464068
 31
0.0
  0
LINE
  5
DFA
330
1F
100
AcDbEntity
  8
0
  6
Continuous
 62
     7
370
    25
100
AcDbLine
 10
1656.5000992221
 20
205.3484643252
 30
0.0
 11
1661.0000992221
 21
205.3484643252
 31
0.0
  0
LINE
  5
DFB
330
1F
100
AcDbEntity
  8
0
  6
Continuous
 62
     7
370
    25
100
AcDbLine
 10
1661.0000992221
 20
205.3484643252
 30
0.0
 11
1661.0000992221
 21
201.848464068
 31
0.0
  0
LINE
  5
DFC
330
1F
100
AcDbEntity
  8
0
  6
Continuous
 62
     7
370
    25
100
AcDbLine
 10
1656.5000992221
 20
263.3484643252
 30
0.0
 11
1656.5000992221
 21
258.0974639249
 31
0.0
  0
SPLINE
  5
DFD
330
1F
100
AcDbEntity
  8
0
  6
Continuous
 62
     7
370
    25
100
AcDbSpline
210
0.0
220
0.0
230
1.0
 70
     8
 71
     3
 72
    13
 73
     9
 74
     0
 42
0.000000001
 43
0.00000001
 40
0.0
 40
0.0
 40
0.0
 40
0.0
 40
0.1872033915711463
 40
0.3742863583766683
 40
0.5625967254382644
 40
0.7482885339020937
 40
0.9355603692582888
 40
1.0
 40
1.0
 40
1.0
 40
1.0
 10
1656.500099222129
 20
258.0974639248756
 30
0.0
 10
1656.371351538402
 20
257.9719301943916
 30
0.0
 10
1656.113938992149
 20
257.7209434871427
 30
0.0
 10
1655.911995322026
 20
257.2099272931455
 30
0.0
 10
1655.879361840816
 20
256.6678885054413
 30
0.0
 10
1656.030280807387
 20
256.1460436276096
 30
0.0
 10
1656.271831132558
 20
255.7958850031117
 30
0.0
 10
1656.453572382434
 20
255.6395001714943
 30
0.0
 10
1656.500099222129
 20
255.5994647255163
 30
0.0
  0
LINE
  5
DFE
330
1F
100
AcDbEntity
  8
0
  6
Continuous
 62
     7
370
    25
100
AcDbLine
 10
1656.5000992221
 20
255.5994647255
 30
0.0
 11
1656.5000992221
 21
213.0974639249
 31
0.0
  0
SPLINE
  5
DFF
330
1F
100
AcDbEntity
  8
0
  6
Continuous
 62
     7
370
    25
100
AcDbSpline
210
0.0
220
0.0
230
1.0
 70
     8
 71
     3
 72
    13
 73
     9
 74
     0
 42
0.000000001
 43
0.00000001
 40
0.0
 40
0.0
 40
0.0
 40
0.0
 40
0.1872033915711328
 40
0.3742863583766531
 40
0.5625967254382642
 40
0.7482885339020765
 40
0.9355603692582843
 40
1.0
 40
1.0
 40
1.0
 40
1.0
 10
1656.500099222129
 20
213.0974639248756
 30
0.0
 10
1656.371351538402
 20
212.9719301943917
 30
0.0
 10
1656.113938992148
 20
212.7209434871428
 30
0.0
 10
1655.911995322026
 20
212.2099272931456
 30
0.0
 10
1655.879361840816
 20
211.6678885054415
 30
0.0
 10
1656.030280807387
 20
211.1460436276096
 30
0.0
 10
1656.271831132558
 20
210.7958850031118
 30
0.0
 10
1656.453572382434
 20
210.6395001714944
 30
0.0
 10
1656.500099222129
 20
210.5994647255163
 30
0.0
  0
LINE
  5
E00
330
1F
100
AcDbEntity
  8
0
  6
Continuous
 62
     7
370
    25
100
AcDbLine
 10
1656.5000992221
 20
210.5994647255
 30
0.0
 11
1656.5000992221
 21
205.3484643252
 31
0.0
  0
LINE
  5
E01
330
1F
100
AcDbEntity
  8
0
  6
Continuous
 62
     7
370
    25
100
AcDbLine
 10
1653.0000992221
 20
205.348464068
 30
0.0
 11
1653.0000992221
 21
263.348464068
 31
0.0
  0
LWPOLYLINE
  5
E02
330
1F
100
AcDbEntity
  8
0
  6
Continuous
 62
     7
370
    25
100
AcDbPolyline
 90
       10
 70
   128
 43
0.0
 10
1656.5000992221
 20
263.3484643252
 10
1655.8923306003
 20
263.3484643213
 10
1655.3030287205
 20
263.3484643097
 10
1654.7500992221
 20
263.3484642907
 10
1654.2503425882
 20
263.348464265
 10
1653.8189436712
 20
263.3484642333
 10
1653.4690103089
 20
263.3484641966
 10
1653.2111750494
 20
263.348464156
 10
1653.0532720866
 20
263.3484641127
 10
1653.0000992221
 20
263.348464068
  0
LINE
  5
E03
330
1F
100
AcDbEntity
  8
0
  6
Continuous
 62
     7
370
    25
100
AcDbLine
 10
1661.0000992221
 20
263.3484643252
 30
0.0
 11
1656.5000992221
 21
263.3484643252
 31
0.0
  0
ARC
  5
E04
330
1F
100
AcDbEntity
  8
0
  6
Continuous
 62
     7
370
    25
100
AcDbCircle
 10
1657.5000992221
 20
211.8484643252
 30
0.0
 40
1.600000000000001
100
AcDbArc
 50
231.3178125465
 51
128.6821874535
  0
ARC
  5
E05
330
1F
100
AcDbEntity
  8
0
  6
Continuous
 62
     7
370
    25
100
AcDbCircle
 10
1657.5000992221
 20
256.8484643252
 30
0.0
 40
1.600000000000001
100
AcDbArc
 50
231.3178125465
 51
128.6821874535
  0
LINE
  5
E06
330
1F
100
AcDbEntity
  8
0
  6
Continuous
 62
     7
370
    25
100
AcDbLine
 10
1661.0000992221
 20
263.3484643252
 30
0.0
 11
1661.0000992221
 21
205.3484643252
 31
0.0
  0
ARC
  5
E07
330
1F
100
AcDbEntity
  8
0
  6
Continuous
 62
     7
370
    25
100
AcDbCircle
 10
1657.5000992221
 20
211.848464215
 30
0.0
 40
1.600000000000136
100
AcDbArc
 50
0.0
 51
128.6821874535
  0
ARC
  5
E08
330
1F
100
AcDbEntity
  8
0
  6
Continuous
 62
     7
370
    25
100
AcDbCircle
 10
1657.5000992221
 20
211.848464215
 30
0.0
 40
1.600000000000001
100
AcDbArc
 50
128.6821874535
 51
159.6358651937
  0
ARC
  5
E09
330
1F
100
AcDbEntity
  8
0
  6
Continuous
 62
     7
370
    25
100
AcDbCircle
 10
1657.5000992221
 20
211.848464215
 30
0.0
 40
1.600000000000136
100
AcDbArc
 50
159.6358651937
 51
180.0
  0
ARC
  5
E0A
330
1F
100
AcDbEntity
  8
0
  6
Continuous
 62
     7
370
    25
100
AcDbCircle
 10
1657.5000992221
 20
256.848464215
 30
0.0
 40
1.600000000000136
100
AcDbArc
 50
159.6358651937
 51
180.0
  0
ARC
  5
E0B
330
1F
100
AcDbEntity
  8
0
  6
Continuous
 62
     7
370
    25
100
AcDbCircle
 10
1657.5000992221
 20
256.848464215
 30
0.0
 40
1.600000000000136
100
AcDbArc
 50
0.0
 51
128.6821874535
  0
ARC
  5
E0C
330
1F
100
AcDbEntity
  8
0
  6
Continuous
 62
     7
370
    25
100
AcDbCircle
 10
1657.5000992221
 20
256.848464215
 30
0.0
 40
1.599999999999991
100
AcDbArc
 50
128.6821874535
 51
159.6358651937
  0
ARC
  5
E0D
330
1F
100
AcDbEntity
  8
0
  6
Continuous
 62
     7
370
    25
100
AcDbCircle
 10
1656.5000992221
 20
263.348464068
 30
0.0
 40
3.500000000000009
100
AcDbArc
 50
90.0
 51
180.0
  0
LINE
  5
E0E
330
1F
100
AcDbEntity
  8
0
  6
Continuous
 62
     7
370
    25
100
AcDbLine
 10
1656.5000992221
 20
263.3484643252
 30
0.0
 11
1656.5000992221
 21
266.848464068
 31
0.0
  0
LINE
  5
E0F
330
1F
100
AcDbEntity
  8
0
  6
Continuous
 62
     7
370
    25
100
AcDbLine
 10
1656.5000992221
 20
266.848464068
 30
0.0
 11
1661.0000992221
 21
266.848464068
 31
0.0
  0
LINE
  5
E10
330
1F
100
AcDbEntity
  8
0
  6
Continuous
 62
     7
370
    25
100
AcDbLine
 10
1661.0000992221
 20
266.848464068
 30
0.0
 11
1661.0000992221
 21
263.3484643252
 31
0.0
  0
LINE
  5
E11
330
1F
100
AcDbEntity
  8
0
  6
Continuous
 62
     7
370
    25
100
AcDbLine
 10
1653.0000992221
 20
205.3484611288
 30
0.0
 11
1653.0000992221
 21
205.348464068
 31
0.0
  0
LINE
  5
E12
330
1F
100
AcDbEntity
  8
0
  6
Continuous
 62
     7
370
    25
100
AcDbLine
 10
1656.5000992221
 20
201.848464068
 30
0.0
 11
1656.5000992221
 21
201.8484611288
 31
0.0
  0
ARC
  5
E13
330
1F
100
AcDbEntity
  8
0
  6
Continuous
 62
     7
370
    25
100
AcDbCircle
 10
1656.5000992221
 20
205.3484611288
 30
0.0
 40
3.500000000000038
100
AcDbArc
 50
180.0
 51
270.0
  0
LINE
  5
E14
330
1F
100
AcDbEntity
  8
0
  6
Continuous
 62
     7
370
    25
100
AcDbLine
 10
1656.5000992221
 20
201.8484611288
 30
0.0
 11
1661.0000992221
 21
201.8484611288
 31
0.0
  0
LINE
  5
E15
330
1F
100
AcDbEntity
  8
0
  6
Continuous
 62
     7
370
    25
100
AcDbLine
 10
1669.8000992221
 20
205.3484631495
 30
0.0
 11
1687.3000992221
 21
205.3484631495
 31
0.0
  0
LINE
  5
E16
330
1F
100
AcDbEntity
  8
0
  6
Continuous
 62
     7
370
    25
100
AcDbLine
 10
1687.3000992221
 20
205.3484631495
 30
0.0
 11
1687.3000992221
 21
201.8484628923
 31
0.0
  0
LINE
  5
E17
330
1F
100
AcDbEntity
  8
0
  6
Continuous
 62
     7
370
    25
100
AcDbLine
 10
1687.3000992221
 20
201.8484628923
 30
0.0
 11
1669.8000992221
 21
201.8484628923
 31
0.0
  0
LINE
  5
E18
330
1F
100
AcDbEntity
  8
0
  6
Continuous
 62
     7
370
    25
100
AcDbLine
 10
1669.8000992221
 20
201.8484628923
 30
0.0
 11
1669.8000992221
 21
205.3484631495
 31
0.0
  0
ARC
  5
E19
330
1F
100
AcDbEntity
  8
0
  6
Continuous
 62
     7
370
    25
100
AcDbCircle
 10
1687.3000992221
 20
205.3484628923
 30
0.0
 40
3.500000000000227
100
AcDbArc
 50
270.0
 51
0.0
  0
LWPOLYLINE
  5
E1A
330
1F
100
AcDbEntity
  8
0
  6
Continuous
 62
     7
370
    25
100
AcDbPolyline
 90
       10
 70
   128
 43
0.0
 10
1690.8000992221
 20
205.3484628923
 10
1690.7469263577
 20
205.348462937
 10
1690.5890233949
 20
205.3484629803
 10
1690.3311881354
 20
205.3484630209
 10
1689.981254773
 20
205.3484630576
 10
1689.549855856
 20
205.3484630893
 10
1689.0500992221
 20
205.348463115
 10
1688.4971697238
 20
205.348463134
 10
1687.907867844
 20
205.3484631456
 10
1687.3000992221
 20
205.3484631495
  0
LINE
  5
E1B
330
1F
100
AcDbEntity
  8
0
  6
Continuous
 62
     7
370
    25
100
AcDbLine
 10
1669.8000992221
 20
217.0984631495
 30
0.0
 11
1687.3000992221
 21
217.0984631495
 31
0.0
  0
LINE
  5
E1C
330
1F
100
AcDbEntity
  8
0
  6
Continuous
 62
     7
370
    25
100
AcDbLine
 10
1687.3000992221
 20
205.3484631495
 30
0.0
 11
1687.3000992221
 21
217.0984631495
 31
0.0
  0
CIRCLE
  5
E1D
330
1F
100
AcDbEntity
  8
0
  6
Continuous
 62
     7
370
    25
100
AcDbCircle
 10
1678.0500992221
 20
211.8484631495
 30
0.0
 40
2.999999999999773
  0
LINE
  5
E1E
330
1F
100
AcDbEntity
  8
0
  6
Continuous
 62
     7
370
    25
100
AcDbLine
 10
1669.8000992221
 20
217.0984631495
 30
0.0
 11
1669.8000992221
 21
205.3484631495
 31
0.0
  0
LINE
  5
E1F
330
1F
100
AcDbEntity
  8
0
  6
Continuous
 62
     7
370
    25
100
AcDbLine
 10
1690.8000992221
 20
217.0984628923
 30
0.0
 11
1690.8000992221
 21
205.3484628923
 31
0.0
  0
LWPOLYLINE
  5
E20
330
1F
100
AcDbEntity
  8
0
  6
Continuous
 62
     7
370
    25
100
AcDbPolyline
 90
       10
 70
   128
 43
0.0
 10
1687.3000992221
 20
217.0984631495
 10
1687.907867844
 20
217.0984631456
 10
1688.4971697238
 20
217.098463134
 10
1689.0500992221
 20
217.098463115
 10
1689.549855856
 20
217.0984630893
 10
1689.981254773
 20
217.0984630576
 10
1690.3311881354
 20
217.0984630209
 10
1690.5890233949
 20
217.0984629803
 10
1690.7469263577
 20
217.098462937
 10
1690.8000992221
 20
217.0984628923
  0
LINE
  5
E21
330
1F
100
AcDbEntity
  8
0
  6
Continuous
 62
     7
370
    25
100
AcDbLine
 10
1689.3000992221
 20
251.5984626572
 30
0.0
 11
1690.8000992221
 21
251.5984626572
 31
0.0
  0
LINE
  5
E22
330
1F
100
AcDbEntity
  8
0
  6
Continuous
 62
     7
370
    25
100
AcDbLine
 10
1689.3000992221
 20
251.5984628923
 30
0.0
 11
1689.3000992221
 21
251.5984626572
 31
0.0
  0
LWPOLYLINE
  5
E23
330
1F
100
AcDbEntity
  8
0
  6
Continuous
 62
     7
370
    25
100
AcDbPolyline
 90
        9
 70
   128
 43
0.0
 10
1687.3000992221
 20
251.5984630393
 10
1687.6902798662
 20
251.5984630365
 10
1688.0654660869
 20
251.5984630281
 10
1688.4112396882
 20
251.5984630145
 10
1688.7143127845
 20
251.5984629962
 10
1688.9630384467
 20
251.598462974
 10
1689.1478582872
 20
251.5984629486
 10
1689.2616697829
 20
251.598462921
 10
1689.3000992221
 20
251.5984628923
  0
LINE
  5
E24
330
1F
100
AcDbEntity
  8
0
  6
Continuous
 62
     7
370
    25
100
AcDbLine
 10
1687.3000992221
 20
251.5984630393
 30
0.0
 11
1669.8000992221
 21
251.5984630393
 31
0.0
  0
LINE
  5
E25
330
1F
100
AcDbEntity
  8
0
  6
Continuous
 62
     7
370
    25
100
AcDbLine
 10
1669.8000992221
 20
251.5984631495
 30
0.0
 11
1687.3000992221
 21
251.5984631495
 31
0.0
  0
LWPOLYLINE
  5
E26
330
1F
100
AcDbEntity
  8
0
  6
Continuous
 62
     7
370
    25
100
AcDbPolyline
 90
       10
 70
   128
 43
0.0
 10
1690.8000992221
 20
251.5984628923
 10
1690.7469263577
 20
251.598462937
 10
1690.5890233949
 20
251.5984629803
 10
1690.3311881354
 20
251.5984630209
 10
1689.981254773
 20
251.5984630576
 10
1689.549855856
 20
251.5984630893
 10
1689.0500992221
 20
251.598463115
 10
1688.4971697238
 20
251.598463134
 10
1687.907867844
 20
251.5984631456
 10
1687.3000992221
 20
251.5984631495
  0
LINE
  5
E27
330
1F
100
AcDbEntity
  8
0
  6
Continuous
 62
     7
370
    25
100
AcDbLine
 10
1690.8000992221
 20
251.5984626572
 30
0.0
 11
1690.8000992221
 21
251.5984628923
 31
0.0
  0
LINE
  5
E28
330
1F
100
AcDbEntity
  8
0
  6
Continuous
 62
     7
370
    25
100
AcDbLine
 10
1669.8000992221
 20
251.5984630393
 30
0.0
 11
1669.8000992221
 21
251.5984631495
 31
0.0
  0
LINE
  5
E29
330
1F
100
AcDbEntity
  8
0
  6
Continuous
 62
     7
370
    25
100
AcDbLine
 10
1687.3000992221
 20
263.3484631495
 30
0.0
 11
1669.8000992221
 21
263.3484631495
 31
0.0
  0
LINE
  5
E2A
330
1F
100
AcDbEntity
  8
0
  6
Continuous
 62
     7
370
    25
100
AcDbLine
 10
1687.3000992221
 20
251.5984631495
 30
0.0
 11
1687.3000992221
 21
263.3484631495
 31
0.0
  0
CIRCLE
  5
E2B
330
1F
100
AcDbEntity
  8
0
  6
Continuous
 62
     7
370
    25
100
AcDbCircle
 10
1678.0500992221
 20
256.8484631495
 30
0.0
 40
2.999999999999773
  0
LINE
  5
E2C
330
1F
100
AcDbEntity
  8
0
  6
Continuous
 62
     7
370
    25
100
AcDbLine
 10
1669.8000992221
 20
263.3484631495
 30
0.0
 11
1669.8000992221
 21
251.5984631495
 31
0.0
  0
LWPOLYLINE
  5
E2D
330
1F
100
AcDbEntity
  8
0
  6
Continuous
 62
     7
370
    25
100
AcDbPolyline
 90
       10
 70
   128
 43
0.0
 10
1687.3000992221
 20
263.3484631495
 10
1687.907867844
 20
263.3484631456
 10
1688.4971697238
 20
263.348463134
 10
1689.0500992221
 20
263.348463115
 10
1689.549855856
 20
263.3484630893
 10
1689.981254773
 20
263.3484630576
 10
1690.3311881354
 20
263.3484630209
 10
1690.5890233949
 20
263.3484629803
 10
1690.7469263577
 20
263.348462937
 10
1690.8000992221
 20
263.3484628923
  0
LINE
  5
E2E
330
1F
100
AcDbEntity
  8
0
  6
Continuous
 62
     7
370
    25
100
AcDbLine
 10
1690.8000992221
 20
263.3484628923
 30
0.0
 11
1690.8000992221
 21
251.5984628923
 31
0.0
  0
LINE
  5
E2F
330
1F
100
AcDbEntity
  8
0
  6
Continuous
 62
     7
370
    25
100
AcDbLine
 10
1669.8000992221
 20
266.8484628923
 30
0.0
 11
1687.3000992221
 21
266.8484628923
 31
0.0
  0
LINE
  5
E30
330
1F
100
AcDbEntity
  8
0
  6
Continuous
 62
     7
370
    25
100
AcDbLine
 10
1687.3000992221
 20
266.8484628923
 30
0.0
 11
1687.3000992221
 21
263.3484631495
 31
0.0
  0
LINE
  5
E31
330
1F
100
AcDbEntity
  8
0
  6
Continuous
 62
     7
370
    25
100
AcDbLine
 10
1669.8000992221
 20
263.3484631495
 30
0.0
 11
1669.8000992221
 21
266.8484628923
 31
0.0
  0
ARC
  5
E32
330
1F
100
AcDbEntity
  8
0
  6
Continuous
 62
     7
370
    25
100
AcDbCircle
 10
1687.3000992221
 20
263.3484628923
 30
0.0
 40
3.500000000000227
100
AcDbArc
 50
0.0
 51
90.0
  0
LINE
  5
E33
330
1F
100
AcDbEntity
  8
0
  6
Continuous
 62
     7
370
    25
100
AcDbLine
 10
1669.8000992221
 20
201.8484611288
 30
0.0
 11
1687.3000992221
 21
201.8484611288
 31
0.0
  0
LINE
  5
E34
330
1F
100
AcDbEntity
  8
0
  6
Continuous
 62
     7
370
    25
100
AcDbLine
 10
1687.3000992221
 20
201.8484611288
 30
0.0
 11
1687.3000992221
 21
201.8484628923
 31
0.0
  0
LINE
  5
E35
330
1F
100
AcDbEntity
  8
0
  6
Continuous
 62
     7
370
    25
100
AcDbLine
 10
1690.8000992221
 20
205.3484628923
 30
0.0
 11
1690.8000992221
 21
205.3484611288
 31
0.0
  0
ARC
  5
E36
330
1F
100
AcDbEntity
  8
0
  6
Continuous
 62
     7
370
    25
100
AcDbCircle
 10
1687.3000992221
 20
205.3484611288
 30
0.0
 40
3.500000000000227
100
AcDbArc
 50
270.0
 51
0.0
  0
LINE
  5
E37
330
1F
100
AcDbEntity
  8
0
  6
Continuous
 62
     7
370
    25
100
AcDbLine
 10
1690.8000992221
 20
217.0984626572
 30
0.0
 11
1690.8000992221
 21
217.8484615329
 31
0.0
  0
LINE
  5
E38
330
1F
100
AcDbEntity
  8
0
  6
Continuous
 62
     7
370
    25
100
AcDbLine
 10
1690.8000992221
 20
250.8484615329
 30
0.0
 11
1690.8000992221
 21
251.5984626572
 31
0.0
  0
LINE
  5
E39
330
1F
100
AcDbEntity
  8
0
  6
Continuous
 62
     7
370
    25
100
AcDbLine
 10
1689.3000992221
 20
251.5984626572
 30
0.0
 11
1689.3000992221
 21
251.3484615329
 31
0.0
  0
LINE
  5
E3A
330
1F
100
AcDbEntity
  8
0
  6
Continuous
 62
     7
370
    25
100
AcDbLine
 10
1689.3000992221
 20
217.3484615329
 30
0.0
 11
1689.3000992221
 21
217.0984626572
 31
0.0
  0
CIRCLE
  5
E3B
330
1F
100
AcDbEntity
  8
0
  6
Continuous
 62
     7
370
    25
100
AcDbCircle
 10
1657.5000992221
 20
211.8484643252
 30
0.0
 40
0.9418344129915113
  0
CIRCLE
  5
E3C
330
1F
100
AcDbEntity
  8
0
  6
Continuous
 62
     7
370
    25
100
AcDbCircle
 10
1657.5000992221
 20
211.8484642917
 30
0.0
 40
1.439931762037304
  0
CIRCLE
  5
E3D
330
1F
100
AcDbEntity
  8
0
  6
Continuous
 62
     7
370
    25
100
AcDbCircle
 10
1657.5000992221
 20
256.8484642917
 30
0.0
 40
1.439931762037304
  0
CIRCLE
  5
E3E
330
1F
100
AcDbEntity
  8
0
  6
Continuous
 62
     7
370
    25
100
AcDbCircle
 10
1657.5000992221
 20
256.8484643252
 30
0.0
 40
0.9418344129915113
  0
ARC
  5
E3F
330
1F
100
AcDbEntity
  8
0
  6
Continuous
 62
     7
370
    25
100
AcDbCircle
 10
1657.5000992221
 20
211.848464215
 30
0.0
 40
1.531232995288881
100
AcDbArc
 50
11.5921712219
 51
78.70149583269999
  0
SPLINE
  5
E40
330
1F
100
AcDbEntity
  8
0
  6
Continuous
 62
     7
370
    25
100
AcDbSpline
210
0.0
220
0.0
230
1.0
 70
     8
 71
     3
 72
    39
 73
    35
 74
     0
 42
0.000000001
 43
0.00000001
 40
0.0
 40
0.0
 40
0.0
 40
0.0
 40
0.0100797366238989
 40
0.0503989980210171
 40
0.0907182594123647
 40
0.1108777641479794
 40
0.1511970255184125
 40
0.1915162868680649
 40
0.211675791597659
 40
0.2519950529056583
 40
0.2721545576298153
 40
0.3124738188833424
 40
0.3326333236000087
 40
0.3729525847913819
 40
0.4132718459350536
 40
0.4334313506357531
 40
0.4737506116992005
 40
0.4939101163890837
 40
0.5342293773640601
 40
0.5543888820420785
 40
0.5947081429214949
 40
0.6350274037345294
 40
0.6551869083903932
 40
0.6955061690986107
 40
0.7156656737418263
 40
0.7559849343419782
 40
0.7761444389703567
 40
0.8164636994623276
 40
0.8366232040755917
 40
0.8769424644575072
 40
0.9172617247669964
 40
0.9374212293563285
 40
0.9687099890150874
 40
1.0
 40
1.0
 40
1.0
 40
1.0
 10
1659.031343531219
 20
211.8484639992525
 30
0.0
 10
1659.031342862991
 20
211.8495049074648
 30
0.0
 10
1659.031339521832
 20
211.8547094810456
 30
0.0
 10
1659.03128034241
 20
211.8640776599334
 30
0.0
 10
1659.031132226285
 20
211.8744858724397
 30
0.0
 10
1659.030919718839
 20
211.8848928764532
 30
0.0
 10
1659.030643620852
 20
211.8952984882688
 30
0.0
 10
1659.030282546421
 20
211.9057015006788
 30
0.0
 10
1659.029857807835
 20
211.9161019996009
 30
0.0
 10
1659.029467081067
 20
211.9244202474672
 30
0.0
 10
1659.028915037018
 20
211.9348147637803
 30
0.0
 10
1659.028422501189
 20
211.9431276043168
 30
0.0
 10
1659.027743245046
 20
211.9535145855641
 30
0.0
 10
1659.027000416273
 20
211.9638973217286
 30
0.0
 10
1659.02617288159
 20
211.9742736498926
 30
0.0
 10
1659.025281867955
 20
211.9846446118282
 30
0.0
 10
1659.024518287637
 20
211.9929369481601
 30
0.0
 10
1659.023500411258
 20
212.0032962254324
 30
0.0
 10
1659.022635405049
 20
212.0115785957477
 30
0.0
 10
1659.021490834339
 20
212.0219246436247
 30
0.0
 10
1659.020282973392
 20
212.0322636019043
 30
0.0
 10
1659.018990819234
 20
212.0425923638934
 30
0.0
 10
1659.017635522618
 20
212.0529129220658
 30
0.0
 10
1659.016500792073
 20
212.0611626663994
 30
0.0
 10
1659.015019351843
 20
212.0714658713457
 30
0.0
 10
1659.013783799874
 20
212.0797011202192
 30
0.0
 10
1659.01217645931
 20
212.0899854364905
 30
0.0
 10
1659.010840284749
 20
212.0982049582446
 30
0.0
 10
1659.009107316482
 20
212.108468856047
 30
0.0
 10
1659.007311521973
 20
212.1187220551786
 30
0.0
 10
1659.005432577002
 20
212.1289603492782
 30
0.0
 10
1659.00366415569
 20
212.1382704901701
 30
0.0
 10
1659.00202982969
 20
212.1466569889274
 30
0.0
 10
1659.00074277009
 20
212.1529898937184
 30
0.0
 10
1659.000099227422
 20
212.1561564094304
 30
0.0
  0
LINE
  5
E41
330
1F
100
AcDbEntity
  8
0
  6
Continuous
 62
     7
370
    25
100
AcDbLine
 10
1659.0000992221
 20
211.5407720216
 30
0.0
 11
1659.0313607209
 21
211.8484639993
 31
0.0
  0
ARC
  5
E42
330
1F
100
AcDbEntity
  8
0
  6
Continuous
 62
     7
370
    25
100
AcDbCircle
 10
1657.5000992221
 20
211.848464215
 30
0.0
 40
1.531232995288933
100
AcDbArc
 50
314.0794933771
 51
348.4078287801
  0
SPLINE
  5
E43
330
1F
100
AcDbEntity
  8
0
  6
Continuous
 62
     7
370
    25
100
AcDbSpline
210
0.0
220
0.0
230
1.0
 70
     8
 71
     3
 72
     9
 73
     5
 74
     0
 42
0.000000001
 43
0.00000001
 40
0.0
 40
0.0
 40
0.0
 40
0.0
 40
0.5891755335430494
 40
0.9999999999999999
 40
0.9999999999999999
 40
0.9999999999999999
 40
0.9999999999999999
 10
1657.800099222129
 20
210.3458731350927
 30
0.0
 10
1657.96717950563
 20
210.3948825244323
 30
0.0
 10
1658.250762706203
 20
210.4780655260155
 30
0.0
 10
1658.473715687759
 20
210.6697255768491
 30
0.0
 10
1658.565310227452
 20
210.7484642149739
 30
0.0
  0
SPLINE
  5
E44
330
1F
100
AcDbEntity
  8
0
  6
Continuous
 62
     7
370
    25
100
AcDbSpline
210
0.0
220
0.0
230
1.0
 70
     8
 71
     3
 72
    17
 73
    13
 74
     0
 42
0.000000001
 43
0.00000001
 40
0.0
 40
0.0
 40
0.0
 40
0.0
 40
0.089451701335359
 40
0.1794681711040527
 40
0.2713376436448141
 40
0.3638865324643318
 40
0.4533545520045443
 40
0.5435301342525708
 40
0.6360664106279532
 40
0.7294739483013852
 40
0.8632901880233842
 40
0.9999999999999999
 40
0.9999999999999999
 40
0.9999999999999999
 40
0.9999999999999999
 10
1656.391143442703
 20
210.7484641891493
 30
0.0
 10
1656.423642696444
 20
210.7192776851398
 30
0.0
 10
1656.488846393457
 20
210.6607204031955
 30
0.0
 10
1656.597063743103
 20
210.5823425877081
 30
0.0
 10
1656.713158294036
 20
210.5114632959412
 30
0.0
 10
1656.835882084973
 20
210.4506002771298
 30
0.0
 10
1656.963665388156
 20
210.4002917466384
 30
0.0
 10
1657.09642434199
 20
210.3607419206912
 30
0.0
 10
1657.235272983386
 20
210.332220602758
 30
0.0
 10
1657.399488097446
 20
210.3139417426101
 30
0.0
 10
1657.589632432373
 20
210.3120698912706
 30
0.0
 10
1657.729445142218
 20
210.3345253253359
 30
0.0
 10
1657.800099222129
 20
210.3458731350927
 30
0.0
  0
SPLINE
  5
E45
330
1F
100
AcDbEntity
  8
0
  6
Continuous
 62
     7
370
    25
100
AcDbSpline
210
0.0
220
0.0
230
1.0
 70
     8
 71
     3
 72
    13
 73
     9
 74
     0
 42
0.000000001
 43
0.00000001
 40
0.0
 40
0.0
 40
0.0
 40
0.0
 40
0.2365197247466415
 40
0.3881776114616085
 40
0.5444278509126336
 40
0.6913710861668996
 40
0.8438962112438996
 40
1.0
 40
1.0
 40
1.0
 40
1.0
 10
1656.174183778879
 20
212.6855460915318
 30
0.0
 10
1656.261871879467
 20
212.7991248373519
 30
0.0
 10
1656.405786123728
 20
212.9855309661113
 30
0.0
 10
1656.679618652768
 20
213.17230188608
 30
0.0
 10
1656.933202745513
 20
213.2921958567591
 30
0.0
 10
1657.21062246881
 20
213.3651985752884
 30
0.0
 10
1657.502566264651
 20
213.3927005963002
 30
0.0
 10
1657.700157854363
 20
213.3643574607151
 30
0.0
 10
1657.800099222129
 20
213.3500215684777
 30
0.0
  0
ARC
  5
E46
330
1F
100
AcDbEntity
  8
0
  6
Continuous
 62
     7
370
    25
100
AcDbCircle
 10
1657.5000992221
 20
256.848464215
 30
0.0
 40
1.531232995289076
100
AcDbArc
 50
281.2985041673
 51
348.4078287781
  0
SPLINE
  5
E47
330
1F
100
AcDbEntity
  8
0
  6
Continuous
 62
     7
370
    25
100
AcDbSpline
210
0.0
220
0.0
230
1.0
 70
     8
 71
     3
 72
    13
 73
     9
 74
     0
 42
0.000000001
 43
0.00000001
 40
0.0
 40
0.0
 40
0.0
 40
0.0
 40
0.197229372130027
 40
0.3941208093466791
 40
0.6026140512209587
 40
0.7189666378360932
 40
0.8385335538452883
 40
1.0
 40
1.0
 40
1.0
 40
1.0
 10
1657.800099222129
 20
255.3469068614702
 30
0.0
 10
1657.63742891692
 20
255.3293291180636
 30
0.0
 10
1657.312367027541
 20
255.2942037491439
 30
0.0
 10
1656.83762738977
 20
255.4281086825204
 30
0.0
 10
1656.490162170313
 20
255.6424782823922
 30
0.0
 10
1656.252105265524
 20
255.8869399693762
 30
0.0
 10
1656.072202054408
 20
256.1379260700675
 30
0.0
 10
1656.003928588543
 20
256.3542318140184
 30
0.0
 10
1655.964702377765
 20
256.4785093001136
 30
0.0
  0
SPLINE
  5
E48
330
1F
100
AcDbEntity
  8
0
  6
Continuous
 62
     7
370
    25
100
AcDbSpline
210
0.0
220
0.0
230
1.0
 70
     8
 71
     3
 72
    16
 73
    12
 74
     0
 42
0.000000001
 43
0.00000001
 40
0.0
 40
0.0
 40
0.0
 40
0.0
 40
0.1560713385646037
 40
0.2362158591280695
 40
0.3169593234798934
 40
0.4729877712486755
 40
0.63315831431463
 40
0.723234181504482
 40
0.813964863651558
 40
0.9066627338710702
 40
1.0
 40
1.0
 40
1.0
 40
1.0
 10
1657.800099222129
 20
258.3510552931526
 30
0.0
 10
1657.719350307334
 20
258.3637133433925
 30
0.0
 10
1657.597135847861
 20
258.3828714555724
 30
0.0
 10
1657.431998287775
 20
258.3828310130868
 30
0.0
 10
1657.268279710237
 20
258.3711191508383
 30
0.0
 10
1657.067267949573
 20
258.3328007928845
 30
0.0
 10
1656.872734397135
 20
258.2641303220806
 30
0.0
 10
1656.719669490133
 20
258.1889438042359
 30
0.0
 10
1656.603538252384
 20
258.1189264967494
 30
0.0
 10
1656.492724992376
 20
258.0395076400479
 30
0.0
 10
1656.425081455376
 20
257.9788814627615
 30
0.0
 10
1656.391143442703
 20
257.9484641891495
 30
0.0
  0
SPLINE
  5
E49
330
1F
100
AcDbEntity
  8
0
  6
Continuous
 62
     7
370
    25
100
AcDbSpline
210
0.0
220
0.0
230
1.0
 70
     8
 71
     3
 72
     9
 73
     5
 74
     0
 42
0.000000001
 43
0.00000001
 40
0.0
 40
0.0
 40
0.0
 40
0.0
 40
0.5901254919953014
 40
1.0
 40
1.0
 40
1.0
 40
1.0
 10
1658.565310227452
 20
257.948464214974
 30
0.0
 10
1658.430044339849
 20
258.0585912597472
 30
0.0
 10
1658.200828877312
 20
258.2452075748649
 30
0.0
 10
1657.916598151167
 20
258.320283560484
 30
0.0
 10
1657.800099222129
 20
258.3510552931526
 30
0.0
  0
ARC
  5
E4A
330
1F
100
AcDbEntity
  8
0
  6
Continuous
 62
     7
370
    25
100
AcDbCircle
 10
1657.5000992221
 20
256.848464215
 30
0.0
 40
1.531232995288798
100
AcDbArc
 50
11.5921712198
 51
45.92050662289999
  0
LINE
  5
E4B
330
1F
100
AcDbEntity
  8
0
  6
Continuous
 62
     7
370
    25
100
AcDbLine
 10
1659.0313607209
 20
256.8484639993
 30
0.0
 11
1659.0000992221
 21
257.1561564083
 31
0.0
  0
SPLINE
  5
E4C
330
1F
100
AcDbEntity
  8
0
  6
Continuous
 62
     7
370
    25
100
AcDbSpline
210
0.0
220
0.0
230
1.0
 70
     8
 71
     3
 72
    40
 73
    36
 74
     0
 42
0.000000001
 43
0.00000001
 40
0.0
 40
0.0
 40
0.0
 40
0.0
 40
0.0100797501082689
 40
0.0302392817033768
 40
0.0705585959096102
 40
0.1108779101864614
 40
0.1310374418013397
 40
0.1713567561864504
 40
0.1915162878139544
 40
0.2318356023081933
 40
0.2519951339491355
 40
0.2923144485529134
 40
0.3124739802068177
 40
0.3527932949190628
 40
0.3931126097015436
 40
0.4132721413759879
 40
0.4535914562602391
 40
0.4737509879466932
 40
0.5140703029271229
 40
0.5342298346248662
 40
0.5745491496945251
 40
0.6148684648191527
 40
0.6350279965337012
 40
0.6753473117332314
 40
0.6955068434563557
 40
0.735826158721891
 40
0.7761454740240453
 40
0.7963050057585392
 40
0.8366243211068922
 40
0.8567838528457042
 40
0.8971031682272352
 40
0.9172626999705639
 40
0.9586298534053737
 40
0.979314745279618
 40
1.0
 40
1.0
 40
1.0
 40
1.0
 10
1659.000099227423
 20
256.5407720205172
 30
0.0
 10
1659.000307763991
 20
256.5417918260482
 30
0.0
 10
1659.000933374343
 20
256.5448512458159
 30
0.0
 10
1659.002367449416
 20
256.5519951447453
 30
0.0
 10
1659.004355775131
 20
256.562212746418
 30
0.0
 10
1659.006260031307
 20
256.5724463630364
 30
0.0
 10
1659.008101870959
 20
256.5826912831132
 30
0.0
 10
1659.009525199995
 20
256.5908961625716
 30
0.0
 10
1659.011241620502
 20
256.6011628373219
 30
0.0
 10
1659.012564526994
 20
256.6093845059826
 30
0.0
 10
1659.01415527165
 20
256.6196714022257
 30
0.0
 10
1659.015377532097
 20
256.6279086333811
 30
0.0
 10
1659.016842342731
 20
256.6382142184363
 30
0.0
 10
1659.018244110453
 20
256.6485286760412
 30
0.0
 10
1659.019561709402
 20
256.6588542229792
 30
0.0
 10
1659.020816105141
 20
256.6691875302743
 30
0.0
 10
1659.021769039352
 20
256.6774602449912
 30
0.0
 10
1659.022896903907
 20
256.6878081248094
 30
0.0
 10
1659.023748535665
 20
256.6960918810461
 30
0.0
 10
1659.024749682867
 20
256.7064527910614
 30
0.0
 10
1659.025687418272
 20
256.7168197407913
 30
0.0
 10
1659.026540528684
 20
256.7271939973645
 30
0.0
 10
1659.027330120677
 20
256.7375731741181
 30
0.0
 10
1659.027910966741
 20
256.7458803100258
 30
0.0
 10
1659.028573443956
 20
256.7562683751477
 30
0.0
 10
1659.029172328
 20
256.7666604081725
 30
0.0
 10
1659.029686371487
 20
256.777056983507
 30
0.0
 10
1659.030136756009
 20
256.7874564034762
 30
0.0
 10
1659.030446124691
 20
256.7957780744597
 30
0.0
 10
1659.030769155162
 20
256.8061822268833
 30
0.0
 10
1659.030976562882
 20
256.8145070631643
 30
0.0
 10
1659.031174346459
 20
256.8250225794175
 30
0.0
 10
1659.031280222264
 20
256.8335117964463
 30
0.0
 10
1659.031335757728
 20
256.8420557014923
 30
0.0
 10
1659.03134094004
 20
256.8463278875089
 30
0.0
 10
1659.031343531219
 20
256.8484639992523
 30
0.0
  0
SPLINE
  5
E4D
330
1F
100
AcDbEntity
  8
0
  6
Continuous
 62
     7
370
    25
100
AcDbSpline
210
0.0
220
0.0
230
1.0
 70
     8
 71
     3
 72
    28
 73
    24
 74
     0
 42
0.000000001
 43
0.00000001
 40
0.0
 40
0.0
 40
0.0
 40
0.0
 40
0.0100751915769853
 40
0.0302255956663064
 40
0.070526579020649
 40
0.1108275753170893
 40
0.1309779834452253
 40
0.1712789984559356
 40
0.1914294088590903
 40
0.2317304416563387
 40
0.2518808542119585
 40
0.292181903786414
 40
0.3123323183632347
 40
0.352633383629161
 40
0.3929344587202775
 40
0.413084876352601
 40
0.4533859651896006
 40
0.4735363844542383
 40
0.5138374857957778
 40
0.5339879065353762
 40
0.6145923077812857
 40
0.9371950606929663
 40
1.0
 40
1.0
 40
1.0
 40
1.0
 10
1659.000098787026
 20
212.1561563192015
 30
0.0
 10
1659.000307195311
 20
212.1551364877605
 30
0.0
 10
1659.000932420597
 20
212.1520769913184
 30
0.0
 10
1659.002370516739
 20
212.1449339214163
 30
0.0
 10
1659.004375319214
 20
212.1347195987746
 30
0.0
 10
1659.006309126323
 20
212.1244915828308
 30
0.0
 10
1659.008188817801
 20
212.1142535657384
 30
0.0
 10
1659.009648577273
 20
212.1060551271529
 30
0.0
 10
1659.011416956832
 20
212.0957972975844
 30
0.0
 10
1659.012786084869
 20
212.0875832315469
 30
0.0
 10
1659.01443926777
 20
212.0773062063998
 30
0.0
 10
1659.015714763635
 20
212.0690770766045
 30
0.0
 10
1659.017249164986
 20
212.0587816427828
 30
0.0
 10
1659.01872306425
 20
212.0484772707288
 30
0.0
 10
1659.020114890945
 20
212.0381614881009
 30
0.0
 10
1659.021444187174
 20
212.0278375645518
 30
0.0
 10
1659.02245723235
 20
212.0195720072081
 30
0.0
 10
1659.023659678837
 20
212.0092325374551
 30
0.0
 10
1659.024570158496
 20
212.0009550649982
 30
0.0
 10
1659.026072709389
 20
211.9864596069622
 30
0.0
 10
1659.030116660925
 20
211.9429088328576
 30
0.0
 10
1659.032590651844
 20
211.8947698089429
 30
0.0
 10
1659.032765425328
 20
211.8549525116475
 30
0.0
 10
1659.032793905918
 20
211.8484639983394
 30
0.0
  0
SPLINE
  5
E4E
330
1F
100
AcDbEntity
  8
0
  6
Continuous
 62
     7
370
    25
100
AcDbSpline
210
0.0
220
0.0
230
1.0
 70
     8
 71
     3
 72
    26
 73
    22
 74
     0
 42
0.000000001
 43
0.00000001
 40
0.0
 40
0.0
 40
0.0
 40
0.0
 40
0.0100747712199636
 40
0.0503742313382395
 40
0.2115959459077802
 40
0.3728168785875189
 40
0.5340364026843497
 40
0.5541859754879456
 40
0.5944853726832469
 40
0.6347847609343541
 40
0.6549343309296818
 40
0.6952337047621602
 40
0.7153832728731542
 40
0.7556826311359033
 40
0.775832197223102
 40
0.8161315388273447
 40
0.836281102758573
 40
0.8765804266873365
 40
0.9168797383070401
 40
0.9370292983808877
 40
1.0
 40
1.0
 40
1.0
 40
1.0
 10
1659.032793905917
 20
256.8484639983392
 30
0.0
 10
1659.03279317114
 20
256.8474230894373
 30
0.0
 10
1659.032789497229
 20
256.8422185061585
 30
0.0
 10
1659.032639575908
 20
256.8203571168825
 30
0.0
 10
1659.031556776942
 20
256.7828858909554
 30
0.0
 10
1659.028345663462
 20
256.7330085634852
 30
0.0
 10
1659.024857550151
 20
256.6977772081711
 30
0.0
 10
1659.022176738366
 20
256.6750322995935
 30
0.0
 10
1659.020894616359
 20
256.664702288816
 30
0.0
 10
1659.019528730383
 20
256.6543830404942
 30
0.0
 10
1659.018100991865
 20
256.6440722708117
 30
0.0
 10
1659.016909709479
 20
256.6358305237259
 30
0.0
 10
1659.015360307776
 20
256.6255373388273
 30
0.0
 10
1659.014072980772
 20
256.6173100508879
 30
0.0
 10
1659.012405227417
 20
256.6070353796798
 30
0.0
 10
1659.011024642796
 20
256.5988232317903
 30
0.0
 10
1659.009242121123
 20
256.5885678488381
 30
0.0
 10
1659.007403852748
 20
256.5783222181869
 30
0.0
 10
1659.005491335809
 20
256.5680902175101
 30
0.0
 10
1659.003087556188
 20
256.5555672786323
 30
0.0
 10
1659.001387058937
 20
256.5471493847582
 30
0.0
 10
1659.000098786946
 20
256.5407721107625
 30
0.0
  0
LINE
  5
E4F
330
1F
100
AcDbEntity
  8
0
  6
Continuous
 62
     7
370
    25
100
AcDbLine
 10
1666.3000992221
 20
214.1984615329
 30
0.0
 11
1666.3000992221
 21
222.4984615329
 31
0.0
  0
LINE
  5
E50
330
1F
100
AcDbEntity
  8
0
  6
Continuous
 62
     7
370
    25
100
AcDbLine
 10
1666.3000992221
 20
246.1984615329
 30
0.0
 11
1666.3000992221
 21
254.4984615329
 31
0.0
  0
LINE
  5
E51
330
1F
100
AcDbEntity
  8
0
  6
Continuous
 62
     7
370
    25
100
AcDbLine
 10
1670.0000992221
 20
217.8484615329
 30
0.0
 11
1670.0000992221
 21
250.8484615329
 31
0.0
  0
LINE
  5
E52
330
1F
100
AcDbEntity
  8
0
  6
Continuous
 62
     7
370
    25
100
AcDbLine
 10
1669.5000992221
 20
217.8484615329
 30
0.0
 11
1670.0000992221
 21
217.8484615329
 31
0.0
  0
LINE
  5
E53
330
1F
100
AcDbEntity
  8
0
  6
Continuous
 62
     7
370
    25
100
AcDbLine
 10
1669.5000992221
 20
217.8484615329
 30
0.0
 11
1669.5000992221
 21
250.8484615329
 31
0.0
  0
LINE
  5
E54
330
1F
100
AcDbEntity
  8
0
  6
Continuous
 62
     7
370
    25
100
AcDbLine
 10
1670.0000992221
 20
250.8484615329
 30
0.0
 11
1669.5000992221
 21
250.8484615329
 31
0.0
  0
LINE
  5
E55
330
1F
100
AcDbEntity
  8
0
  6
Continuous
 62
     7
370
    25
100
AcDbLine
 10
1688.5929924409
 20
250.8484615329
 30
0.0
 11
1670.0000992221
 21
250.8484615329
 31
0.0
  0
LINE
  5
E56
330
1F
100
AcDbEntity
  8
0
  6
Continuous
 62
     7
370
    25
100
AcDbLine
 10
1688.5929924409
 20
217.8484615329
 30
0.0
 11
1688.5929924409
 21
250.8484615329
 31
0.0
  0
LINE
  5
E57
330
1F
100
AcDbEntity
  8
0
  6
Continuous
 62
     7
370
    25
100
AcDbLine
 10
1670.0000992221
 20
217.8484615329
 30
0.0
 11
1688.5929924409
 21
217.8484615329
 31
0.0
  0
LINE
  5
E58
330
1F
100
AcDbEntity
  8
0
  6
Continuous
 62
     7
370
    25
100
AcDbLine
 10
1671.0000992221
 20
248.5984615329
 30
0.0
 11
1671.0000992221
 21
220.0984615329
 31
0.0
  0
SPLINE
  5
E59
330
1F
100
AcDbEntity
  8
0
  6
Continuous
 62
     7
370
    25
100
AcDbSpline
210
0.0
220
0.0
230
1.0
 70
     8
 71
     3
 72
    11
 73
     7
 74
     0
 42
0.000000001
 43
0.00000001
 40
0.0
 40
0.0
 40
0.0
 40
0.0
 40
0.2499999999999869
 40
0.5000000000000229
 40
0.7500000000000082
 40
1.0
 40
1.0
 40
1.0
 40
1.0
 10
1672.500099222129
 20
218.5984615329116
 30
0.0
 10
1672.30354365642
 20
218.6210088920927
 30
0.0
 10
1671.910432525001
 20
218.6661036104547
 30
0.0
 10
1671.414615119355
 20
219.0129774301384
 30
0.0
 10
1671.067741299672
 20
219.5087948357837
 30
0.0
 10
1671.02264658131
 20
219.9019059672024
 30
0.0
 10
1671.000099222129
 20
220.0984615329118
 30
0.0
  0
LINE
  5
E5A
330
1F
100
AcDbEntity
  8
0
  6
Continuous
 62
     7
370
    25
100
AcDbLine
 10
1672.5000992221
 20
218.5984615329
 30
0.0
 11
1683.0000992221
 21
218.5984615329
 31
0.0
  0
ARC
  5
E5B
330
1F
100
AcDbEntity
  8
0
  6
Continuous
 62
     7
370
    25
100
AcDbCircle
 10
1683.0000992221
 20
219.5984615329
 30
0.0
 40
1.000000000000227
100
AcDbArc
 50
270.0
 51
0.0
  0
LINE
  5
E5C
330
1F
100
AcDbEntity
  8
0
  6
Continuous
 62
     7
370
    25
100
AcDbLine
 10
1684.0000992221
 20
249.0984615329
 30
0.0
 11
1684.0000992221
 21
219.5984615329
 31
0.0
  0
ARC
  5
E5D
330
1F
100
AcDbEntity
  8
0
  6
Continuous
 62
     7
370
    25
100
AcDbCircle
 10
1683.0000992221
 20
249.0984615329
 30
0.0
 40
1.000000000000227
100
AcDbArc
 50
0.0
 51
90.0
  0
LINE
  5
E5E
330
1F
100
AcDbEntity
  8
0
  6
Continuous
 62
     7
370
    25
100
AcDbLine
 10
1672.5000992221
 20
250.0984615329
 30
0.0
 11
1683.0000992221
 21
250.0984615329
 31
0.0
  0
SPLINE
  5
E5F
330
1F
100
AcDbEntity
  8
0
  6
Continuous
 62
     7
370
    25
100
AcDbSpline
210
0.0
220
0.0
230
1.0
 70
     8
 71
     3
 72
    11
 73
     7
 74
     0
 42
0.000000001
 43
0.00000001
 40
0.0
 40
0.0
 40
0.0
 40
0.0
 40
0.2499999999999922
 40
0.4999999999999797
 40
0.750000000000013
 40
1.0
 40
1.0
 40
1.0
 40
1.0
 10
1671.000099222129
 20
248.5984615329117
 30
0.0
 10
1671.02264658131
 20
248.795017098621
 30
0.0
 10
1671.067741299672
 20
249.1881282300398
 30
0.0
 10
1671.414615119355
 20
249.6839456356851
 30
0.0
 10
1671.910432525001
 20
250.0308194553688
 30
0.0
 10
1672.30354365642
 20
250.0759141737308
 30
0.0
 10
1672.500099222129
 20
250.0984615329118
 30
0.0
  0
ARC
  5
E60
330
1F
100
AcDbEntity
  8
0
  6
Continuous
 62
     7
370
    25
100
AcDbCircle
 10
1670.0000992221
 20
250.8484615329
 30
0.0
 40
0.5000000000002274
100
AcDbArc
 50
90.0
 51
180.0
  0
LINE
  5
E61
330
1F
100
AcDbEntity
  8
0
  6
Continuous
 62
     7
370
    25
100
AcDbLine
 10
1670.0000992221
 20
250.8484615329
 30
0.0
 11
1670.0000992221
 21
251.3484615329
 31
0.0
  0
LINE
  5
E62
330
1F
100
AcDbEntity
  8
0
  6
Continuous
 62
     7
370
    25
100
AcDbLine
 10
1688.5929924409
 20
250.8484615329
 30
0.0
 11
1688.5929924409
 21
251.3484615329
 31
0.0
  0
LINE
  5
E63
330
1F
100
AcDbEntity
  8
0
  6
Continuous
 62
     7
370
    25
100
AcDbLine
 10
1688.5929924409
 20
251.3484615329
 30
0.0
 11
1670.0000992221
 21
251.3484615329
 31
0.0
  0
ARC
  5
E64
330
1F
100
AcDbEntity
  8
0
  6
Continuous
 62
     7
370
    25
100
AcDbCircle
 10
1670.0000992221
 20
217.8484615329
 30
0.0
 40
0.5000000000002274
100
AcDbArc
 50
180.0
 51
270.0
  0
LINE
  5
E65
330
1F
100
AcDbEntity
  8
0
  6
Continuous
 62
     7
370
    25
100
AcDbLine
 10
1670.0000992221
 20
217.3484615329
 30
0.0
 11
1670.0000992221
 21
217.8484615329
 31
0.0
  0
LINE
  5
E66
330
1F
100
AcDbEntity
  8
0
  6
Continuous
 62
     7
370
    25
100
AcDbLine
 10
1688.5929924409
 20
217.3484615329
 30
0.0
 11
1688.5929924409
 21
217.8484615329
 31
0.0
  0
LINE
  5
E67
330
1F
100
AcDbEntity
  8
0
  6
Continuous
 62
     7
370
    25
100
AcDbLine
 10
1670.0000992221
 20
217.3484615329
 30
0.0
 11
1688.5929924409
 21
217.3484615329
 31
0.0
  0
LINE
  5
E68
330
1F
100
AcDbEntity
  8
0
  6
Continuous
 62
     7
370
    25
100
AcDbLine
 10
1688.9465458315
 20
250.8484615329
 30
0.0
 11
1688.5929924409
 21
250.8484615329
 31
0.0
  0
LINE
  5
E69
330
1F
100
AcDbEntity
  8
0
  6
Continuous
 62
     7
370
    25
100
AcDbLine
 10
1688.9465458315
 20
217.8484615329
 30
0.0
 11
1688.9465458315
 21
250.8484615329
 31
0.0
  0
LINE
  5
E6A
330
1F
100
AcDbEntity
  8
0
  6
Continuous
 62
     7
370
    25
100
AcDbLine
 10
1688.5929924409
 20
217.8484615329
 30
0.0
 11
1688.9465458315
 21
217.8484615329
 31
0.0
  0
ARC
  5
E6B
330
1F
100
AcDbEntity
  8
0
  6
Continuous
 62
     7
370
    25
100
AcDbCircle
 10
1688.5046040933
 20
217.7859615329
 30
0.0
 40
0.4463392767844125
100
AcDbArc
 50
281.421753659
 51
8.0494669755
  0
ARC
  5
E6C
330
1F
100
AcDbEntity
  8
0
  6
Continuous
 62
     7
370
    25
100
AcDbCircle
 10
1688.5046040933
 20
250.9109615329
 30
0.0
 40
0.4463392767838127
100
AcDbArc
 50
351.9505330244
 51
78.578246341
  0
ARC
  5
E6D
330
1F
100
AcDbEntity
  8
0
  6
Continuous
 62
     7
370
    25
100
AcDbCircle
 10
1672.5000992221
 20
220.0984615329
 30
0.0
 40
1.000000000000227
100
AcDbArc
 50
180.0
 51
270.0
  0
LINE
  5
E6E
330
1F
100
AcDbEntity
  8
0
  6
Continuous
 62
     7
370
    25
100
AcDbLine
 10
1672.5000992221
 20
218.5984615329
 30
0.0
 11
1672.5000992221
 21
219.0984615329
 31
0.0
  0
LINE
  5
E6F
330
1F
100
AcDbEntity
  8
0
  6
Continuous
 62
     7
370
    25
100
AcDbLine
 10
1671.5000992221
 20
220.0984615329
 30
0.0
 11
1671.0000992221
 21
220.0984615329
 31
0.0
  0
LINE
  5
E70
330
1F
100
AcDbEntity
  8
0
  6
Continuous
 62
     7
370
    25
100
AcDbLine
 10
1671.5000992221
 20
248.5984615329
 30
0.0
 11
1671.5000992221
 21
220.0984615329
 31
0.0
  0
LINE
  5
E71
330
1F
100
AcDbEntity
  8
0
  6
Continuous
 62
     7
370
    25
100
AcDbLine
 10
1671.0000992221
 20
248.5984615329
 30
0.0
 11
1671.5000992221
 21
248.5984615329
 31
0.0
  0
LINE
  5
E72
330
1F
100
AcDbEntity
  8
0
  6
Continuous
 62
     7
370
    25
100
AcDbLine
 10
1672.5000992221
 20
219.0984615329
 30
0.0
 11
1683.0000992221
 21
219.0984615329
 31
0.0
  0
LINE
  5
E73
330
1F
100
AcDbEntity
  8
0
  6
Continuous
 62
     7
370
    25
100
AcDbLine
 10
1683.0000992221
 20
218.5984615329
 30
0.0
 11
1683.0000992221
 21
219.0984615329
 31
0.0
  0
ARC
  5
E74
330
1F
100
AcDbEntity
  8
0
  6
Continuous
 62
     7
370
    25
100
AcDbCircle
 10
1672.5000992221
 20
248.5984615329
 30
0.0
 40
1.000000000000227
100
AcDbArc
 50
90.0
 51
180.0
  0
LINE
  5
E75
330
1F
100
AcDbEntity
  8
0
  6
Continuous
 62
     7
370
    25
100
AcDbLine
 10
1672.5000992221
 20
250.0984615329
 30
0.0
 11
1672.5000992221
 21
249.5984615329
 31
0.0
  0
LINE
  5
E76
330
1F
100
AcDbEntity
  8
0
  6
Continuous
 62
     7
370
    25
100
AcDbLine
 10
1683.0000992221
 20
249.5984615329
 30
0.0
 11
1672.5000992221
 21
249.5984615329
 31
0.0
  0
LINE
  5
E77
330
1F
100
AcDbEntity
  8
0
  6
Continuous
 62
     7
370
    25
100
AcDbLine
 10
1683.0000992221
 20
249.5984615329
 30
0.0
 11
1683.0000992221
 21
250.0984615329
 31
0.0
  0
ARC
  5
E78
330
1F
100
AcDbEntity
  8
0
  6
Continuous
 62
     7
370
    25
100
AcDbCircle
 10
1683.0000992221
 20
219.5984615329
 30
0.0
 40
0.5
100
AcDbArc
 50
270.0
 51
0.0
  0
LINE
  5
E79
330
1F
100
AcDbEntity
  8
0
  6
Continuous
 62
     7
370
    25
100
AcDbLine
 10
1684.0000992221
 20
219.5984615329
 30
0.0
 11
1683.5000992221
 21
219.5984615329
 31
0.0
  0
SPLINE
  5
E7A
330
1F
100
AcDbEntity
  8
0
  6
Continuous
 62
     7
370
    25
100
AcDbSpline
210
0.0
220
0.0
230
1.0
 70
     8
 71
     3
 72
     9
 73
     5
 74
     0
 42
0.000000001
 43
0.00000001
 40
0.0
 40
0.0
 40
0.0
 40
0.0
 40
0.5611412521132871
 40
1.0
 40
1.0
 40
1.0
 40
1.0
 10
1683.54167568892
 20
233.0240110184921
 30
0.0
 10
1683.528269287921
 20
233.0281676137088
 30
0.0
 10
1683.504377975444
 20
233.0355750092641
 30
0.0
 10
1683.5014042622
 20
233.0194441072875
 30
0.0
 10
1683.500099222129
 20
233.0123649198437
 30
0.0
  0
LINE
  5
E7B
330
1F
100
AcDbEntity
  8
0
  6
Continuous
 62
     7
370
    25
100
AcDbLine
 10
1683.5416756889
 20
235.6729120473
 30
0.0
 11
1683.5416756889
 21
233.0240110185
 31
0.0
  0
SPLINE
  5
E7C
330
1F
100
AcDbEntity
  8
0
  6
Continuous
 62
     7
370
    25
100
AcDbSpline
210
0.0
220
0.0
230
1.0
 70
     8
 71
     3
 72
     9
 73
     5
 74
     0
 42
0.000000001
 43
0.00000001
 40
0.0
 40
0.0
 40
0.0
 40
0.0
 40
0.5611412521125727
 40
1.0
 40
1.0
 40
1.0
 40
1.0
 10
1683.54167568892
 20
235.6729120473315
 30
0.0
 10
1683.528269287921
 20
235.6687554521147
 30
0.0
 10
1683.504377975444
 20
235.6613480565593
 30
0.0
 10
1683.5014042622
 20
235.677478958536
 30
0.0
 10
1683.500099222129
 20
235.6845581459797
 30
0.0
  0
LINE
  5
E7D
330
1F
100
AcDbEntity
  8
0
  6
Continuous
 62
     7
370
    25
100
AcDbLine
 10
1683.5000992221
 20
249.0984615329
 30
0.0
 11
1683.5000992221
 21
235.684558146
 31
0.0
  0
LINE
  5
E7E
330
1F
100
AcDbEntity
  8
0
  6
Continuous
 62
     7
370
    25
100
AcDbLine
 10
1684.0000992221
 20
249.0984615329
 30
0.0
 11
1683.5000992221
 21
249.0984615329
 31
0.0
  0
LINE
  5
E7F
330
1F
100
AcDbEntity
  8
0
  6
Continuous
 62
     7
370
    25
100
AcDbLine
 10
1683.5000992221
 20
219.5984615329
 30
0.0
 11
1683.5000992221
 21
233.0123649198
 31
0.0
  0
ARC
  5
E80
330
1F
100
AcDbEntity
  8
0
  6
Continuous
 62
     7
370
    25
100
AcDbCircle
 10
1683.0000992221
 20
249.0984615329
 30
0.0
 40
0.5
100
AcDbArc
 50
360.0
 51
90.0
  0
LINE
  5
E81
330
1F
100
AcDbEntity
  8
0
  6
Continuous
 62
     7
370
    25
100
AcDbLine
 10
1690.3000992221
 20
217.3484615329
 30
0.0
 11
1688.5929924409
 21
217.3484615329
 31
0.0
  0
LINE
  5
E82
330
1F
100
AcDbEntity
  8
0
  6
Continuous
 62
     7
370
    25
100
AcDbLine
 10
1688.9465458315
 20
217.8484615329
 30
0.0
 11
1690.6536526127
 21
217.8484615329
 31
0.0
  0
ARC
  5
E83
330
1F
100
AcDbEntity
  8
0
  6
Continuous
 62
     7
370
    25
100
AcDbCircle
 10
1690.2117108745
 20
217.7859615329
 30
0.0
 40
0.4463392767837968
100
AcDbArc
 50
281.421753659
 51
8.0494669755
  0
LINE
  5
E84
330
1F
100
AcDbEntity
  8
0
  6
Continuous
 62
     7
370
    25
100
AcDbLine
 10
1690.6536526127
 20
250.8484615329
 30
0.0
 11
1688.9465458315
 21
250.8484615329
 31
0.0
  0
LINE
  5
E85
330
1F
100
AcDbEntity
  8
0
  6
Continuous
 62
     7
370
    25
100
AcDbLine
 10
1690.6536526127
 20
217.8484615329
 30
0.0
 11
1690.6536526127
 21
250.8484615329
 31
0.0
  0
LINE
  5
E86
330
1F
100
AcDbEntity
  8
0
  6
Continuous
 62
     7
370
    25
100
AcDbLine
 10
1688.5929924409
 20
251.3484615329
 30
0.0
 11
1690.3000992221
 21
251.3484615329
 31
0.0
  0
ARC
  5
E87
330
1F
100
AcDbEntity
  8
0
  6
Continuous
 62
     7
370
    25
100
AcDbCircle
 10
1690.2117108745
 20
250.9109615329
 30
0.0
 40
0.4463392767837968
100
AcDbArc
 50
351.9505330245
 51
78.578246341
  0
SPLINE
  5
E88
330
1F
100
AcDbEntity
  8
0
  6
Continuous
 62
     7
370
    25
100
AcDbSpline
210
0.0
220
0.0
230
1.0
 70
     8
 71
     3
 72
    10
 73
     6
 74
     0
 42
0.000000001
 43
0.00000001
 40
0.0
 40
0.0
 40
0.0
 40
0.0
 40
0.6150126395407095
 40
0.9873266972072606
 40
0.9999999999999999
 40
0.9999999999999999
 40
0.9999999999999999
 40
0.9999999999999999
 10
1683.54167568892
 20
233.0240110184923
 30
0.0
 10
1683.422340037162
 20
233.0863674752389
 30
0.0
 10
1683.230761413678
 20
233.186473051175
 30
0.0
 10
1683.1148967023
 20
233.3027511254242
 30
0.0
 10
1683.077888389064
 20
233.3470047586104
 30
0.0
 10
1683.076670121641
 20
233.3484615329118
 30
0.0
  0
LINE
  5
E89
330
1F
100
AcDbEntity
  8
0
  6
Continuous
 62
     7
370
    25
100
AcDbLine
 10
1683.0766701216
 20
235.3484615329
 30
0.0
 11
1683.0766701216
 21
233.3484615329
 31
0.0
  0
SPLINE
  5
E8A
330
1F
100
AcDbEntity
  8
0
  6
Continuous
 62
     7
370
    25
100
AcDbSpline
210
0.0
220
0.0
230
1.0
 70
     8
 71
     3
 72
    10
 73
     6
 74
     0
 42
0.000000001
 43
0.00000001
 40
0.0
 40
0.0
 40
0.0
 40
0.0
 40
0.6150126395406369
 40
0.9873266972072623
 40
1.0
 40
1.0
 40
1.0
 40
1.0
 10
1683.54167568892
 20
235.6729120473312
 30
0.0
 10
1683.422340037162
 20
235.6105555905851
 30
0.0
 10
1683.230761413678
 20
235.51045001465
 30
0.0
 10
1683.114896702301
 20
235.3941719403974
 30
0.0
 10
1683.077888389064
 20
235.349918307213
 30
0.0
 10
1683.076670121641
 20
235.3484615329118
 30
0.0
  0
LINE
  5
E8B
330
1F
100
AcDbEntity
  8
0
  6
Continuous
 62
     7
370
    25
100
AcDbLine
 10
1682.7500992221
 20
235.3484615329
 30
0.0
 11
1683.0766701216
 21
235.3484615329
 31
0.0
  0
ARC
  5
E8C
330
1F
100
AcDbEntity
  8
0
  6
Continuous
 62
     7
370
    25
100
AcDbCircle
 10
1683.2500992221
 20
235.3484615329
 30
0.0
 40
0.5
100
AcDbArc
 50
90.0
 51
180.0
  0
LINE
  5
E8D
330
1F
100
AcDbEntity
  8
0
  6
Continuous
 62
     7
370
    25
100
AcDbLine
 10
1683.5000992221
 20
235.8484615329
 30
0.0
 11
1683.2500992221
 21
235.8484615329
 31
0.0
  0
ARC
  5
E8E
330
1F
100
AcDbEntity
  8
0
  6
Continuous
 62
     7
370
    25
100
AcDbCircle
 10
1683.2500992221
 20
233.3484615329
 30
0.0
 40
0.5
100
AcDbArc
 50
180.0
 51
270.0
  0
LINE
  5
E8F
330
1F
100
AcDbEntity
  8
0
  6
Continuous
 62
     7
370
    25
100
AcDbLine
 10
1683.0766701216
 20
233.3484615329
 30
0.0
 11
1682.7500992221
 21
233.3484615329
 31
0.0
  0
LINE
  5
E90
330
1F
100
AcDbEntity
  8
0
  6
Continuous
 62
     7
370
    25
100
AcDbLine
 10
1683.5000992221
 20
232.8484615329
 30
0.0
 11
1683.2500992221
 21
232.8484615329
 31
0.0
  0
LINE
  5
E91
330
1F
100
AcDbEntity
  8
0
  6
Continuous
 62
     7
370
    25
100
AcDbLine
 10
1689.0000992221
 20
251.3484615329
 30
0.0
 11
1689.0000992221
 21
251.5984629697
 31
0.0
  0
LINE
  5
E92
330
1F
100
AcDbEntity
  8
0
  6
Continuous
 62
     7
370
    25
100
AcDbLine
 10
1689.0000992221
 20
217.0984631171
 30
0.0
 11
1689.0000992221
 21
217.3484615329
 31
0.0
  0
ARC
  5
E93
330
1F
100
AcDbEntity
  8
0
  6
Continuous
 62
     7
370
    25
100
AcDbCircle
 10
1670.0000992221
 20
204.2484615329
 30
0.0
 40
0.5000000000000073
100
AcDbArc
 50
180.0
 51
246.4218215218
  0
LINE
  5
E94
330
1F
100
AcDbEntity
  8
0
  6
Continuous
 62
     7
370
    25
100
AcDbLine
 10
1669.5000992221
 20
204.2484615329
 30
0.0
 11
1669.5000992221
 21
209.7484615329
 31
0.0
  0
LINE
  5
E95
330
1F
100
AcDbEntity
  8
0
  6
Continuous
 62
     7
370
    25
100
AcDbLine
 10
1669.5000992221
 20
209.7484615329
 30
0.0
 11
1669.5000992221
 21
217.8484615329
 31
0.0
  0
LINE
  5
E96
330
1F
100
AcDbEntity
  8
0
  6
Continuous
 62
     7
370
    25
100
AcDbLine
 10
1669.5000992221
 20
250.8484615329
 30
0.0
 11
1669.5000992221
 21
258.9484615329
 31
0.0
  0
ARC
  5
E97
330
1F
100
AcDbEntity
  8
0
  6
Continuous
 62
     7
370
    25
100
AcDbCircle
 10
1670.0000992221
 20
264.4484615329
 30
0.0
 40
0.5000000000000073
100
AcDbArc
 50
113.5781784782
 51
180.0
  0
LINE
  5
E98
330
1F
100
AcDbEntity
  8
0
  6
Continuous
 62
     7
370
    25
100
AcDbLine
 10
1669.5000992221
 20
258.9484615329
 30
0.0
 11
1669.5000992221
 21
264.4484615329
 31
0.0
  0
LINE
  5
E99
330
1F
100
AcDbEntity
  8
0
  6
Continuous
 62
     7
370
    25
100
AcDbLine
 10
1682.7500992221
 20
233.3484615329
 30
0.0
 11
1682.7500992221
 21
235.3484615329
 31
0.0
  0
LINE
  5
E9A
330
1F
100
AcDbEntity
  8
0
  6
Continuous
 62
     7
370
    25
100
AcDbLine
 10
1690.6536526127
 20
217.8484615329
 30
0.0
 11
1690.8000992221
 21
217.8484615329
 31
0.0
  0
ARC
  5
E9B
330
1F
100
AcDbEntity
  8
0
  6
Continuous
 62
     7
370
    25
100
AcDbCircle
 10
1690.3000992221
 20
217.8484615329
 30
0.0
 40
0.5
100
AcDbArc
 50
270.0
 51
0.0
  0
LINE
  5
E9C
330
1F
100
AcDbEntity
  8
0
  6
Continuous
 62
     7
370
    25
100
AcDbLine
 10
1690.8000992221
 20
250.8484615329
 30
0.0
 11
1690.6536526127
 21
250.8484615329
 31
0.0
  0
LINE
  5
E9D
330
1F
100
AcDbEntity
  8
0
  6
Continuous
 62
     7
370
    25
100
AcDbLine
 10
1690.8000992221
 20
217.8484615329
 30
0.0
 11
1690.8000992221
 21
250.8484615329
 31
0.0
  0
ARC
  5
E9E
330
1F
100
AcDbEntity
  8
0
  6
Continuous
 62
     7
370
    25
100
AcDbCircle
 10
1690.3000992221
 20
250.8484615329
 30
0.0
 40
0.5
100
AcDbArc
 50
0.0
 51
90.0
  0
SPLINE
  5
E9F
330
1F
100
AcDbEntity
  8
0
  6
Continuous
 62
     7
370
    25
100
AcDbSpline
210
0.0
220
0.0
230
1.0
 70
    24
 71
     3
 72
    11
 73
     7
 74
     0
 42
0.000000001
 43
0.00000001
 40
0.0
 40
0.0
 40
0.0
 40
0.0
 40
0.2499999999999999
 40
0.4999999999999998
 40
0.7499999999999999
 40
0.9999999999999999
 40
0.9999999999999999
 40
0.9999999999999999
 40
0.9999999999999999
 10
1672.500099222129
 20
221.0984615329117
 30
0.0
 10
1672.500099222129
 20
220.8363874452993
 30
0.0
 10
1672.500099222129
 20
220.3122392700743
 30
0.0
 10
1672.500099222129
 20
219.6511493958805
 30
0.0
 10
1672.500099222129
 20
219.1886509696357
 30
0.0
 10
1672.500099222129
 20
219.1285246784864
 30
0.0
 10
1672.500099222129
 20
219.0984615329117
 30
0.0
  0
LINE
  5
EA0
330
1F
100
AcDbEntity
  8
0
  6
Continuous
 62
     7
370
    25
100
AcDbLine
 10
1683.0000992221
 20
221.0984615329
 30
0.0
 11
1672.5000992221
 21
221.0984615329
 31
0.0
  0
LINE
  5
EA1
330
1F
100
AcDbEntity
  8
0
  6
Continuous
 62
     7
370
    25
100
AcDbLine
 10
1683.0000992221
 20
219.0984615329
 30
0.0
 11
1683.0000992221
 21
221.0984615329
 31
0.0
  0
SPLINE
  5
EA2
330
1F
100
AcDbEntity
  8
0
  6
Continuous
 62
     7
370
    25
100
AcDbSpline
210
0.0
220
0.0
230
1.0
 70
    24
 71
     3
 72
    11
 73
     7
 74
     0
 42
0.000000001
 43
0.00000001
 40
0.0
 40
0.0
 40
0.0
 40
0.0
 40
0.25
 40
0.5000000000000002
 40
0.75
 40
0.9999999999999999
 40
0.9999999999999999
 40
0.9999999999999999
 40
0.9999999999999999
 10
1672.500099222129
 20
249.5984615329117
 30
0.0
 10
1672.500099222129
 20
249.5683983873371
 30
0.0
 10
1672.500099222129
 20
249.5082720961878
 30
0.0
 10
1672.500099222129
 20
249.045773669943
 30
0.0
 10
1672.500099222129
 20
248.3846837957492
 30
0.0
 10
1672.500099222129
 20
247.8605356205242
 30
0.0
 10
1672.500099222129
 20
247.5984615329117
 30
0.0
  0
LINE
  5
EA3
330
1F
100
AcDbEntity
  8
0
  6
Continuous
 62
     7
370
    25
100
AcDbLine
 10
1683.0000992221
 20
247.5984615329
 30
0.0
 11
1683.0000992221
 21
249.5984615329
 31
0.0
  0
LINE
  5
EA4
330
1F
100
AcDbEntity
  8
0
  6
Continuous
 62
     7
370
    25
100
AcDbLine
 10
1683.0000992221
 20
247.5984615329
 30
0.0
 11
1672.5000992221
 21
247.5984615329
 31
0.0
  0
SPLINE
  5
EA5
330
1F
100
AcDbEntity
  8
0
  6
Continuous
 62
     7
370
    25
100
AcDbSpline
210
0.0
220
0.0
230
1.0
 70
    24
 71
     3
 72
    11
 73
     7
 74
     0
 42
0.000000001
 43
0.00000001
 40
0.0
 40
0.0
 40
0.0
 40
0.0
 40
0.2500000000000001
 40
0.5000000000000001
 40
0.7499999999999999
 40
1.0
 40
1.0
 40
1.0
 40
1.0
 10
1672.500099222129
 20
221.0984615329117
 30
0.0
 10
1672.369062178323
 20
221.0984615329117
 30
0.0
 10
1672.10698809071
 20
221.0984615329117
 30
0.0
 10
1671.776443153613
 20
221.0984615329117
 30
0.0
 10
1671.545193940491
 20
221.0984615329117
 30
0.0
 10
1671.515130794916
 20
221.0984615329117
 30
0.0
 10
1671.500099222129
 20
221.0984615329117
 30
0.0
  0
SPLINE
  5
EA6
330
1F
100
AcDbEntity
  8
0
  6
Continuous
 62
     7
370
    25
100
AcDbSpline
210
0.0
220
0.0
230
1.0
 70
    24
 71
     3
 72
    11
 73
     7
 74
     0
 42
0.000000001
 43
0.00000001
 40
0.0
 40
0.0
 40
0.0
 40
0.0
 40
0.2500000000000002
 40
0.4999999999999999
 40
0.75
 40
1.0
 40
1.0
 40
1.0
 40
1.0
 10
1671.500099222129
 20
247.5984615329117
 30
0.0
 10
1671.515130794916
 20
247.5984615329117
 30
0.0
 10
1671.545193940491
 20
247.5984615329117
 30
0.0
 10
1671.776443153613
 20
247.5984615329117
 30
0.0
 10
1672.10698809071
 20
247.5984615329117
 30
0.0
 10
1672.369062178323
 20
247.5984615329117
 30
0.0
 10
1672.500099222129
 20
247.5984615329117
 30
0.0
  0
LINE
  5
EA7
330
1F
100
AcDbEntity
  8
0
  6
Continuous
 62
     7
370
    25
100
AcDbLine
 10
1683.5000992221
 20
247.5984615329
 30
0.0
 11
1683.0000992221
 21
247.5984615329
 31
0.0
  0
LINE
  5
EA8
330
1F
100
AcDbEntity
  8
0
  6
Continuous
 62
     7
370
    25
100
AcDbLine
 10
1683.5000992221
 20
221.0984615329
 30
0.0
 11
1683.0000992221
 21
221.0984615329
 31
0.0
  0
LINE
  5
EA9
330
1F
100
AcDbEntity
  8
0
  6
Continuous
 62
     7
370
    25
100
AcDbLine
 10
1672.5000992221
 20
221.0984615329
 30
0.0
 11
1672.5000992221
 21
247.5984615329
 31
0.0
  0
LINE
  5
EAA
330
1F
100
AcDbEntity
  8
0
  6
Continuous
 62
     7
370
    25
100
AcDbLine
 10
1682.2500992221
 20
233.3484615329
 30
0.0
 11
1682.2500992221
 21
235.3484615329
 31
0.0
  0
LINE
  5
EAB
330
1F
100
AcDbEntity
  8
0
  6
Continuous
 62
     7
370
    25
100
AcDbLine
 10
1682.2500992221
 20
235.3484615329
 30
0.0
 11
1682.7500992221
 21
235.3484615329
 31
0.0
  0
LINE
  5
EAC
330
1F
100
AcDbEntity
  8
0
  6
Continuous
 62
     7
370
    25
100
AcDbLine
 10
1682.2500992221
 20
233.3484615329
 30
0.0
 11
1682.7500992221
 21
233.3484615329
 31
0.0
  0
ARC
  5
EAD
330
1F
100
AcDbEntity
  8
0
  6
Continuous
 62
     7
370
    25
100
AcDbCircle
 10
1683.2500992221
 20
235.3484615329
 30
0.0
 40
1.000000000000227
100
AcDbArc
 50
104.4775121859
 51
180.0
  0
SPLINE
  5
EAE
330
1F
100
AcDbEntity
  8
0
  6
Continuous
 62
     7
370
    25
100
AcDbSpline
210
0.0
220
0.0
230
1.0
 70
     8
 71
     3
 72
    10
 73
     6
 74
     0
 42
0.000000001
 43
0.00000001
 40
0.0
 40
0.0
 40
0.0
 40
0.0
 40
0.0133551469972611
 40
0.5359978014744259
 40
1.0
 40
1.0
 40
1.0
 40
1.0
 10
1683.000099222128
 20
236.3167073694636
 30
0.0
 10
1683.001296368399
 20
236.3157791207875
 30
0.0
 10
1683.049342845827
 20
236.2785246263416
 30
0.0
 10
1683.137967421039
 20
236.2062665039324
 30
0.0
 10
1683.214232880846
 20
236.1329438995997
 30
0.0
 10
1683.250099222129
 20
236.0984615329117
 30
0.0
  0
LINE
  5
EAF
330
1F
100
AcDbEntity
  8
0
  6
Continuous
 62
     7
370
    25
100
AcDbLine
 10
1683.2500992221
 20
235.8484615329
 30
0.0
 11
1683.2500992221
 21
236.0984615329
 31
0.0
  0
LINE
  5
EB0
330
1F
100
AcDbEntity
  8
0
  6
Continuous
 62
     7
370
    25
100
AcDbLine
 10
1683.2500992221
 20
232.5984615329
 30
0.0
 11
1683.2500992221
 21
232.8484615329
 31
0.0
  0
SPLINE
  5
EB1
330
1F
100
AcDbEntity
  8
0
  6
Continuous
 62
     7
370
    25
100
AcDbSpline
210
0.0
220
0.0
230
1.0
 70
     8
 71
     3
 72
    10
 73
     6
 74
     0
 42
0.000000001
 43
0.00000001
 40
0.0
 40
0.0
 40
0.0
 40
0.0
 40
0.01335512947006
 40
0.5351597744099816
 40
0.9999999999999999
 40
0.9999999999999999
 40
0.9999999999999999
 40
0.9999999999999999
 10
1683.000099222128
 20
232.3802156963599
 30
0.0
 10
1683.001296368339
 20
232.3811439451267
 30
0.0
 10
1683.049267786169
 20
232.4183402449999
 30
0.0
 10
1683.137894592875
 20
232.4905933532967
 30
0.0
 10
1683.214165525452
 20
232.5639165905763
 30
0.0
 10
1683.250099222129
 20
232.5984615329118
 30
0.0
  0
ARC
  5
EB2
330
1F
100
AcDbEntity
  8
0
  6
Continuous
 62
     7
370
    25
100
AcDbCircle
 10
1683.2500992221
 20
233.3484615329
 30
0.0
 40
1.000000000000227
100
AcDbArc
 50
180.0
 51
255.5224878141
  0
LINE
  5
EB3
330
1F
100
AcDbEntity
  8
0
  6
Continuous
 62
     7
370
    25
100
AcDbLine
 10
1683.2500992221
 20
236.0984615329
 30
0.0
 11
1683.5000992221
 21
235.8484615329
 31
0.0
  0
LINE
  5
EB4
330
1F
100
AcDbEntity
  8
0
  6
Continuous
 62
     7
370
    25
100
AcDbLine
 10
1683.5000992221
 20
232.8484615329
 30
0.0
 11
1683.2500992221
 21
232.5984615329
 31
0.0
  0
LINE
  5
EB5
330
1F
100
AcDbEntity
  8
0
  6
Continuous
 62
     7
370
    25
100
AcDbLine
 10
1683.0000992221
 20
236.3167073695
 30
0.0
 11
1683.0000992221
 21
247.5984615329
 31
0.0
  0
LINE
  5
EB6
330
1F
100
AcDbEntity
  8
0
  6
Continuous
 62
     7
370
    25
100
AcDbLine
 10
1683.0000992221
 20
221.0984615329
 30
0.0
 11
1683.0000992221
 21
232.3802156964
 31
0.0
  0
LINE
  5
EB7
330
1F
100
AcDbEntity
  8
0
  6
Continuous
 62
     7
370
    25
100
AcDbLine
 10
1667.5000992221
 20
215.0988461711
 30
0.0
 11
1668.0000992221
 21
214.3722824625
 31
0.0
  0
LINE
  5
EB8
330
1F
100
AcDbEntity
  8
0
  6
Continuous
 62
     7
370
    25
100
AcDbLine
 10
1667.5000992221
 20
221.5980768948
 30
0.0
 11
1667.5000992221
 21
215.0988461711
 31
0.0
  0
LINE
  5
EB9
330
1F
100
AcDbEntity
  8
0
  6
Continuous
 62
     7
370
    25
100
AcDbLine
 10
1668.0000992221
 20
222.3246406033
 30
0.0
 11
1667.5000992221
 21
221.5980768948
 31
0.0
  0
LINE
  5
EBA
330
1F
100
AcDbEntity
  8
0
  6
Continuous
 62
     7
370
    25
100
AcDbLine
 10
1668.0000992221
 20
222.3246406033
 30
0.0
 11
1669.5000992221
 21
222.3246406033
 31
0.0
  0
LINE
  5
EBB
330
1F
100
AcDbEntity
  8
0
  6
Continuous
 62
     7
370
    25
100
AcDbLine
 10
1669.5000992221
 20
214.3722824625
 30
0.0
 11
1668.0000992221
 21
214.3722824625
 31
0.0
  0
LINE
  5
EBC
330
1F
100
AcDbEntity
  8
0
  6
Continuous
 62
     7
370
    25
100
AcDbLine
 10
1668.0000992221
 20
214.3722824625
 30
0.0
 11
1668.0000992221
 21
212.8484615329
 31
0.0
  0
LINE
  5
EBD
330
1F
100
AcDbEntity
  8
0
  6
Continuous
 62
     7
370
    25
100
AcDbLine
 10
1668.0000992221
 20
223.8484615329
 30
0.0
 11
1668.0000992221
 21
222.3246406033
 31
0.0
  0
LINE
  5
EBE
330
1F
100
AcDbEntity
  8
0
  6
Continuous
 62
     7
370
    25
100
AcDbLine
 10
1667.5000992221
 20
215.0988461711
 30
0.0
 11
1667.5000992221
 21
213.3484615329
 31
0.0
  0
LINE
  5
EBF
330
1F
100
AcDbEntity
  8
0
  6
Continuous
 62
     7
370
    25
100
AcDbLine
 10
1667.5000992221
 20
223.3484615329
 30
0.0
 11
1667.5000992221
 21
221.5980768948
 31
0.0
  0
LINE
  5
EC0
330
1F
100
AcDbEntity
  8
0
  6
Continuous
 62
     7
370
    25
100
AcDbLine
 10
1669.5000992221
 20
246.3722824625
 30
0.0
 11
1668.0000992221
 21
246.3722824625
 31
0.0
  0
LINE
  5
EC1
330
1F
100
AcDbEntity
  8
0
  6
Continuous
 62
     7
370
    25
100
AcDbLine
 10
1667.5000992221
 20
247.0988461711
 30
0.0
 11
1668.0000992221
 21
246.3722824625
 31
0.0
  0
LINE
  5
EC2
330
1F
100
AcDbEntity
  8
0
  6
Continuous
 62
     7
370
    25
100
AcDbLine
 10
1667.5000992221
 20
253.5980768948
 30
0.0
 11
1667.5000992221
 21
247.0988461711
 31
0.0
  0
LINE
  5
EC3
330
1F
100
AcDbEntity
  8
0
  6
Continuous
 62
     7
370
    25
100
AcDbLine
 10
1667.5000992221
 20
253.5980768948
 30
0.0
 11
1668.0000992221
 21
254.3246406033
 31
0.0
  0
LINE
  5
EC4
330
1F
100
AcDbEntity
  8
0
  6
Continuous
 62
     7
370
    25
100
AcDbLine
 10
1669.5000992221
 20
254.3246406033
 30
0.0
 11
1668.0000992221
 21
254.3246406033
 31
0.0
  0
LINE
  5
EC5
330
1F
100
AcDbEntity
  8
0
  6
Continuous
 62
     7
370
    25
100
AcDbLine
 10
1668.0000992221
 20
246.3722824625
 30
0.0
 11
1668.0000992221
 21
244.8484615329
 31
0.0
  0
LINE
  5
EC6
330
1F
100
AcDbEntity
  8
0
  6
Continuous
 62
     7
370
    25
100
AcDbLine
 10
1668.0000992221
 20
255.8484615329
 30
0.0
 11
1668.0000992221
 21
254.3246406033
 31
0.0
  0
LINE
  5
EC7
330
1F
100
AcDbEntity
  8
0
  6
Continuous
 62
     7
370
    25
100
AcDbLine
 10
1667.5000992221
 20
247.0988461711
 30
0.0
 11
1667.5000992221
 21
245.3484615329
 31
0.0
  0
LINE
  5
EC8
330
1F
100
AcDbEntity
  8
0
  6
Continuous
 62
     7
370
    25
100
AcDbLine
 10
1667.5000992221
 20
255.3484615329
 30
0.0
 11
1667.5000992221
 21
253.5980768948
 31
0.0
  0
LINE
  5
EC9
330
1F
100
AcDbEntity
  8
0
  6
Continuous
 62
     7
370
    25
100
AcDbLine
 10
1677.2224154972
 20
255.8299137179
 30
0.0
 11
1676.7848601863
 21
256.4996490014
 31
0.0
  0
LINE
  5
ECA
330
1F
100
AcDbEntity
  8
0
  6
Continuous
 62
     7
370
    25
100
AcDbLine
 10
1677.9340092358
 20
256.2948162357
 30
0.0
 11
1677.2224154972
 21
255.8299137179
 31
0.0
  0
LINE
  5
ECB
330
1F
100
AcDbEntity
  8
0
  6
Continuous
 62
     7
370
    25
100
AcDbLine
 10
1678.3989117537
 20
255.5832224971
 30
0.0
 11
1677.9340092358
 21
256.2948162357
 31
0.0
  0
LINE
  5
ECC
330
1F
100
AcDbEntity
  8
0
  6
Continuous
 62
     7
370
    25
100
AcDbLine
 10
1679.0686470371
 20
256.0207778079
 30
0.0
 11
1678.3989117537
 21
255.5832224971
 31
0.0
  0
LINE
  5
ECD
330
1F
100
AcDbEntity
  8
0
  6
Continuous
 62
     7
370
    25
100
AcDbLine
 10
1678.6037445193
 20
256.7323715466
 30
0.0
 11
1679.0686470371
 21
256.0207778079
 31
0.0
  0
LINE
  5
ECE
330
1F
100
AcDbEntity
  8
0
  6
Continuous
 62
     7
370
    25
100
AcDbLine
 10
1679.315338258
 20
257.1972740644
 30
0.0
 11
1678.6037445193
 21
256.7323715466
 31
0.0
  0
LINE
  5
ECF
330
1F
100
AcDbEntity
  8
0
  6
Continuous
 62
     7
370
    25
100
AcDbLine
 10
1678.8777829471
 20
257.8670093479
 30
0.0
 11
1679.315338258
 21
257.1972740644
 31
0.0
  0
LINE
  5
ED0
330
1F
100
AcDbEntity
  8
0
  6
Continuous
 62
     7
370
    25
100
AcDbLine
 10
1678.1661892084
 20
257.4021068301
 30
0.0
 11
1678.8777829471
 21
257.8670093479
 31
0.0
  0
LINE
  5
ED1
330
1F
100
AcDbEntity
  8
0
  6
Continuous
 62
     7
370
    25
100
AcDbLine
 10
1677.7012866906
 20
258.1137005688
 30
0.0
 11
1678.1661892084
 21
257.4021068301
 31
0.0
  0
LINE
  5
ED2
330
1F
100
AcDbEntity
  8
0
  6
Continuous
 62
     7
370
    25
100
AcDbLine
 10
1677.0315514071
 20
257.6761452579
 30
0.0
 11
1677.7012866906
 21
258.1137005688
 31
0.0
  0
LINE
  5
ED3
330
1F
100
AcDbEntity
  8
0
  6
Continuous
 62
     7
370
    25
100
AcDbLine
 10
1677.496453925
 20
256.9645515192
 30
0.0
 11
1677.0315514071
 21
257.6761452579
 31
0.0
  0
LINE
  5
ED4
330
1F
100
AcDbEntity
  8
0
  6
Continuous
 62
     7
370
    25
100
AcDbLine
 10
1676.7848601863
 20
256.4996490014
 30
0.0
 11
1677.496453925
 21
256.9645515192
 31
0.0
  0
LINE
  5
ED5
330
1F
100
AcDbEntity
  8
0
  6
Continuous
 62
     7
370
    25
100
AcDbLine
 10
1677.2224154972
 20
210.8299137179
 30
0.0
 11
1676.7848601863
 21
211.4996490014
 31
0.0
  0
LINE
  5
ED6
330
1F
100
AcDbEntity
  8
0
  6
Continuous
 62
     7
370
    25
100
AcDbLine
 10
1677.9340092358
 20
211.2948162357
 30
0.0
 11
1677.2224154972
 21
210.8299137179
 31
0.0
  0
LINE
  5
ED7
330
1F
100
AcDbEntity
  8
0
  6
Continuous
 62
     7
370
    25
100
AcDbLine
 10
1678.3989117537
 20
210.5832224971
 30
0.0
 11
1677.9340092358
 21
211.2948162357
 31
0.0
  0
LINE
  5
ED8
330
1F
100
AcDbEntity
  8
0
  6
Continuous
 62
     7
370
    25
100
AcDbLine
 10
1679.0686470371
 20
211.0207778079
 30
0.0
 11
1678.3989117537
 21
210.5832224971
 31
0.0
  0
LINE
  5
ED9
330
1F
100
AcDbEntity
  8
0
  6
Continuous
 62
     7
370
    25
100
AcDbLine
 10
1678.6037445193
 20
211.7323715466
 30
0.0
 11
1679.0686470371
 21
211.0207778079
 31
0.0
  0
LINE
  5
EDA
330
1F
100
AcDbEntity
  8
0
  6
Continuous
 62
     7
370
    25
100
AcDbLine
 10
1679.315338258
 20
212.1972740644
 30
0.0
 11
1678.6037445193
 21
211.7323715466
 31
0.0
  0
LINE
  5
EDB
330
1F
100
AcDbEntity
  8
0
  6
Continuous
 62
     7
370
    25
100
AcDbLine
 10
1678.8777829471
 20
212.8670093479
 30
0.0
 11
1679.315338258
 21
212.1972740644
 31
0.0
  0
LINE
  5
EDC
330
1F
100
AcDbEntity
  8
0
  6
Continuous
 62
     7
370
    25
100
AcDbLine
 10
1678.1661892084
 20
212.4021068301
 30
0.0
 11
1678.8777829471
 21
212.8670093479
 31
0.0
  0
LINE
  5
EDD
330
1F
100
AcDbEntity
  8
0
  6
Continuous
 62
     7
370
    25
100
AcDbLine
 10
1677.7012866906
 20
213.1137005688
 30
0.0
 11
1678.1661892084
 21
212.4021068301
 31
0.0
  0
LINE
  5
EDE
330
1F
100
AcDbEntity
  8
0
  6
Continuous
 62
     7
370
    25
100
AcDbLine
 10
1677.0315514071
 20
212.6761452579
 30
0.0
 11
1677.7012866906
 21
213.1137005688
 31
0.0
  0
LINE
  5
EDF
330
1F
100
AcDbEntity
  8
0
  6
Continuous
 62
     7
370
    25
100
AcDbLine
 10
1677.496453925
 20
211.9645515192
 30
0.0
 11
1677.0315514071
 21
212.6761452579
 31
0.0
  0
LINE
  5
EE0
330
1F
100
AcDbEntity
  8
0
  6
Continuous
 62
     7
370
    25
100
AcDbLine
 10
1676.7848601863
 20
211.4996490014
 30
0.0
 11
1677.496453925
 21
211.9645515192
 31
0.0
  0
LINE
  5
EE1
330
1F
100
AcDbEntity
  8
0
  6
Continuous
 62
     7
370
    25
100
AcDbLine
 10
1661.0000992221
 20
203.8484637006
 30
0.0
 11
1661.5000992221
 21
203.8484637006
 31
0.0
  0
LINE
  5
EE2
330
1F
100
AcDbEntity
  8
0
  6
Continuous
 62
     7
370
    25
100
AcDbLine
 10
1661.5000992221
 20
203.8484637006
 30
0.0
 11
1661.5000992221
 21
210.3484641782
 31
0.0
  0
LINE
  5
EE3
330
1F
100
AcDbEntity
  8
0
  6
Continuous
 62
     7
370
    25
100
AcDbLine
 10
1661.5000992221
 20
210.3484641782
 30
0.0
 11
1661.5000992221
 21
258.3484641782
 31
0.0
  0
LINE
  5
EE4
330
1F
100
AcDbEntity
  8
0
  6
Continuous
 62
     7
370
    25
100
AcDbLine
 10
1661.0000992221
 20
264.8484637006
 30
0.0
 11
1661.5000992221
 21
264.8484637006
 31
0.0
  0
LINE
  5
EE5
330
1F
100
AcDbEntity
  8
0
  6
Continuous
 62
     7
370
    25
100
AcDbLine
 10
1661.5000992221
 20
258.3484641782
 30
0.0
 11
1661.5000992221
 21
264.8484637006
 31
0.0
  0
LINE
  5
EE6
330
1F
100
AcDbEntity
  8
0
  6
Continuous
 62
     7
370
    25
100
AcDbLine
 10
1661.0000992221
 20
203.8484612757
 30
0.0
 11
1661.5000992221
 21
203.8484612757
 31
0.0
  0
LINE
  5
EE7
330
1F
100
AcDbEntity
  8
0
  6
Continuous
 62
     7
370
    25
100
AcDbLine
 10
1662.0000992221
 20
212.7484615329
 30
0.0
 11
1662.0000992221
 21
223.9484615329
 31
0.0
  0
LINE
  5
EE8
330
1F
100
AcDbEntity
  8
0
  6
Continuous
 62
     7
370
    25
100
AcDbLine
 10
1662.0000992221
 20
244.7484615329
 30
0.0
 11
1662.0000992221
 21
255.9484615329
 31
0.0
  0
LINE
  5
EE9
330
1F
100
AcDbEntity
  8
0
  6
Continuous
 62
     7
370
    25
100
AcDbLine
 10
1666.0000992221
 20
223.9484615329
 30
0.0
 11
1666.0000992221
 21
212.7484615329
 31
0.0
  0
LINE
  5
EEA
330
1F
100
AcDbEntity
  8
0
  6
Continuous
 62
     7
370
    25
100
AcDbLine
 10
1666.0000992221
 20
255.9484615329
 30
0.0
 11
1666.0000992221
 21
244.7484615329
 31
0.0
  0
LINE
  5
EEB
330
1F
100
AcDbEntity
  8
0
  6
Continuous
 62
     8
370
    25
100
AcDbLine
 10
1657.8000992221
 20
210.3458731351
 30
0.0
 11
1657.8000992221
 21
210.2768409606
 31
0.0
  0
LINE
  5
EEC
330
1F
100
AcDbEntity
  8
0
  6
Continuous
 62
     8
370
    25
100
AcDbLine
 10
1657.8000992221
 20
258.4200875795
 30
0.0
 11
1657.8000992221
 21
258.3510552932
 31
0.0
  0
LINE
  5
EED
330
1F
100
AcDbEntity
  8
0
  6
Continuous
 62
     8
370
    25
100
AcDbLine
 10
1656.3382041918
 20
257.948464187
 30
0.0
 11
1656.3911434427
 21
257.9484641891
 31
0.0
  0
LINE
  5
EEE
330
1F
100
AcDbEntity
  8
0
  6
Continuous
 62
     8
370
    25
100
AcDbLine
 10
1659.0000992221
 20
257.4052406513
 30
0.0
 11
1659.0000992221
 21
257.1561564083
 31
0.0
  0
LINE
  5
EEF
330
1F
100
AcDbEntity
  8
0
  6
Continuous
 62
     8
370
    25
100
AcDbLine
 10
1659.0000992221
 20
211.5407720216
 30
0.0
 11
1659.0000992221
 21
211.2916878889
 31
0.0
  0
LINE
  5
EF0
330
1F
100
AcDbEntity
  8
0
  6
Continuous
 62
     8
370
    25
100
AcDbLine
 10
1659.0000990072
 20
256.5407720656
 30
0.0
 11
1659.0000992221
 21
256.2916878889
 31
0.0
  0
LINE
  5
EF1
330
1F
100
AcDbEntity
  8
0
  6
Continuous
 62
     8
370
    25
100
AcDbLine
 10
1659.0000992221
 20
212.4052406513
 30
0.0
 11
1659.0000990072
 21
212.1561563643
 31
0.0
  0
LINE
  5
EF2
330
1F
100
AcDbEntity
  8
0
  6
Continuous
 62
     8
370
    25
100
AcDbLine
 10
1658.6619941216
 20
210.748464215
 30
0.0
 11
1658.5653102275
 21
210.748464215
 31
0.0
  0
LINE
  5
EF3
330
1F
100
AcDbEntity
  8
0
  6
Continuous
 62
     8
370
    25
100
AcDbLine
 10
1658.661994226
 20
257.948464215
 30
0.0
 11
1658.5653102275
 21
257.948464215
 31
0.0
  0
LINE
  5
EF4
330
1F
100
AcDbEntity
  8
0
  6
Continuous
 62
     8
370
    25
100
AcDbLine
 10
1657.8000992221
 20
255.3469068615
 30
0.0
 11
1657.8000992221
 21
255.2768409606
 31
0.0
  0
LINE
  5
EF5
330
1F
100
AcDbEntity
  8
0
  6
Continuous
 62
     8
370
    25
100
AcDbLine
 10
1657.8000992221
 20
213.4200875795
 30
0.0
 11
1657.8000992221
 21
213.3500215685
 31
0.0
  0
LINE
  5
EF6
330
1F
100
AcDbEntity
  8
0
  6
Continuous
 62
     8
370
    25
100
AcDbLine
 10
1670.0000992221
 20
217.0984631495
 30
0.0
 11
1670.0000992221
 21
217.3484615329
 31
0.0
  0
LINE
  5
EF7
330
1F
100
AcDbEntity
  8
0
  6
Continuous
 62
     8
370
    25
100
AcDbLine
 10
1686.0000992221
 20
217.0984631495
 30
0.0
 11
1686.0000992221
 21
217.3484615329
 31
0.0
  0
LINE
  5
EF8
330
1F
100
AcDbEntity
  8
0
  6
Continuous
 62
     8
370
    25
100
AcDbLine
 10
1686.0000992221
 20
251.3484615329
 30
0.0
 11
1686.0000992221
 21
251.5984630393
 31
0.0
  0
LINE
  5
EF9
330
1F
100
AcDbEntity
  8
0
  6
Continuous
 62
     8
370
    25
100
AcDbLine
 10
1670.0000992221
 20
251.3484615329
 30
0.0
 11
1670.0000992221
 21
251.5984630393
 31
0.0
  0
LINE
  5
EFA
330
1F
100
AcDbEntity
  8
0
  6
Continuous
 62
     8
370
    25
100
AcDbLine
 10
1669.5000992221
 20
209.7484615329
 30
0.0
 11
1669.8000992221
 21
209.7484615329
 31
0.0
  0
LINE
  5
EFB
330
1F
100
AcDbEntity
  8
0
  6
Continuous
 62
     8
370
    25
100
AcDbLine
 10
1669.5000992221
 20
258.9484615329
 30
0.0
 11
1669.8000992221
 21
258.9484615329
 31
0.0
  0
LINE
  5
EFC
330
1F
100
AcDbEntity
  8
0
  6
Continuous
 62
     8
370
    25
100
AcDbLine
 10
1661.0000992221
 20
210.3484641782
 30
0.0
 11
1661.5000992221
 21
210.3484641782
 31
0.0
  0
LINE
  5
EFD
330
1F
100
AcDbEntity
  8
0
  6
Continuous
 62
     8
370
    25
100
AcDbLine
 10
1661.5000992221
 20
258.3484641782
 30
0.0
 11
1661.0000992221
 21
258.3484641782
 31
0.0
  0
ENDSEC
  0
SECTION
  2
OBJECTS
  0
DICTIONARY
  5
C
330
0
100
AcDbDictionary
281
     1
  3
ACAD_GROUP
350
D
  3
ACAD_IMAGE_VARS
350
F21
  3
ACAD_LAYOUT
350
1A
  3
ACAD_MLINESTYLE
350
17
  3
ACAD_PLOTSETTINGS
350
19
  3
ACAD_PLOTSTYLENAME
350
E
  3
ACAD_SCALELIST
350
47
  3
APPDATA
350
F1F
  3
DWGPROPS
350
F22
  0
DICTIONARY
  5
D
102
{ACAD_REACTORS
330
C
102
}
330
C
100
AcDbDictionary
281
     1
  0
RASTERVARIABLES
  5
F21
102
{ACAD_REACTORS
330
C
102
}
330
C
100
AcDbRasterVariables
 90
        0
 70
     1
 71
     1
 72
     1
  0
DICTIONARY
  5
1A
102
{ACAD_REACTORS
330
C
102
}
330
C
100
AcDbDictionary
281
     1
  3
Layout1
350
1E
  3
Layout2
350
26
  3
Model
350
22
  0
DICTIONARY
  5
17
102
{ACAD_REACTORS
330
C
102
}
330
C
100
AcDbDictionary
281
     1
  3
Standard
350
18
  0
DICTIONARY
  5
19
102
{ACAD_REACTORS
330
C
102
}
330
C
100
AcDbDictionary
281
     1
  0
ACDBDICTIONARYWDFLT
  5
E
102
{ACAD_REACTORS
330
C
102
}
330
C
100
AcDbDictionary
281
     1
  3
Normal
350
F
100
AcDbDictionaryWithDefault
340
F
  0
DICTIONARY
  5
47
102
{ACAD_REACTORS
330
C
102
}
330
C
100
AcDbDictionary
281
     1
  3
A0
350
48
  3
A1
350
49
  3
A2
350
4A
  3
A3
350
4B
  3
A4
350
4C
  3
A5
350
4D
  3
A6
350
4E
  3
A7
350
4F
  3
A8
350
50
  3
A9
350
51
  3
B0
350
52
  3
B1
350
53
  3
B2
350
54
  3
B3
350
55
  3
B4
350
56
  3
B5
350
57
  3
B6
350
58
  3
B7
350
59
  3
B8
350
5A
  3
B9
350
5B
  3
C0
350
5C
  3
C1
350
5D
  3
C2
350
5E
  3
C3
350
5F
  3
C4
350
60
  3
C5
350
61
  3
C6
350
62
  3
C7
350
63
  3
C8
350
64
  3
C9
350
65
  3
D0
350
66
  3
D1
350
67
  3
D2
350
68
  0
DICTIONARY
  5
F1F
102
{ACAD_REACTORS
330
C
102
}
330
C
100
AcDbDictionary
281
     1
  0
XRECORD
  5
F22
102
{ACAD_REACTORS
330
C
102
}
330
C
100
AcDbXrecord
280
     1
  1
DWGPROPS COOKIE
  2

  3

  4

  6

  7

  8
raffaele
  9

300
=
301
=
302
=
303
=
304
=
305
=
306
=
307
=
308
=
309
=
 40
0.0
 41
2458010.3980211
 42
2458010.400232211
  1

 90
        0
  0
LAYOUT
  5
1E
102
{ACAD_REACTORS
330
1A
102
}
330
1A
100
AcDbPlotSettings
  1

  2
none_device
  4

  6

 40
0.0
 41
0.0
 42
0.0
 43
0.0
 44
0.0
 45
0.0
 46
0.0
 47
0.0
 48
0.0
 49
0.0
140
0.0
141
0.0
142
1.0
143
1.0
 70
   688
 72
     1
 73
     0
 74
     5
  7

 75
    16
147
1.0
148
0.0
149
0.0
100
AcDbLayout
  1
Layout1
 70
     1
 71
     1
 10
0.0
 20
0.0
 11
420.0
 21
297.0
 12
0.0
 22
0.0
 32
0.0
 14
1.000000000000000E+20
 24
1.000000000000000E+20
 34
1.000000000000000E+20
 15
-1.000000000000000E+20
 25
-1.000000000000000E+20
 35
-1.000000000000000E+20
146
0.0
 13
0.0
 23
0.0
 33
0.0
 16
1.0
 26
0.0
 36
0.0
 17
0.0
 27
1.0
 37
0.0
 76
     0
330
1B
  0
LAYOUT
  5
26
102
{ACAD_REACTORS
330
1A
102
}
330
1A
100
AcDbPlotSettings
  1

  2
none_device
  4

  6

 40
0.0
 41
0.0
 42
0.0
 43
0.0
 44
0.0
 45
0.0
 46
0.0
 47
0.0
 48
0.0
 49
0.0
140
0.0
141
0.0
142
1.0
143
1.0
 70
   688
 72
     1
 73
     0
 74
     5
  7

 75
    16
147
1.0
148
0.0
149
0.0
100
AcDbLayout
  1
Layout2
 70
     1
 71
     2
 10
0.0
 20
0.0
 11
0.0
 21
0.0
 12
0.0
 22
0.0
 32
0.0
 14
0.0
 24
0.0
 34
0.0
 15
0.0
 25
0.0
 35
0.0
146
0.0
 13
0.0
 23
0.0
 33
0.0
 16
1.0
 26
0.0
 36
0.0
 17
0.0
 27
1.0
 37
0.0
 76
     0
330
23
  0
LAYOUT
  5
22
102
{ACAD_REACTORS
330
1A
102
}
330
1A
100
AcDbPlotSettings
  1

  2
none_device
  4
Letter_(8.50_x_11.00_Inches)
  6

 40
6.35
 41
6.35
 42
6.35000508
 43
6.35000508
 44
215.9
 45
279.4
 46
0.0
 47
0.0
 48
0.0
 49
0.0
140
0.0
141
0.0
142
1.0
143
1.0
 70
  1712
 72
     1
 73
     0
 74
     0
  7

 75
     0
147
1.0
148
0.0
149
0.0
100
AcDbLayout
  1
Model
 70
     1
 71
     0
 10
0.0
 20
0.0
 11
840.0
 21
594.0
 12
0.0
 22
0.0
 32
0.0
 14
1315.033578171378
 24
26.4328170206
 34
0.0
 15
1690.8000992221
 25
469.3803688315002
 35
0.0
146
0.0
 13
0.0
 23
0.0
 33
0.0
 16
1.0
 26
0.0
 36
0.0
 17
0.0
 27
1.0
 37
0.0
 76
     0
330
1F
331
29
  0
MLINESTYLE
  5
18
102
{ACAD_REACTORS
330
17
102
}
330
17
100
AcDbMlineStyle
  2
Standard
 70
     0
  3

 62
   256
 51
90.0
 52
90.0
 71
     2
 49
0.5
 62
   256
  6
BYLAYER
 49
-0.5
 62
   256
  6
BYLAYER
  0
ACDBPLACEHOLDER
  5
F
102
{ACAD_REACTORS
330
E
102
}
330
E
  0
SCALE
  5
48
102
{ACAD_REACTORS
330
47
102
}
330
47
100
AcDbScale
 70
     0
300
1:1
140
1.0
141
1.0
290
     1
  0
SCALE
  5
49
102
{ACAD_REACTORS
330
47
102
}
330
47
100
AcDbScale
 70
     0
300
1:2
140
1.0
141
2.0
290
     0
  0
SCALE
  5
4A
102
{ACAD_REACTORS
330
47
102
}
330
47
100
AcDbScale
 70
     0
300
1:4
140
1.0
141
4.0
290
     0
  0
SCALE
  5
4B
102
{ACAD_REACTORS
330
47
102
}
330
47
100
AcDbScale
 70
     0
300
1:5
140
1.0
141
5.0
290
     0
  0
SCALE
  5
4C
102
{ACAD_REACTORS
330
47
102
}
330
47
100
AcDbScale
 70
     0
300
1:8
140
1.0
141
8.0
290
     0
  0
SCALE
  5
4D
102
{ACAD_REACTORS
330
47
102
}
330
47
100
AcDbScale
 70
     0
300
1:10
140
1.0
141
10.0
290
     0
  0
SCALE
  5
4E
102
{ACAD_REACTORS
330
47
102
}
330
47
100
AcDbScale
 70
     0
300
1:16
140
1.0
141
16.0
290
     0
  0
SCALE
  5
4F
102
{ACAD_REACTORS
330
47
102
}
330
47
100
AcDbScale
 70
     0
300
1:20
140
1.0
141
20.0
290
     0
  0
SCALE
  5
50
102
{ACAD_REACTORS
330
47
102
}
330
47
100
AcDbScale
 70
     0
300
1:30
140
1.0
141
30.0
290
     0
  0
SCALE
  5
51
102
{ACAD_REACTORS
330
47
102
}
330
47
100
AcDbScale
 70
     0
300
1:40
140
1.0
141
40.0
290
     0
  0
SCALE
  5
52
102
{ACAD_REACTORS
330
47
102
}
330
47
100
AcDbScale
 70
     0
300
1:50
140
1.0
141
50.0
290
     0
  0
SCALE
  5
53
102
{ACAD_REACTORS
330
47
102
}
330
47
100
AcDbScale
 70
     0
300
1:100
140
1.0
141
100.0
290
     0
  0
SCALE
  5
54
102
{ACAD_REACTORS
330
47
102
}
330
47
100
AcDbScale
 70
     0
300
2:1
140
2.0
141
1.0
290
     0
  0
SCALE
  5
55
102
{ACAD_REACTORS
330
47
102
}
330
47
100
AcDbScale
 70
     0
300
4:1
140
4.0
141
1.0
290
     0
  0
SCALE
  5
56
102
{ACAD_REACTORS
330
47
102
}
330
47
100
AcDbScale
 70
     0
300
8:1
140
8.0
141
1.0
290
     0
  0
SCALE
  5
57
102
{ACAD_REACTORS
330
47
102
}
330
47
100
AcDbScale
 70
     0
300
10:1
140
10.0
141
1.0
290
     0
  0
SCALE
  5
58
102
{ACAD_REACTORS
330
47
102
}
330
47
100
AcDbScale
 70
     0
300
100:1
140
100.0
141
1.0
290
     0
  0
SCALE
  5
59
102
{ACAD_REACTORS
330
47
102
}
330
47
100
AcDbScale
 70
     0
300
1/128" = 1'-0"
140
0.0078125
141
12.0
290
     0
  0
SCALE
  5
5A
102
{ACAD_REACTORS
330
47
102
}
330
47
100
AcDbScale
 70
     0
300
1/64" = 1'-0"
140
0.015625
141
12.0
290
     0
  0
SCALE
  5
5B
102
{ACAD_REACTORS
330
47
102
}
330
47
100
AcDbScale
 70
     0
300
1/32" = 1'-0"
140
0.03125
141
12.0
290
     0
  0
SCALE
  5
5C
102
{ACAD_REACTORS
330
47
102
}
330
47
100
AcDbScale
 70
     0
300
1/16" = 1'-0"
140
0.0625
141
12.0
290
     0
  0
SCALE
  5
5D
102
{ACAD_REACTORS
330
47
102
}
330
47
100
AcDbScale
 70
     0
300
3/32" = 1'-0"
140
0.09375
141
12.0
290
     0
  0
SCALE
  5
5E
102
{ACAD_REACTORS
330
47
102
}
330
47
100
AcDbScale
 70
     0
300
1/8" = 1'-0"
140
0.125
141
12.0
290
     0
  0
SCALE
  5
5F
102
{ACAD_REACTORS
330
47
102
}
330
47
100
AcDbScale
 70
     0
300
3/16" = 1'-0"
140
0.1875
141
12.0
290
     0
  0
SCALE
  5
60
102
{ACAD_REACTORS
330
47
102
}
330
47
100
AcDbScale
 70
     0
300
1/4" = 1'-0"
140
0.25
141
12.0
290
     0
  0
SCALE
  5
61
102
{ACAD_REACTORS
330
47
102
}
330
47
100
AcDbScale
 70
     0
300
3/8" = 1'-0"
140
0.375
141
12.0
290
     0
  0
SCALE
  5
62
102
{ACAD_REACTORS
330
47
102
}
330
47
100
AcDbScale
 70
     0
300
1/2" = 1'-0"
140
0.5
141
12.0
290
     0
  0
SCALE
  5
63
102
{ACAD_REACTORS
330
47
102
}
330
47
100
AcDbScale
 70
     0
300
3/4" = 1'-0"
140
0.75
141
12.0
290
     0
  0
SCALE
  5
64
102
{ACAD_REACTORS
330
47
102
}
330
47
100
AcDbScale
 70
     0
300
1" = 1'-0"
140
1.0
141
12.0
290
     0
  0
SCALE
  5
65
102
{ACAD_REACTORS
330
47
102
}
330
47
100
AcDbScale
 70
     0
300
1-1/2" = 1'-0"
140
1.5
141
12.0
290
     0
  0
SCALE
  5
66
102
{ACAD_REACTORS
330
47
102
}
330
47
100
AcDbScale
 70
     0
300
3" = 1'-0"
140
3.0
141
12.0
290
     0
  0
SCALE
  5
67
102
{ACAD_REACTORS
330
47
102
}
330
47
100
AcDbScale
 70
     0
300
6" = 1'-0"
140
6.0
141
12.0
290
     0
  0
SCALE
  5
68
102
{ACAD_REACTORS
330
47
102
}
330
47
100
AcDbScale
 70
     0
300
1'-0" = 1'-0"
140
12.0
141
12.0
290
     0
  0
ENDSEC
  0
EOF
