  0
SECTION
  2
HEADER
  9
$ACADVER
  1
AC1015
  9
$ACADMAINTVER
 70
     6
  9
$DWGCODEPAGE
  3
ANSI_1252
  9
$INSBASE
 10
0.0
 20
0.0
 30
0.0
  9
$EXTMIN
 10
-5.5796983268712
 20
-135.3259152698815
 30
0.0
  9
$EXTMAX
 10
64.78716676033918
 20
52.4481270387811
 30
0.0
  9
$LIMMIN
 10
-2514.35
 20
-1863.85
  9
$LIMMAX
 10
1691.35
 20
579.35
  9
$ORTHOMODE
 70
     1
  9
$REGENMODE
 70
     1
  9
$FILLMODE
 70
     1
  9
$QTEXTMODE
 70
     0
  9
$MIRRTEXT
 70
     1
  9
$LTSCALE
 40
10.0
  9
$ATTMODE
 70
     1
  9
$TEXTSIZE
 40
0.0
  9
$TRACEWID
 40
0.05
  9
$TEXTSTYLE
  7
Standard
  9
$CLAYER
  8
0
  9
$CELTYPE
  6
Continuous
  9
$CECOLOR
 62
   256
  9
$CELTSCALE
 40
1.0
  9
$DISPSILH
 70
     0
  9
$DIMSCALE
 40
1.0
  9
$DIMASZ
 40
1.25
  9
$DIMEXO
 40
0.0
  9
$DIMDLI
 40
0.38
  9
$DIMRND
 40
0.0
  9
$DIMDLE
 40
0.0
  9
$DIMEXE
 40
0.75
  9
$DIMTP
 40
0.0
  9
$DIMTM
 40
0.0
  9
$DIMTXT
 40
2.5
  9
$DIMCEN
 40
0.09
  9
$DIMTSZ
 40
0.0
  9
$DIMTOL
 70
     0
  9
$DIMLIM
 70
     0
  9
$DIMTIH
 70
     0
  9
$DIMTOH
 70
     0
  9
$DIMSE1
 70
     0
  9
$DIMSE2
 70
     0
  9
$DIMTAD
 70
     1
  9
$DIMZIN
 70
     0
  9
$DIMBLK
  1

  9
$DIMASO
 70
     1
  9
$DIMSHO
 70
     1
  9
$DIMPOST
  1

  9
$DIMAPOST
  1

  9
$DIMALT
 70
     0
  9
$DIMALTD
 70
     2
  9
$DIMALTF
 40
25.4
  9
$DIMLFAC
 40
1.0
  9
$DIMTOFL
 70
     0
  9
$DIMTVP
 40
0.0
  9
$DIMTIX
 70
     0
  9
$DIMSOXD
 70
     0
  9
$DIMSAH
 70
     0
  9
$DIMBLK1
  1

  9
$DIMBLK2
  1

  9
$DIMSTYLE
  2
Standard
  9
$DIMCLRD
 70
     7
  9
$DIMCLRE
 70
     7
  9
$DIMCLRT
 70
     7
  9
$DIMTFAC
 40
0.8
  9
$DIMGAP
 40
1.25
  9
$DIMJUST
 70
     0
  9
$DIMSD1
 70
     0
  9
$DIMSD2
 70
     0
  9
$DIMTOLJ
 70
     1
  9
$DIMTZIN
 70
     0
  9
$DIMALTZ
 70
     0
  9
$DIMALTTZ
 70
     0
  9
$DIMUPT
 70
     0
  9
$DIMDEC
 70
     2
  9
$DIMTDEC
 70
     4
  9
$DIMALTU
 70
     2
  9
$DIMALTTD
 70
     2
  9
$DIMTXSTY
  7
Standard
  9
$DIMAUNIT
 70
     0
  9
$DIMADEC
 70
     0
  9
$DIMALTRND
 40
0.0
  9
$DIMAZIN
 70
     0
  9
$DIMDSEP
 70
     0
  9
$DIMATFIT
 70
     3
  9
$DIMFRAC
 70
     0
  9
$DIMLDRBLK
  1

  9
$DIMLUNIT
 70
     2
  9
$DIMLWD
 70
     0
  9
$DIMLWE
 70
     0
  9
$DIMTMOVE
 70
     0
  9
$LUNITS
 70
     2
  9
$LUPREC
 70
     4
  9
$SKETCHINC
 40
0.1
  9
$FILLETRAD
 40
0.0
  9
$AUNITS
 70
     0
  9
$AUPREC
 70
     0
  9
$MENU
  1
acad
  9
$ELEVATION
 40
0.0
  9
$PELEVATION
 40
0.0
  9
$THICKNESS
 40
0.0
  9
$LIMCHECK
 70
     0
  9
$CHAMFERA
 40
0.0
  9
$CHAMFERB
 40
0.0
  9
$CHAMFERC
 40
0.0
  9
$CHAMFERD
 40
0.0
  9
$SKPOLY
 70
     0
  9
$TDCREATE
 40
2455313.557382165
  9
$TDUCREATE
 40
2455313.515715498
  9
$TDUPDATE
 40
2457007.597594664
  9
$TDUUPDATE
 40
2457007.555927997
  9
$TDINDWG
 40
0.0094996296
  9
$TDUSRTIMER
 40
2457007.555795081
  9
$USRTIMER
 70
     1
  9
$ANGBASE
 50
0.0
  9
$ANGDIR
 70
     0
  9
$PDMODE
 70
     0
  9
$PDSIZE
 40
0.0
  9
$PLINEWID
 40
0.0
  9
$SPLFRAME
 70
     0
  9
$SPLINETYPE
 70
     6
  9
$SPLINESEGS
 70
     8
  9
$HANDSEED
  5
112C
  9
$SURFTAB1
 70
     6
  9
$SURFTAB2
 70
     6
  9
$SURFTYPE
 70
     6
  9
$SURFU
 70
     6
  9
$SURFV
 70
     6
  9
$UCSBASE
  2

  9
$UCSNAME
  2

  9
$UCSORG
 10
0.0
 20
0.0
 30
0.0
  9
$UCSXDIR
 10
1.0
 20
0.0
 30
0.0
  9
$UCSYDIR
 10
0.0
 20
1.0
 30
0.0
  9
$UCSORTHOREF
  2

  9
$UCSORTHOVIEW
 70
     0
  9
$UCSORGTOP
 10
0.0
 20
0.0
 30
0.0
  9
$UCSORGBOTTOM
 10
0.0
 20
0.0
 30
0.0
  9
$UCSORGLEFT
 10
0.0
 20
0.0
 30
0.0
  9
$UCSORGRIGHT
 10
0.0
 20
0.0
 30
0.0
  9
$UCSORGFRONT
 10
0.0
 20
0.0
 30
0.0
  9
$UCSORGBACK
 10
0.0
 20
0.0
 30
0.0
  9
$PUCSBASE
  2

  9
$PUCSNAME
  2

  9
$PUCSORG
 10
0.0
 20
0.0
 30
0.0
  9
$PUCSXDIR
 10
1.0
 20
0.0
 30
0.0
  9
$PUCSYDIR
 10
0.0
 20
1.0
 30
0.0
  9
$PUCSORTHOREF
  2

  9
$PUCSORTHOVIEW
 70
     0
  9
$PUCSORGTOP
 10
0.0
 20
0.0
 30
0.0
  9
$PUCSORGBOTTOM
 10
0.0
 20
0.0
 30
0.0
  9
$PUCSORGLEFT
 10
0.0
 20
0.0
 30
0.0
  9
$PUCSORGRIGHT
 10
0.0
 20
0.0
 30
0.0
  9
$PUCSORGFRONT
 10
0.0
 20
0.0
 30
0.0
  9
$PUCSORGBACK
 10
0.0
 20
0.0
 30
0.0
  9
$USERI1
 70
     0
  9
$USERI2
 70
     0
  9
$USERI3
 70
     0
  9
$USERI4
 70
     0
  9
$USERI5
 70
     0
  9
$USERR1
 40
0.0
  9
$USERR2
 40
0.0
  9
$USERR3
 40
0.0
  9
$USERR4
 40
0.0
  9
$USERR5
 40
0.0
  9
$WORLDVIEW
 70
     1
  9
$SHADEDGE
 70
     3
  9
$SHADEDIF
 70
    70
  9
$TILEMODE
 70
     1
  9
$MAXACTVP
 70
    16
  9
$PINSBASE
 10
0.0
 20
0.0
 30
0.0
  9
$PLIMCHECK
 70
     0
  9
$PEXTMIN
 10
1.000000000000000E+20
 20
1.000000000000000E+20
 30
1.000000000000000E+20
  9
$PEXTMAX
 10
-1.000000000000000E+20
 20
-1.000000000000000E+20
 30
-1.000000000000000E+20
  9
$PLIMMIN
 10
0.0
 20
0.0
  9
$PLIMMAX
 10
0.0
 20
0.0
  9
$UNITMODE
 70
     0
  9
$VISRETAIN
 70
     0
  9
$PLINEGEN
 70
     1
  9
$PSLTSCALE
 70
     0
  9
$TREEDEPTH
 70
  3020
  9
$CMLSTYLE
  2
Standard
  9
$CMLJUST
 70
     0
  9
$CMLSCALE
 40
1.0
  9
$PROXYGRAPHICS
 70
     0
  9
$MEASUREMENT
 70
     1
  9
$CELWEIGHT
370
     0
  9
$ENDCAPS
280
     0
  9
$JOINSTYLE
280
     0
  9
$LWDISPLAY
290
     0
  9
$INSUNITS
 70
     0
  9
$HYPERLINKBASE
  1

  9
$STYLESHEET
  1

  9
$XEDIT
290
     1
  9
$CEPSNTYPE
380
     0
  9
$PSTYLEMODE
290
     1
  9
$FINGERPRINTGUID
  2

  9
$VERSIONGUID
  2
{E771361C-724C-479D-96F1-211A158E0781}
  9
$EXTNAMES
290
     1
  9
$PSVPSCALE
 40
0.0
  9
$OLESTARTUP
290
     0
  0
ENDSEC
  0
SECTION
  2
CLASSES
  0
CLASS
  1
IMAGE
  2
AcDbRasterImage
  3
ISM
 90
      127
280
     0
281
     1
  0
CLASS
  1
DICTIONARYVAR
  2
AcDbDictionaryVar
  3
ObjectDBX Classes
 90
        0
280
     0
281
     0
  0
CLASS
  1
RASTERVARIABLES
  2
AcDbRasterVariables
  3
ISM
 90
        0
280
     0
281
     0
  0
CLASS
  1
IMAGEDEF
  2
AcDbRasterImageDef
  3
ISM
 90
        0
280
     0
281
     0
  0
CLASS
  1
IMAGEDEF_REACTOR
  2
AcDbRasterImageDefReactor
  3
ISM
 90
        1
280
     0
281
     0
  0
CLASS
  1
IDBUFFER
  2
AcDbIdBuffer
  3
ObjectDBX Classes
 90
        0
280
     0
281
     0
  0
CLASS
  1
SPATIAL_FILTER
  2
AcDbSpatialFilter
  3
ObjectDBX Classes
 90
        0
280
     0
281
     0
  0
CLASS
  1
SORTENTSTABLE
  2
AcDbSortentsTable
  3
ObjectDBX Classes
 90
        0
280
     0
281
     0
  0
CLASS
  1
LAYER_INDEX
  2
AcDbLayerIndex
  3
ObjectDBX Classes
 90
        0
280
     0
281
     0
  0
CLASS
  1
SPATIAL_INDEX
  2
AcDbSpatialIndex
  3
AutoCAD 2000
 90
        0
280
     0
281
     0
  0
CLASS
  1
OBJECT_PTR
  2
CAseDLPNTableRecord
  3
ASE-LPNTableRecord
 90
        1
280
     0
281
     0
  0
CLASS
  1
LAYOUT
  2
AcDbLayout
  3
ObjectDBX Classes
 90
        0
280
     0
281
     0
  0
CLASS
  1
PLOTSETTINGS
  2
AcDbPlotSettings
  3
ObjectDBX Classes
 90
        0
280
     0
281
     0
  0
CLASS
  1
ACDBDICTIONARYWDFLT
  2
AcDbDictionaryWithDefault
  3
ObjectDBX Classes
 90
        0
280
     0
281
     0
  0
CLASS
  1
ACDBPLACEHOLDER
  2
AcDbPlaceHolder
  3
ObjectDBX Classes
 90
        0
280
     0
281
     0
  0
CLASS
  1
VBA_PROJECT
  2
AcDbVbaProject
  3
ObjectDBX Classes
 90
        0
280
     0
281
     0
  0
CLASS
  1
WIPEOUT
  2
AcDbWipeout
  3
WipeOut|AutoCAD Express Tool|expresstools@autodesk.com
 90
      127
280
     0
281
     1
  0
CLASS
  1
WIPEOUTVARIABLES
  2
AcDbWipeoutVariables
  3
WipeOut|AutoCAD Express Tool|expresstools@autodesk.com
 90
        0
280
     0
281
     0
  0
CLASS
  1
RTEXT
  2
RText
  3
RText|AutoCAD Express Tool|expresstools@autodesk.com
 90
        0
280
     0
281
     1
  0
CLASS
  1
ARCALIGNEDTEXT
  2
AcDbArcAlignedText
  3
ATEXT|AutoCAD Express Tool|expresstools@autodesk.com
 90
        0
280
     0
281
     1
  0
CLASS
  1
MATERIAL
  2
AcDbMaterial
  3
ObjectDBX Classes
 90
     1153
280
     0
281
     0
  0
CLASS
  1
VISUALSTYLE
  2
AcDbVisualStyle
  3
ObjectDBX Classes
 90
     4095
280
     0
281
     0
  0
CLASS
  1
TABLESTYLE
  2
AcDbTableStyle
  3
ObjectDBX Classes
 90
     4095
280
     0
281
     0
  0
CLASS
  1
SCALE
  2
AcDbScale
  3
ObjectDBX Classes
 90
     1153
280
     0
281
     0
  0
CLASS
  1
MLEADERSTYLE
  2
AcDbMLeaderStyle
  3
ACDB_MLEADERSTYLE_CLASS
 90
     4095
280
     0
281
     0
  0
CLASS
  1
CELLSTYLEMAP
  2
AcDbCellStyleMap
  3
ObjectDBX Classes
 90
     1152
280
     0
281
     0
  0
CLASS
  1
SUN
  2
AcDbSun
  3
SCENEOE
 90
     1153
280
     0
281
     0
  0
ENDSEC
  0
SECTION
  2
TABLES
  0
TABLE
  2
VPORT
  5
7
330
0
100
AcDbSymbolTable
 70
     1
  0
VPORT
  5
15
330
7
100
AcDbSymbolTableRecord
100
AcDbViewportTableRecord
  2
*ACTIVE
 70
     0
 10
0.0
 20
0.0
 11
1.0
 21
1.0
 12
18.30630207465464
 22
-43.37057940409227
 13
0.0
 23
0.0
 14
1.0
 24
1.0
 15
0.0
 25
0.0
 16
0.0
 26
0.0
 36
1.0
 17
0.0
 27
0.0
 37
0.0
 40
239.4119039435448
 41
2.271393643031785
 42
50.0
 43
0.0
 44
0.0
 50
0.0
 51
0.0
 71
    16
 72
   100
 73
     1
 74
     1
 75
     0
 76
     0
 77
     0
 78
     0
281
     0
 65
     0
110
0.0
120
0.0
130
0.0
111
1.0
121
0.0
131
0.0
112
0.0
122
1.0
132
0.0
 79
     0
146
0.0
  0
ENDTAB
  0
TABLE
  2
LTYPE
  5
4
330
0
100
AcDbSymbolTable
 70
     2
  0
LTYPE
  5
11
330
4
100
AcDbSymbolTableRecord
100
AcDbLinetypeTableRecord
  2
ByBlock
 70
     0
  3

 72
    65
 73
     0
 40
0.0
  0
LTYPE
  5
12
330
4
100
AcDbSymbolTableRecord
100
AcDbLinetypeTableRecord
  2
ByLayer
 70
     0
  3

 72
    65
 73
     0
 40
0.0
  0
LTYPE
  5
13
330
4
100
AcDbSymbolTableRecord
100
AcDbLinetypeTableRecord
  2
Continuous
 70
     0
  3
Solid line
 72
    65
 73
     0
 40
0.0
  0
LTYPE
  5
D81
330
4
100
AcDbSymbolTableRecord
100
AcDbLinetypeTableRecord
  2
CENTER
 70
     0
  3
Center ____ _ ____ _ ____ _ ____ _ ____ _ ____
 72
    65
 73
     4
 40
10.16
 49
6.35
 74
     0
 49
-1.27
 74
     0
 49
1.27
 74
     0
 49
-1.27
 74
     0
  0
ENDTAB
  0
TABLE
  2
LAYER
  5
2
330
0
100
AcDbSymbolTable
 70
     2
  0
LAYER
  5
14
102
{ACAD_XDICTIONARY
360
546
102
}
330
2
100
AcDbSymbolTableRecord
100
AcDbLayerTableRecord
  2
0
 70
     0
 62
     7
  6
Continuous
370
    -3
390
1D
  0
LAYER
  5
CFF
330
2
100
AcDbSymbolTableRecord
100
AcDbLayerTableRecord
  2
Defpoints
 70
     0
 62
     7
  6
Continuous
290
     0
370
    -3
390
1D
  0
ENDTAB
  0
TABLE
  2
STYLE
  5
3
330
0
100
AcDbSymbolTable
 70
     8
  0
STYLE
  5
17
330
3
100
AcDbSymbolTableRecord
100
AcDbTextStyleTableRecord
  2
Standard
 70
     0
 40
0.0
 41
1.0
 50
0.0
 71
     0
 42
0.0
  3
I011000D.TTF
  4

1001
ACAD
1000
IsonormD
1071
        0
  0
STYLE
  5
D84
330
3
100
AcDbSymbolTableRecord
100
AcDbTextStyleTableRecord
  2
SLDTEXTSTYLE0
 70
     0
 40
0.0
 41
0.605
 50
0.0
 71
     0
 42
0.0
  3
TXT
  4

  0
STYLE
  5
D85
330
3
100
AcDbSymbolTableRecord
100
AcDbTextStyleTableRecord
  2
SLDTEXTSTYLE1
 70
     0
 40
0.0
 41
0.4022345870470147
 50
0.0
 71
     0
 42
0.0
  3
TXT
  4

  0
STYLE
  5
D86
330
3
100
AcDbSymbolTableRecord
100
AcDbTextStyleTableRecord
  2
SLDTEXTSTYLE2
 70
     0
 40
0.0
 41
0.609090909090909
 50
0.0
 71
     0
 42
0.0
  3
TXT
  4

  0
STYLE
  5
D87
330
3
100
AcDbSymbolTableRecord
100
AcDbTextStyleTableRecord
  2
SLDTEXTSTYLE3
 70
     0
 40
0.0
 41
0.7
 50
0.0
 71
     0
 42
0.0
  3
TXT
  4

  0
STYLE
  5
D88
330
3
100
AcDbSymbolTableRecord
100
AcDbTextStyleTableRecord
  2
SLDTEXTSTYLE4
 70
     0
 40
0.0
 41
0.57
 50
0.0
 71
     0
 42
0.0
  3
TXT
  4

  0
STYLE
  5
D89
330
3
100
AcDbSymbolTableRecord
100
AcDbTextStyleTableRecord
  2
SLDTEXTSTYLE5
 70
     0
 40
0.0
 41
0.75
 50
0.0
 71
     0
 42
0.0
  3
TXT
  4

  0
STYLE
  5
D8A
330
3
100
AcDbSymbolTableRecord
100
AcDbTextStyleTableRecord
  2
SLDTEXTSTYLE6
 70
     0
 40
0.0
 41
0.5053081188670516
 50
0.0
 71
     0
 42
0.0
  3
TXT
  4

  0
ENDTAB
  0
TABLE
  2
VIEW
  5
5
330
0
100
AcDbSymbolTable
 70
     0
  0
ENDTAB
  0
TABLE
  2
UCS
  5
6
330
0
100
AcDbSymbolTable
 70
     0
  0
ENDTAB
  0
TABLE
  2
APPID
  5
8
330
0
100
AcDbSymbolTable
 70
     5
  0
APPID
  5
16
330
8
100
AcDbSymbolTableRecord
100
AcDbRegAppTableRecord
  2
ACAD
 70
     0
  0
APPID
  5
26
330
8
100
AcDbSymbolTableRecord
100
AcDbRegAppTableRecord
  2
TopSolid_Draft
 70
     0
  0
APPID
  5
53E
330
8
100
AcDbSymbolTableRecord
100
AcDbRegAppTableRecord
  2
ACAD_MLEADERVER
 70
     0
  0
APPID
  5
544
330
8
100
AcDbSymbolTableRecord
100
AcDbRegAppTableRecord
  2
DCO15
 70
     0
  0
APPID
  5
D5B
330
8
100
AcDbSymbolTableRecord
100
AcDbRegAppTableRecord
  2
ACAD_EXEMPT_FROM_CAD_STANDARDS
 70
     0
  0
ENDTAB
  0
TABLE
  2
DIMSTYLE
  5
9
330
0
100
AcDbSymbolTable
 70
     2
100
AcDbDimStyleTable
  0
DIMSTYLE
105
18
330
9
100
AcDbSymbolTableRecord
100
AcDbDimStyleTableRecord
  2
Standard
 70
     0
 41
1.25
 42
0.0
 44
0.75
 73
     0
 74
     0
 77
     1
140
2.5
146
0.8
147
1.25
176
     7
177
     7
271
     2
178
     7
271
     2
340
17
  0
DIMSTYLE
105
D82
330
9
100
AcDbSymbolTableRecord
100
AcDbDimStyleTableRecord
  2
ISO-25
 70
     0
 41
2.5
 42
0.625
 43
3.75
 44
1.25
 73
     0
 74
     0
 77
     1
 78
     8
140
2.5
141
2.5
143
0.03937007874016
147
0.625
171
     3
172
     1
178
     0
271
     2
272
     2
274
     3
278
    44
283
     0
284
     8
340
17
  0
ENDTAB
  0
TABLE
  2
BLOCK_RECORD
  5
1
330
0
100
AcDbSymbolTable
 70
     5
  0
BLOCK_RECORD
  5
A
102
{ACAD_XDICTIONARY
360
90F
102
}
330
1
100
AcDbSymbolTableRecord
100
AcDbBlockTableRecord
  2
*MODEL_SPACE
340
20
  0
BLOCK_RECORD
  5
B
330
1
100
AcDbSymbolTableRecord
100
AcDbBlockTableRecord
  2
*PAPER_SPACE
340
21
  0
BLOCK_RECORD
  5
E12
330
1
100
AcDbSymbolTableRecord
100
AcDbBlockTableRecord
  2
SW_NOTE_0
340
0
  0
BLOCK_RECORD
  5
E1E
330
1
100
AcDbSymbolTableRecord
100
AcDbBlockTableRecord
  2
SW_NOTE_1
340
0
  0
BLOCK_RECORD
  5
E3B
330
1
100
AcDbSymbolTableRecord
100
AcDbBlockTableRecord
  2
SW_NOTE_2
340
0
  0
BLOCK_RECORD
  5
E43
330
1
100
AcDbSymbolTableRecord
100
AcDbBlockTableRecord
  2
SW_NOTE_3
340
0
  0
ENDTAB
  0
ENDSEC
  0
SECTION
  2
BLOCKS
  0
BLOCK
  5
D
330
A
100
AcDbEntity
  8
0
100
AcDbBlockBegin
  2
*MODEL_SPACE
 70
     0
 10
0.0
 20
0.0
 30
0.0
  3
*MODEL_SPACE
  1
*MODEL_SPACE
  0
ENDBLK
  5
E
330
A
100
AcDbEntity
  8
0
100
AcDbBlockEnd
  0
BLOCK
  5
F
330
B
100
AcDbEntity
 67
     1
  8
0
100
AcDbBlockBegin
  2
*PAPER_SPACE
 70
     0
 10
0.0
 20
0.0
 30
0.0
  3
*PAPER_SPACE
  1
*PAPER_SPACE
  0
ENDBLK
  5
10
330
B
100
AcDbEntity
 67
     1
  8
0
100
AcDbBlockEnd
  0
BLOCK
  5
E13
330
E12
100
AcDbEntity
  8
0
100
AcDbBlockBegin
  2
SW_NOTE_0
 70
     0
 10
0.0
 20
0.0
 30
0.0
  3
SW_NOTE_0
  1
SW_NOTE_0
  0
MTEXT
  5
E14
330
E12
100
AcDbEntity
  8
0
  6
Continuous
 62
     0
370
     0
100
AcDbMText
 10
0.0
 20
2.387460876369325
 30
0.0
 40
1.852083333333333
 41
0.0
 71
     1
 72
     1
  1
FINITURA
  7
SLDTEXTSTYLE0
 73
     1
 44
1.0
  0
MTEXT
  5
E15
330
E12
100
AcDbEntity
  8
0
  6
Continuous
 62
     0
370
     0
100
AcDbMText
 10
0.0
 20
-0.0819835382314046
 30
0.0
 40
1.852083333333333
 41
0.0
 71
     1
 72
     1
  1
SPECIFICA:
  7
SLDTEXTSTYLE0
 73
     1
 44
1.0
  0
ENDBLK
  5
E16
330
E12
100
AcDbEntity
  8
0
100
AcDbBlockEnd
  0
BLOCK
  5
E1F
330
E1E
100
AcDbEntity
  8
0
100
AcDbBlockBegin
  2
SW_NOTE_1
 70
     0
 10
0.0
 20
0.0
 30
0.0
  3
SW_NOTE_1
  1
SW_NOTE_1
  0
MTEXT
  5
E20
330
E1E
100
AcDbEntity
  8
0
  6
Continuous
 62
     0
370
     0
100
AcDbMText
 10
0.0
 20
2.387460876369325
 30
0.0
 40
1.852083333333333
 41
0.0
 71
     1
 72
     1
  1
CROMATURA
  7
SLDTEXTSTYLE0
 73
     1
 44
1.0
  0
MTEXT
  5
E21
330
E1E
100
AcDbEntity
  8
0
  6
Continuous
 62
     0
370
     0
100
AcDbMText
 10
0.0
 20
-0.0819835382314046
 30
0.0
 40
1.852083333333333
 41
0.0
 71
     1
 72
     1
  1
A KANBAN
  7
SLDTEXTSTYLE0
 73
     1
 44
1.0
  0
ENDBLK
  5
E22
330
E1E
100
AcDbEntity
  8
0
100
AcDbBlockEnd
  0
BLOCK
  5
E3C
330
E3B
100
AcDbEntity
  8
0
100
AcDbBlockBegin
  2
SW_NOTE_2
 70
     0
 10
0.0
 20
0.0
 30
0.0
  3
SW_NOTE_2
  1
SW_NOTE_2
  0
MTEXT
  5
E3D
330
E3B
100
AcDbEntity
  8
0
  6
Continuous
 62
     0
370
     0
100
AcDbMText
 10
0.0
 20
2.728526715850658
 30
0.0
 40
2.116666666666666
 41
0.0
 71
     1
 72
     1
  1
Approvato:
  7
SLDTEXTSTYLE0
 73
     1
 44
1.0
  0
MTEXT
  5
E3E
330
E3B
100
AcDbEntity
  8
0
  6
Continuous
 62
     0
370
     0
100
AcDbMText
 10
15.84560198038817
 20
2.728526715850658
 30
0.0
 40
2.116666666666666
 41
0.0
 71
     1
 72
     1
  1
A. Biasotti
  7
SLDTEXTSTYLE0
 73
     1
 44
1.0
  0
ENDBLK
  5
E3F
330
E3B
100
AcDbEntity
  8
0
100
AcDbBlockEnd
  0
BLOCK
  5
E44
330
E43
100
AcDbEntity
  8
0
100
AcDbBlockBegin
  2
SW_NOTE_3
 70
     0
 10
0.0
 20
0.0
 30
0.0
  3
SW_NOTE_3
  1
SW_NOTE_3
  0
MTEXT
  5
E45
330
E43
100
AcDbEntity
  8
0
  6
Continuous
 62
     0
370
     0
100
AcDbMText
 10
0.0
 20
2.449228705566728
 30
0.0
 40
1.9
 41
0.0
 71
     1
 72
     1
  1
Dimensioni in mm   -
  7
SLDTEXTSTYLE0
 73
     1
 44
1.0
  0
MTEXT
  5
E46
330
E43
100
AcDbEntity
  8
0
  6
Continuous
 62
     0
370
     0
100
AcDbMText
 10
25.96666663885117
 20
2.449228705566728
 30
0.0
 40
1.9
 41
0.0
 71
     1
 72
     1
  1
NB
  7
SLDTEXTSTYLE0
 73
     1
 44
1.0
  0
MTEXT
  5
E47
330
E43
100
AcDbEntity
  8
0
  6
Continuous
 62
     0
370
     0
100
AcDbMText
 10
29.73500080406666
 20
2.449228705566728
 30
0.0
 40
1.9
 41
0.0
 71
     1
 72
     1
  1
:  LE QUOTE INDICATE A DISEGNO SI RIFERISCONO ALLA LAVORAZIONE MECCANICA. - PRIMA DEI TRATTAMENTI SUPERFICIALI
  7
SLDTEXTSTYLE0
 73
     1
 44
1.0
  0
ENDBLK
  5
E48
330
E43
100
AcDbEntity
  8
0
100
AcDbBlockEnd
  0
ENDSEC
  0
SECTION
  2
ENTITIES
  0
MTEXT
  5
B28
330
A
100
AcDbEntity
  8
0
 62
     7
100
AcDbMText
 10
-4.043609695196267
 20
37.43311202376609
 30
0.0
 40
15.0
 41
130.791209
 71
     7
 72
     1
  1
{8PT8-37}
 73
     1
 44
1.0
1001
ACAD
1000
ACAD_MTEXT_DEFINED_HEIGHT_BEGIN
1070
    46
1040
15.0
1000
ACAD_MTEXT_DEFINED_HEIGHT_END
  0
ARC
  5
FF8
330
A
100
AcDbEntity
  8
0
  6
Continuous
 62
     7
100
AcDbCircle
 10
3.749999999997613
 20
0.5
 30
0.0
 40
0.5000000000000138
100
AcDbArc
 50
270.0
 51
4.597634251651046
  0
ARC
  5
FFD
330
A
100
AcDbEntity
  8
0
  6
Continuous
 62
     7
100
AcDbCircle
 10
2.950000572923727
 20
-11.75000007293204
 30
0.0
 40
0.2500000000000003
100
AcDbArc
 50
180.0000027951134
 51
0.0000027950873314
  0
ARC
  5
FFF
330
A
100
AcDbEntity
  8
0
  6
Continuous
 62
     7
100
AcDbCircle
 10
14.40331207030135
 20
5.352350755110251
 30
0.0
 40
11.63956424098606
100
AcDbArc
 50
213.0762746391339
 51
260.3391871399538
  0
ARC
  5
1000
330
A
100
AcDbEntity
  8
0
  6
Continuous
 62
     7
100
AcDbCircle
 10
12.48357961096826
 20
-5.92498303032994
 30
0.0
 40
0.2000000000000103
100
AcDbArc
 50
260.3391871399371
 51
71.07155410769154
  0
LINE
  5
1002
330
A
100
AcDbEntity
  8
0
  6
Continuous
 62
     7
100
AcDbLine
 10
3.749999999997613
 20
0.0
 30
0.0
 11
-3.749999999997613
 21
0.0
 31
0.0
  0
LINE
  5
1008
330
A
100
AcDbEntity
  8
0
  6
Continuous
 62
     7
100
AcDbLine
 10
-2.35000004750043
 20
-0.9999999402712092
 30
0.0
 11
2.700000048499646
 21
-0.9999999402712092
 31
0.0
  0
LINE
  5
100B
330
A
100
AcDbEntity
  8
0
  6
Continuous
 62
     7
100
AcDbLine
 10
3.200000048499646
 20
-0.9999999402712092
 30
0.0
 11
4.649999998859755
 21
-0.9999999402712092
 31
0.0
  0
LINE
  5
100C
330
A
100
AcDbEntity
  8
0
  6
Continuous
 62
     7
100
AcDbLine
 10
3.200000048499646
 20
-0.9999999402712092
 30
0.0
 11
3.200000572923727
 21
-11.75000006073617
 31
0.0
  0
LINE
  5
100E
330
A
100
AcDbEntity
  8
0
  6
Continuous
 62
     7
100
AcDbLine
 10
2.700000048499646
 20
-0.9999999402712092
 30
0.0
 11
2.700000572923727
 21
-11.75000008512802
 31
0.0
  0
LINE
  5
1010
330
A
100
AcDbEntity
  8
0
  6
Continuous
 62
     7
370
    15
100
AcDbLine
 10
-5.333938376081164
 20
-0.9999999402712092
 30
0.0
 11
-3.550000001168883
 21
-0.9999999402712092
 31
0.0
  0
ARC
  5
1011
330
A
100
AcDbEntity
  8
0
  6
Continuous
 62
     7
370
    15
100
AcDbCircle
 10
-5.333938376081164
 20
-0.7999999402711637
 30
0.0
 40
0.1999999999999986
100
AcDbArc
 50
180.4525796544847
 51
270.0
  0
LINE
  5
1012
330
A
100
AcDbEntity
  8
0
  6
Continuous
 62
     7
370
    15
100
AcDbLine
 10
-5.579604735953467
 20
4.980369874054986
 30
0.0
 11
-5.533932136685394
 21
-0.8015797248624494
 31
0.0
  0
ARC
  5
1013
330
A
100
AcDbEntity
  8
0
  6
Continuous
 62
     7
370
    15
100
AcDbCircle
 10
-2.579698902917812
 20
5.004066638374638
 30
0.0
 40
2.999999423953387
100
AcDbArc
 50
123.3425308293461
 51
180.4525796544967
  0
ARC
  5
1014
330
A
100
AcDbEntity
  8
0
  6
Continuous
 62
     7
370
    15
100
AcDbCircle
 10
-4.14618138994399
 20
7.384954988211916
 30
0.0
 40
0.1499999999972728
100
AcDbArc
 50
356.927782587964
 51
123.3425308293473
  0
LINE
  5
1015
330
A
100
AcDbEntity
  8
0
  6
Continuous
 62
     7
370
    15
100
AcDbLine
 10
-4.085153655513409
 20
5.723221432117725
 30
0.0
 11
-3.996396973603282
 21
7.376915795425589
 31
0.0
  0
ARC
  5
1016
330
A
100
AcDbEntity
  8
0
  6
Continuous
 62
     7
370
    15
100
AcDbCircle
 10
-4.284866210638029
 20
5.733940355832942
 30
0.0
 40
0.2000000000000333
100
AcDbArc
 50
257.8136841470906
 51
356.927782587988
  0
LINE
  5
1017
330
A
100
AcDbEntity
  8
0
  6
Continuous
 62
     7
370
    15
100
AcDbLine
 10
-4.291980177934022
 20
0.5397727695421963
 30
0.0
 11
-4.327084480807571
 21
5.538447088266253
 31
0.0
  0
ARC
  5
1018
330
A
100
AcDbEntity
  8
0
  6
Continuous
 62
     7
370
    15
100
AcDbCircle
 10
-3.748403423726472
 20
0.5435901582733322
 30
0.0
 40
0.5435901582733038
100
AcDbArc
 50
180.4023657483638
 51
270.0
  0
LINE
  5
1019
330
A
100
AcDbEntity
  8
0
  6
Continuous
 62
     7
370
    15
100
AcDbLine
 10
3.749999999984709
 20
0.0
 30
0.0
 11
-3.748403423726472
 21
0.0
 31
0.0
  0
ARC
  5
101A
330
A
100
AcDbEntity
  8
0
  6
Continuous
 62
     7
370
    15
100
AcDbCircle
 10
3.749999999984709
 20
0.498083893090552
 30
0.0
 40
0.4980838930904997
100
AcDbArc
 50
270.0
 51
359.5976342516365
  0
LINE
  5
101B
330
A
100
AcDbEntity
  8
0
  6
Continuous
 62
     7
370
    15
100
AcDbLine
 10
4.283461632724425
 20
5.533945288050973
 30
0.0
 11
4.248071611121361
 21
0.494586074353947
 31
0.0
  0
ARC
  5
101C
330
A
100
AcDbEntity
  8
0
  6
Continuous
 62
     7
370
    15
100
AcDbCircle
 10
4.284866142583269
 20
5.73394035636818
 30
0.0
 40
0.1999999999978952
100
AcDbArc
 50
183.0722174120127
 51
269.5976342567767
  0
LINE
  5
101D
330
A
100
AcDbEntity
  8
0
  6
Continuous
 62
     7
370
    15
100
AcDbLine
 10
3.996396905550966
 20
7.376915795954687
 30
0.0
 11
4.085153587460752
 21
5.723221432653077
 31
0.0
  0
ARC
  5
101E
330
A
100
AcDbEntity
  8
0
  6
Continuous
 62
     7
370
    15
100
AcDbCircle
 10
4.146181321895313
 20
7.384954988741242
 30
0.0
 40
0.1500000000009243
100
AcDbArc
 50
56.65746917159576
 51
183.0722174120482
  0
ARC
  5
101F
330
A
100
AcDbEntity
  8
0
  6
Continuous
 62
     7
370
    15
100
AcDbCircle
 10
2.57969851828534
 20
5.004066157655416
 30
0.0
 40
3.00000000000003
100
AcDbArc
 50
359.5976342516415
 51
56.65746917148287
  0
LINE
  5
1020
330
A
100
AcDbEntity
  8
0
  6
Continuous
 62
     7
370
    15
100
AcDbLine
 10
5.555213967655391
 20
1.507056631738919
 30
0.0
 11
5.579624543073521
 21
4.982998509503545
 31
0.0
  0
ARC
  5
1021
330
A
100
AcDbEntity
  8
0
  6
Continuous
 62
     7
370
    15
100
AcDbCircle
 10
16.136022874395
 20
4.725673084406026
 30
0.0
 40
11.05952119172979
100
AcDbArc
 50
196.9194357388179
 51
251.0715541077233
  0
ARC
  5
1022
330
A
100
AcDbEntity
  8
0
  6
Continuous
 62
     7
370
    15
100
AcDbCircle
 10
12.4835796109553
 20
-5.92498303032994
 30
0.0
 40
0.2000000000000176
100
AcDbArc
 50
260.3391871399705
 51
71.07155410767481
  0
ARC
  5
1023
330
A
100
AcDbEntity
  8
0
  6
Continuous
 62
     7
370
    15
100
AcDbCircle
 10
14.40331207028845
 20
5.352350755110251
 30
0.0
 40
11.6395642409861
100
AcDbArc
 50
213.076274639134
 51
260.3391871399538
  0
LINE
  5
1024
330
A
100
AcDbEntity
  8
0
  6
Continuous
 62
     7
370
    15
100
AcDbLine
 10
3.2000000484868
 20
-0.9999999402712092
 30
0.0
 11
4.649999998846852
 21
-0.9999999402712092
 31
0.0
  0
LINE
  5
1025
330
A
100
AcDbEntity
  8
0
  6
Continuous
 62
     7
370
    15
100
AcDbLine
 10
3.20000057291071
 20
-11.75000006073651
 30
0.0
 11
3.2000000484868
 21
-0.9999999402712092
 31
0.0
  0
ARC
  5
1026
330
A
100
AcDbEntity
  8
0
  6
Continuous
 62
     7
370
    15
100
AcDbCircle
 10
2.95000057291071
 20
-11.75000007293238
 30
0.0
 40
0.2500000000000003
100
AcDbArc
 50
180.0000027950873
 51
0.0000027950873314
  0
LINE
  5
1027
330
A
100
AcDbEntity
  8
0
  6
Continuous
 62
     7
370
    15
100
AcDbLine
 10
2.700000048486686
 20
-0.9999999402715503
 30
0.0
 11
2.70000057291071
 21
-11.75000008512825
 31
0.0
  0
LINE
  5
1028
330
A
100
AcDbEntity
  8
0
  6
Continuous
 62
     7
370
    15
100
AcDbLine
 10
-2.350000001168951
 20
-0.9999999402715503
 30
0.0
 11
2.700000048486686
 21
-0.9999999402715503
 31
0.0
  0
LINE
  5
1029
330
A
100
AcDbEntity
  8
0
  6
Continuous
 62
     7
370
    15
100
AcDbLine
 10
-2.349999688953687
 20
-7.399999911001373
 30
0.0
 11
-2.350000001168951
 21
-0.9999999402715503
 31
0.0
  0
ARC
  5
102A
330
A
100
AcDbEntity
  8
0
  6
Continuous
 62
     7
370
    15
100
AcDbCircle
 10
-2.94999968895371
 20
-7.399999940271528
 30
0.0
 40
0.599999999999995
100
AcDbArc
 50
180.0000027950938
 51
0.0000027950938452
  0
LINE
  5
102B
330
A
100
AcDbEntity
  8
0
  6
Continuous
 62
     7
370
    15
100
AcDbLine
 10
-3.550000001168883
 20
-0.9999999402712092
 30
0.0
 11
-3.549999688953676
 21
-7.399999969541682
 31
0.0
  0
LINE
  5
102C
330
A
100
AcDbEntity
  8
0
  6
Continuous
 62
     7
370
    15
100
AcDbLine
 10
3.996181321894369
 20
-35.32591526988153
 30
0.0
 11
3.996181321894369
 21
-135.3259152698815
 31
0.0
  0
LINE
  5
102D
330
A
100
AcDbEntity
  8
0
  6
Continuous
 62
     7
370
    15
100
AcDbLine
 10
-3.996181389946685
 20
-135.3259152698815
 30
0.0
 11
-3.996181389946685
 21
-35.32591526988153
 31
0.0
  0
LINE
  5
102E
330
A
100
AcDbEntity
  8
0
  6
Continuous
 62
     7
370
    15
100
AcDbLine
 10
12.68357961095535
 20
-135.3259152698815
 30
0.0
 11
12.68357961095535
 21
-35.32591526988153
 31
0.0
  0
LINE
  5
102F
330
A
100
AcDbEntity
  8
0
  6
Continuous
 62
     7
370
    15
100
AcDbLine
 10
4.228627785243475
 20
-135.3259152698815
 30
0.0
 11
3.996181321894369
 21
-135.3259152698815
 31
0.0
  0
LINE
  5
1030
330
A
100
AcDbEntity
  8
0
  6
Continuous
 62
     7
370
    15
100
AcDbLine
 10
4.228627785243475
 20
-35.32591526988153
 30
0.0
 11
3.996181321894369
 21
-35.32591526988153
 31
0.0
  0
LINE
  5
1031
330
A
100
AcDbEntity
  8
0
  6
Continuous
 62
     7
370
    15
100
AcDbLine
 10
-3.996181389946685
 20
-135.3259152698815
 30
0.0
 11
-4.22862785329221
 21
-135.3259152698815
 31
0.0
  0
LINE
  5
1032
330
A
100
AcDbEntity
  8
0
  6
Continuous
 62
     7
370
    15
100
AcDbLine
 10
-3.996181389946685
 20
-35.32591526988153
 30
0.0
 11
-4.22862785329221
 21
-35.32591526988153
 31
0.0
  0
LINE
  5
1033
330
A
100
AcDbEntity
  8
0
  6
Continuous
 62
     7
370
    15
100
AcDbLine
 10
5.579624543073521
 20
-135.3259152698815
 30
0.0
 11
5.579624543073521
 21
-35.32591526988153
 31
0.0
  0
LINE
  5
1034
330
A
100
AcDbEntity
  8
0
  6
Continuous
 62
     7
370
    15
100
AcDbLine
 10
5.579624543073521
 20
-135.3259152698815
 30
0.0
 11
4.228627785243475
 21
-135.3259152698815
 31
0.0
  0
LINE
  5
1035
330
A
100
AcDbEntity
  8
0
  6
Continuous
 62
     7
370
    15
100
AcDbLine
 10
5.579624543073521
 20
-35.32591526988153
 30
0.0
 11
4.228627785243475
 21
-35.32591526988153
 31
0.0
  0
LINE
  5
1036
330
A
100
AcDbEntity
  8
0
  6
Continuous
 62
     7
370
    15
100
AcDbLine
 10
-5.579604735953467
 20
-135.3259152698815
 30
0.0
 11
-5.579604735953467
 21
-35.32591526988153
 31
0.0
  0
LINE
  5
1037
330
A
100
AcDbEntity
  8
0
  6
Continuous
 62
     7
370
    15
100
AcDbLine
 10
-4.22862785329221
 20
-135.3259152698815
 30
0.0
 11
-5.579604735953467
 21
-135.3259152698815
 31
0.0
  0
LINE
  5
1038
330
A
100
AcDbEntity
  8
0
  6
Continuous
 62
     7
370
    15
100
AcDbLine
 10
-4.22862785329221
 20
-35.32591526988153
 30
0.0
 11
-5.579604735953467
 21
-35.32591526988153
 31
0.0
  0
LINE
  5
1039
330
A
100
AcDbEntity
  8
0
  6
Continuous
 62
     7
370
    15
100
AcDbLine
 10
12.54845702805414
 20
-135.3259152698815
 30
0.0
 11
5.555213967655391
 21
-135.3259152698815
 31
0.0
  0
LINE
  5
103A
330
A
100
AcDbEntity
  8
0
  6
Continuous
 62
     7
370
    15
100
AcDbLine
 10
12.54845702805414
 20
-35.32591526988153
 30
0.0
 11
5.555213967655391
 21
-35.32591526988153
 31
0.0
  0
LINE
  5
103B
330
A
100
AcDbEntity
  8
0
  6
Continuous
 62
     7
370
    15
100
AcDbLine
 10
-3.748403423726472
 20
-135.3259152698815
 30
0.0
 11
-3.996181389946685
 21
-135.3259152698815
 31
0.0
  0
LINE
  5
103C
330
A
100
AcDbEntity
  8
0
  6
Continuous
 62
     7
370
    15
100
AcDbLine
 10
-3.748403423726472
 20
-35.32591526988153
 30
0.0
 11
-3.996181389946685
 21
-35.32591526988153
 31
0.0
  0
LINE
  5
103D
330
A
100
AcDbEntity
  8
0
  6
Continuous
 62
     7
370
    15
100
AcDbLine
 10
3.996181321894369
 20
-135.3259152698815
 30
0.0
 11
3.749999999984709
 21
-135.3259152698815
 31
0.0
  0
LINE
  5
103E
330
A
100
AcDbEntity
  8
0
  6
Continuous
 62
     7
370
    15
100
AcDbLine
 10
3.996181321894369
 20
-35.32591526988153
 30
0.0
 11
3.749999999984709
 21
-35.32591526988153
 31
0.0
  0
LINE
  5
103F
330
A
100
AcDbEntity
  8
0
  6
Continuous
 62
     7
370
    15
100
AcDbLine
 10
3.749999999984709
 20
-135.3259152698815
 30
0.0
 11
-3.748403423726472
 21
-135.3259152698815
 31
0.0
  0
LINE
  5
1040
330
A
100
AcDbEntity
  8
0
  6
Continuous
 62
     7
370
    15
100
AcDbLine
 10
3.749999999984709
 20
-35.32591526988153
 30
0.0
 11
-3.748403423726472
 21
-35.32591526988153
 31
0.0
  0
LINE
  5
1041
330
A
100
AcDbEntity
  8
0
  6
Continuous
 62
     7
370
    15
100
AcDbLine
 10
12.68357961095535
 20
-135.3259152698815
 30
0.0
 11
12.54845702805414
 21
-135.3259152698815
 31
0.0
  0
LINE
  5
1042
330
A
100
AcDbEntity
  8
0
  6
Continuous
 62
     7
370
    15
100
AcDbLine
 10
12.68357961095535
 20
-35.32591526988153
 30
0.0
 11
12.54845702805414
 21
-35.32591526988153
 31
0.0
  0
LINE
  5
1043
330
A
100
AcDbEntity
  8
0
  6
Continuous
 62
     7
370
     0
100
AcDbLine
 10
4.228627785243475
 20
-135.3259152698815
 30
0.0
 11
4.228627785243475
 21
-35.32591526988153
 31
0.0
  0
LINE
  5
1044
330
A
100
AcDbEntity
  8
0
  6
Continuous
 62
     7
370
     0
100
AcDbLine
 10
-4.22862785329221
 20
-135.3259152698815
 30
0.0
 11
-4.22862785329221
 21
-35.32591526988153
 31
0.0
  0
LINE
  5
1045
330
A
100
AcDbEntity
  8
0
  6
Continuous
 62
     7
370
     0
100
AcDbLine
 10
12.54845702805414
 20
-135.3259152698815
 30
0.0
 11
12.54845702805414
 21
-35.32591526988153
 31
0.0
  0
LINE
  5
1046
330
A
100
AcDbEntity
  8
0
  6
Continuous
 62
     7
370
     0
100
AcDbLine
 10
-3.748403423726472
 20
-135.3259152698815
 30
0.0
 11
-3.748403423726472
 21
-35.32591526988153
 31
0.0
  0
LINE
  5
1047
330
A
100
AcDbEntity
  8
0
  6
Continuous
 62
     7
370
     0
100
AcDbLine
 10
3.749999999984709
 20
-135.3259152698815
 30
0.0
 11
3.749999999984709
 21
-35.32591526988153
 31
0.0
  0
LWPOLYLINE
  5
1048
330
A
100
AcDbEntity
  8
0
  6
Continuous
 62
     7
100
AcDbPolyline
 90
        9
 70
   128
 43
0.0
 10
43.71917798717561
 20
-49.68757241121034
 10
43.63458969110707
 20
-49.47753256885301
 10
43.59587237606127
 20
-49.26305247666483
 10
43.60362630722466
 20
-49.04745738931297
 10
43.65773126926399
 20
-48.83408984811729
 10
43.75734843011924
 20
-48.62625785898626
 10
43.90093334608156
 20
-48.42718360578226
 10
44.08625990652655
 20
-48.23995349425434
 10
44.31045484706965
 20
-48.06747030104623
  0
LWPOLYLINE
  5
1049
330
A
100
AcDbEntity
  8
0
  6
Continuous
 62
     7
100
AcDbPolyline
 90
        9
 70
   128
 43
0.0
 10
43.98279233141903
 20
-49.71477638518661
 10
43.95371986827456
 20
-49.73166021455711
 10
43.91778183918501
 20
-49.74333574421314
 10
43.87769449557322
 20
-49.74892051969505
 10
43.83648770042487
 20
-49.74799243509619
 10
43.79727592659196
 20
-49.74062163647579
 10
43.76302286015181
 20
-49.72736522011178
 10
43.73631740046284
 20
-49.70922512630841
 10
43.71917798717561
 20
-49.68757241121034
  0
LWPOLYLINE
  5
104A
330
A
100
AcDbEntity
  8
0
  6
Continuous
 62
     7
100
AcDbPolyline
 90
        9
 70
   128
 43
0.0
 10
44.9475266516605
 20
-48.79324108687103
 10
44.97380341790995
 20
-48.80884554276906
 10
44.99454110195933
 20
-48.8270193114671
 10
45.00900293334587
 20
-48.84711671353682
 10
45.0166751107127
 20
-48.86842372651643
 10
45.0172850561936
 20
-48.89018335276944
 10
45.01081109958614
 20
-48.91162251417052
 10
44.99748324825225
 20
-48.93197951810146
 10
44.97777501539485
 20
-48.95053111893969
  0
LWPOLYLINE
  5
104B
330
A
100
AcDbEntity
  8
0
  6
Continuous
 62
     7
100
AcDbPolyline
 90
        9
 70
   128
 43
0.0
 10
48.18438769176976
 20
-46.59782705868872
 10
48.25887663088861
 20
-46.55675501390135
 10
48.34636407040517
 20
-46.52536634927003
 10
48.44313689028286
 20
-46.50499325465216
 10
48.545087882693
 20
-46.49650039983635
 10
48.64789006910286
 20
-46.50024823644344
 10
48.7471803448168
 20
-46.51607769972918
 10
48.83874465677491
 20
-46.54331695957001
 10
48.91869685533959
 20
-46.58080993410942
  0
LWPOLYLINE
  5
104C
330
A
100
AcDbEntity
  8
0
  6
Continuous
 62
     7
100
AcDbPolyline
 90
        9
 70
   128
 43
0.0
 10
54.22199771423527
 20
-49.64234035344259
 10
54.2869444881826
 20
-49.68849577522826
 10
54.33412938276911
 20
-49.74135472738715
 10
54.36154978849459
 20
-49.79867378348638
 10
54.3680419353542
 20
-49.8580202224764
 10
54.35333028527384
 20
-49.91687527762974
 10
54.3180392264286
 20
-49.97274103740892
 10
54.2636665731153
 20
-50.02324646120371
 10
54.19251999589301
 20
-50.06624801044336
  0
LWPOLYLINE
  5
104D
330
A
100
AcDbEntity
  8
0
  6
Continuous
 62
     7
100
AcDbPolyline
 90
        9
 70
   128
 43
0.0
 10
50.11707540132306
 20
-51.91738607604748
 10
50.14921120615281
 20
-51.9060087532315
 10
50.18447440085947
 20
-51.89831474799848
 10
50.22161215065762
 20
-51.89457741384001
 10
50.25930502135526
 20
-51.8949295311885
 10
50.29621385636239
 20
-51.89935858997876
 10
50.33102735439786
 20
-51.90770723410719
 10
50.36250865755051
 20
-51.91967885199722
 10
50.38953929450713
 20
-51.93484811464907
  0
LWPOLYLINE
  5
104E
330
A
100
AcDbEntity
  8
0
  6
Continuous
 62
     7
100
AcDbPolyline
 90
        9
 70
   128
 43
0.0
 10
48.84034409934236
 20
-52.64395867490703
 10
48.80283643263692
 20
-52.63406430222358
 10
48.77141346377141
 20
-52.61864756849934
 10
48.74845018898384
 20
-52.59887369414207
 10
48.73568220784341
 20
-52.57623721893913
 10
48.73407454397056
 20
-52.55244904244557
 10
48.74374870706924
 20
-52.52930711156807
 10
48.76397350903756
 20
-52.5085605289778
 10
48.79322032828679
 20
-52.49177735324395
  0
LWPOLYLINE
  5
104F
330
A
100
AcDbEntity
  8
0
  6
Continuous
 62
     7
100
AcDbPolyline
 90
        9
 70
   128
 43
0.0
 10
51.64474647157533
 20
-52.30360601507175
 10
51.34604280932285
 20
-52.43277573917283
 10
51.02186856719771
 20
-52.53953532780906
 10
50.67724085233294
 20
-52.62223250814679
 10
50.31749332157653
 20
-52.67958741103087
 10
49.94819363474869
 20
-52.71071237897672
 10
49.57505728633424
 20
-52.71512570406787
 10
49.20385914920064
 20
-52.69275908314557
 10
48.84034409934236
 20
-52.64395867490703
  0
LWPOLYLINE
  5
1050
330
A
100
AcDbEntity
  8
0
  6
Continuous
 62
     7
100
AcDbPolyline
 90
        9
 70
   128
 43
0.0
 10
48.12690633958152
 20
-45.48353820680575
 10
48.15670951569717
 20
-45.46713220886056
 10
48.19170145194198
 20
-45.45459776480277
 10
48.23039859994321
 20
-45.4464662957563
 10
48.2711603219683
 20
-45.44308255051067
 10
48.31225844881976
 20
-45.44458998925404
 10
48.35195054879046
 20
-45.45092470131056
 10
48.38855380130423
 20
-45.46181811475265
 10
48.42051634323104
 20
-45.47680838300892
  0
LWPOLYLINE
  5
1051
330
A
100
AcDbEntity
  8
0
  6
Continuous
 62
     7
100
AcDbPolyline
 90
        9
 70
   128
 43
0.0
 10
61.78804073824585
 20
-44.41732863689845
 10
61.86914657809496
 20
-44.38604357776887
 10
61.96481743711456
 20
-44.37505772783322
 10
62.06048829427755
 20
-44.3860435831574
 10
62.14159412883913
 20
-44.41732864685525
 10
62.19578731271372
 20
-44.46415005157849
 10
62.21481742491869
 20
-44.51937966289518
 10
62.19578730337935
 20
-44.57460927314003
 10
62.14159411159153
 20
-44.62143067481099
  0
LWPOLYLINE
  5
1053
330
A
100
AcDbEntity
  8
0
  6
Continuous
 62
     7
100
AcDbPolyline
 90
        9
 70
   128
 43
0.0
 10
55.56550055545051
 20
-49.60151997176843
 10
56.75047313959192
 20
-49.49354357190134
 10
57.94840391987304
 20
-49.45655136252742
 10
59.14656775459059
 20
-49.49093629715787
 10
60.33223702639657
 20
-49.59633311832295
 10
61.49281684271
 20
-49.77162223755693
 10
62.61597882624562
 20
-50.01494162834035
 10
63.6897920744575
 20
-50.32370660566664
 10
64.70284989676594
 20
-50.69463728212111
  0
LWPOLYLINE
  5
1054
330
A
100
AcDbEntity
  8
0
  6
Continuous
 62
     7
100
AcDbPolyline
 90
        9
 70
   128
 43
0.0
 10
64.70284989676594
 20
-50.69463728212111
 10
64.75429129892609
 20
-50.72539959699145
 10
64.78281243457366
 20
-50.76485981147107
 10
64.78450177739512
 20
-50.80760616113446
 10
64.75912764275552
 20
-50.8477762051034
 10
64.71016996204878
 20
-50.87986082950727
 10
64.64434302809593
 20
-50.89945979397123
 10
64.57067466459512
 20
-50.90388520183626
 10
64.4992681067705
 20
-50.89253013129098
  0
LWPOLYLINE
  5
1055
330
A
100
AcDbEntity
  8
0
  6
Continuous
 62
     7
100
AcDbPolyline
 90
        9
 70
   128
 43
0.0
 10
54.0743703406531
 20
-51.10980678982583
 10
55.28682402071996
 20
-50.75793695042103
 10
56.56479989153019
 20
-50.49443861955581
 10
57.88905657158932
 20
-50.32327906454987
 10
59.23965586913698
 20
-50.24703528733983
 10
60.59626297431976
 20
-50.26685522478215
 10
61.93845262290131
 20
-50.38244046515717
 10
63.24601662186649
 20
-50.59205074109684
 10
64.4992681067705
 20
-50.89253013129098
  0
LINE
  5
1056
330
A
100
AcDbEntity
  8
0
  6
Continuous
 62
     7
100
AcDbLine
 10
54.22199771423527
 20
-49.64234035344259
 30
0.0
 11
48.91869685533959
 21
-46.58080993410942
 31
0.0
  0
LINE
  5
1057
330
A
100
AcDbEntity
  8
0
  6
Continuous
 62
     7
100
AcDbLine
 10
49.76722491693926
 20
-46.25424669437098
 30
0.0
 11
48.42051634323104
 21
-45.47680838300892
 31
0.0
  0
LINE
  5
1058
330
A
100
AcDbEntity
  8
0
  6
Continuous
 62
     7
100
AcDbLine
 10
48.12690633958152
 20
-45.48353820680575
 30
0.0
 11
44.31045484706965
 21
-48.06747030104623
 31
0.0
  0
LINE
  5
1059
330
A
100
AcDbEntity
  8
0
  6
Continuous
 62
     7
100
AcDbLine
 10
43.98279233141903
 20
-49.71477638518661
 30
0.0
 11
44.97777501539485
 21
-48.95053111893969
 31
0.0
  0
LINE
  5
105A
330
A
100
AcDbEntity
  8
0
  6
Continuous
 62
     7
100
AcDbLine
 10
44.9475266516605
 20
-48.79324108687103
 30
0.0
 11
48.18438769176976
 21
-46.59782705868872
 31
0.0
  0
LINE
  5
105B
330
A
100
AcDbEntity
  8
0
  6
Continuous
 62
     7
100
AcDbLine
 10
54.19251999589301
 20
-50.06624801044336
 30
0.0
 11
50.38953929450713
 21
-51.93484811464907
 31
0.0
  0
LINE
  5
105C
330
A
100
AcDbEntity
  8
0
  6
Continuous
 62
     7
100
AcDbLine
 10
50.61575305436315
 20
-46.74409156146464
 30
0.0
 11
54.18664236723748
 21
-48.80552208300458
 31
0.0
  0
LINE
  5
105D
330
A
100
AcDbEntity
  8
0
  6
Continuous
 62
     7
100
AcDbLine
 10
50.11707540132306
 20
-51.91738607604748
 30
0.0
 11
48.79322032828679
 21
-52.49177735324395
 31
0.0
  0
LINE
  5
105E
330
A
100
AcDbEntity
  8
0
  6
Continuous
 62
     7
100
AcDbLine
 10
51.64474647157533
 20
-52.30360601507175
 30
0.0
 11
54.0743703406531
 21
-51.10980678982583
 31
0.0
  0
LINE
  5
105F
330
A
100
AcDbEntity
  8
0
  6
Continuous
 62
     7
100
AcDbLine
 10
54.54019575783076
 20
-49.00962411096032
 30
0.0
 11
55.56550055545051
 21
-49.60151997176843
 31
0.0
  0
LINE
  5
1060
330
A
100
AcDbEntity
  8
0
  6
Continuous
 62
     7
100
AcDbLine
 10
54.54019575783076
 20
-49.00962411096032
 30
0.0
 11
62.14159411159153
 21
-44.62143067481099
 31
0.0
  0
LINE
  5
1061
330
A
100
AcDbEntity
  8
0
  6
Continuous
 62
     7
100
AcDbLine
 10
50.61575305436315
 20
-46.74409156146464
 30
0.0
 11
55.14123681873167
 21
-44.13158564794708
 31
0.0
  0
LINE
  5
1062
330
A
100
AcDbEntity
  8
0
  6
Continuous
 62
     7
100
AcDbLine
 10
54.18664236723748
 20
-48.80552208300458
 30
0.0
 11
61.78804073824585
 21
-44.41732863689845
 31
0.0
  0
LINE
  5
1063
330
A
100
AcDbEntity
  8
0
  6
Continuous
 62
     7
100
AcDbLine
 10
54.29270859076132
 20
-43.64174087095023
 30
0.0
 11
49.76722491693926
 21
-46.25424669437098
 31
0.0
  0
LINE
  5
1064
330
A
100
AcDbEntity
  8
0
  6
Continuous
 62
     7
370
    15
100
AcDbLine
 10
49.13018846223133
 20
-52.81863175504452
 30
0.0
 11
49.13018846223207
 21
-129.376226580536
 31
0.0
  0
LINE
  5
1065
330
A
100
AcDbEntity
  8
0
  6
Continuous
 62
     7
370
    15
100
AcDbLine
 10
64.78716676033832
 20
-127.3464156945747
 30
0.0
 11
64.78716676033764
 21
-50.78882086907367
 31
0.0
  0
LINE
  5
1066
330
A
100
AcDbEntity
  8
0
  6
Continuous
 62
     7
370
    15
100
AcDbLine
 10
43.20781581965724
 20
-49.10121188641006
 30
0.0
 11
43.20781581965792
 21
-125.6588067118932
 31
0.0
  0
LINE
  5
1067
330
A
100
AcDbEntity
  8
0
  6
Continuous
 62
     7
370
    15
100
AcDbLine
 10
44.68598122224029
 20
-125.2606879126561
 30
0.0
 11
44.68598122223955
 21
-48.70309308716082
 31
0.0
  0
LINE
  5
1068
330
A
100
AcDbEntity
  8
0
  6
Continuous
 62
     7
370
    15
100
AcDbLine
 10
62.21481742490977
 20
-49.91922861504133
 30
0.0
 11
62.21481742490971
 21
-44.51937965584921
 31
0.0
  0
LINE
  5
1069
330
A
100
AcDbEntity
  8
0
  6
Continuous
 62
     7
370
    15
100
AcDbLine
 10
55.31697263877618
 20
-48.15299637030137
 30
0.0
 11
55.31697263877618
 21
-43.88666331644515
 31
0.0
  0
LWPOLYLINE
  5
106A
330
A
100
AcDbEntity
  8
0
  6
Continuous
 62
     7
370
    15
100
AcDbPolyline
 90
        9
 70
   128
 43
0.0
 10
54.29270859076132
 20
-43.64174087095023
 10
54.48736260639919
 20
-43.56665672903921
 10
54.71697266804631
 20
-43.54029068919385
 10
54.94658272523731
 20
-43.56665674197188
 10
55.14123672818516
 20
-43.64174089484652
 10
55.27130036948415
 20
-43.75411226618246
 10
55.31697263877618
 20
-43.88666333334254
 10
55.27130034708171
 20
-44.01921439793011
 10
55.14123668679093
 20
-44.13158576194019
  0
LINE
  5
106B
330
A
100
AcDbEntity
  8
0
  6
Continuous
 62
     7
370
    15
100
AcDbLine
 10
55.14123668679093
 20
-44.13158576194019
 30
0.0
 11
50.61575308712463
 21
-46.74409158037713
 31
0.0
  0
LINE
  5
106C
330
A
100
AcDbEntity
  8
0
  6
Continuous
 62
     7
370
    15
100
AcDbLine
 10
50.61575308712463
 20
-46.74409158037713
 30
0.0
 11
54.1866423672285
 21
-48.80552208299912
 31
0.0
  0
LINE
  5
106D
330
A
100
AcDbEntity
  8
0
  6
Continuous
 62
     7
370
    15
100
AcDbLine
 10
54.1866423672285
 20
-48.80552208299912
 30
0.0
 11
61.78804073823693
 21
-44.41732863689299
 31
0.0
  0
LWPOLYLINE
  5
106E
330
A
100
AcDbEntity
  8
0
  6
Continuous
 62
     7
370
    15
100
AcDbPolyline
 90
        9
 70
   128
 43
0.0
 10
61.78804073823693
 20
-44.41732863689299
 10
61.86914657808603
 20
-44.38604357776342
 10
61.96481743710564
 20
-44.37505772782788
 10
62.06048829426857
 20
-44.38604358315206
 10
62.14159412883021
 20
-44.4173286468498
 10
62.19578731270474
 20
-44.46415005157303
 10
62.21481742490971
 20
-44.51937966288972
 10
62.19578730337037
 20
-44.57460927313457
 10
62.14159411158255
 20
-44.62143067480554
  0
LINE
  5
106F
330
A
100
AcDbEntity
  8
0
  6
Continuous
 62
     7
370
    15
100
AcDbLine
 10
62.14159411158255
 20
-44.62143067480554
 30
0.0
 11
54.54019575782161
 21
-49.00962411095497
 31
0.0
  0
LINE
  5
1070
330
A
100
AcDbEntity
  8
0
  6
Continuous
 62
     7
370
    15
100
AcDbLine
 10
54.54019575782161
 20
-49.00962411095497
 30
0.0
 11
55.56550055544142
 21
-49.6015199717632
 31
0.0
  0
ARC
  5
1071
330
A
100
AcDbEntity
  8
0
  6
Continuous
 62
     7
370
    15
100
AcDbCircle
 10
57.97936518878737
 20
-68.16009974179849
 30
0.0
 40
18.71490383488202
100
AcDbArc
 50
68.94534675720912
 51
97.41070484053724
  0
LWPOLYLINE
  5
1072
330
A
100
AcDbEntity
  8
0
  6
Continuous
 62
     7
370
    15
100
AcDbPolyline
 90
        9
 70
   128
 43
0.0
 10
64.70284989675679
 20
-50.69463728211588
 10
64.754291298917
 20
-50.72539959698622
 10
64.78281243456456
 20
-50.76485981146584
 10
64.78450177738603
 20
-50.80760616112923
 10
64.75912764274642
 20
-50.84777620509806
 10
64.71016996203957
 20
-50.87986082950204
 10
64.64434302808678
 20
-50.899459793966
 10
64.57067466458602
 20
-50.90388520183103
 10
64.49926810676135
 20
-50.89253013128564
  0
ARC
  5
1073
330
A
100
AcDbEntity
  8
0
  6
Continuous
 62
     7
370
    15
100
AcDbCircle
 10
59.64453055660738
 20
-68.57666310380432
 30
0.0
 40
18.33840330210344
100
AcDbArc
 50
74.64905100209594
 51
106.5108051038701
  0
LINE
  5
1074
330
A
100
AcDbEntity
  8
0
  6
Continuous
 62
     7
370
    15
100
AcDbLine
 10
54.43282678832401
 20
-50.99442264639231
 30
0.0
 11
51.99222559895719
 21
-52.42328071490067
 31
0.0
  0
ARC
  5
1075
330
A
100
AcDbEntity
  8
0
  6
Continuous
 62
     7
370
    15
100
AcDbCircle
 10
49.87467895282504
 20
-48.4005660997326
 30
0.0
 40
4.546013272487509
100
AcDbArc
 50
262.1003204735645
 51
297.7622035827546
  0
LWPOLYLINE
  5
1076
330
A
100
AcDbEntity
  8
0
  6
Continuous
 62
     7
370
    15
100
AcDbPolyline
 90
        9
 70
   128
 43
0.0
 10
49.24987940830192
 20
-52.90343876091197
 10
49.21102067129635
 20
-52.89546919777058
 10
49.17738974213933
 20
-52.88169214272125
 10
49.15152849809806
 20
-52.86314888673985
 10
49.13539157170811
 20
-52.84124095758716
 10
49.13019861664475
 20
-52.81762419018924
 10
49.13634212442571
 20
-52.79408357609009
 10
49.1533577592993
 20
-52.77239835105104
 10
49.17995945345376
 20
-52.75420751767876
  0
LINE
  5
1077
330
A
100
AcDbEntity
  8
0
  6
Continuous
 62
     7
370
    15
100
AcDbLine
 10
49.17995945345376
 20
-52.75420751767876
 30
0.0
 11
50.41205840340831
 21
-52.11539360888605
 31
0.0
  0
ARC
  5
1078
330
A
100
AcDbEntity
  8
0
  6
Continuous
 62
     7
370
    15
100
AcDbCircle
 10
50.54534946223566
 20
-52.39529872684
 30
0.0
 40
0.3100215821843905
100
AcDbArc
 50
62.99471128084867
 51
115.4638301931189
  0
LINE
  5
1079
330
A
100
AcDbEntity
  8
0
  6
Continuous
 62
     7
370
    15
100
AcDbLine
 10
50.68612181234306
 20
-52.11908046736869
 30
0.0
 11
54.22446236092128
 21
-50.04754724678617
 31
0.0
  0
ARC
  5
107A
330
A
100
AcDbEntity
  8
0
  6
Continuous
 62
     7
370
    15
100
AcDbCircle
 10
54.14531123126073
 20
-49.84541773659112
 30
0.0
 40
0.2170742735061532
100
AcDbArc
 50
291.3846262040789
 51
69.31236150528079
  0
LINE
  5
107B
330
A
100
AcDbEntity
  8
0
  6
Continuous
 62
     7
370
    15
100
AcDbLine
 10
54.22199771422618
 20
-49.64234035343736
 30
0.0
 11
48.91982580524757
 21
-46.5814616630189
 31
0.0
  0
ARC
  5
107C
330
A
100
AcDbEntity
  8
0
  6
Continuous
 62
     7
370
    15
100
AcDbCircle
 10
48.53529674703202
 20
-47.3242129462335
 30
0.0
 40
0.8363863134516353
100
AcDbArc
 50
62.62898860306042
 51
117.1387299581697
  0
LINE
  5
107D
330
A
100
AcDbEntity
  8
0
  6
Continuous
 62
     7
370
    15
100
AcDbLine
 10
48.15378201060889
 20
-46.57990886104983
 30
0.0
 11
44.59436301228538
 21
-48.60605827331995
 31
0.0
  0
LWPOLYLINE
  5
107E
330
A
100
AcDbEntity
  8
0
  6
Continuous
 62
     7
370
    15
100
AcDbPolyline
 90
        9
 70
   128
 43
0.0
 10
44.59436301228538
 20
-48.60605827331995
 10
44.62790261656323
 20
-48.62174196611511
 10
44.65483223312913
 20
-48.64121458666864
 10
44.67389761532462
 20
-48.66356919784687
 10
44.68421079313913
 20
-48.68776463382778
 10
44.68529143040519
 20
-48.71267399238991
 10
44.67708919645139
 20
-48.73713712037397
 10
44.65998611025327
 20
-48.76001464780586
 10
44.63477874790232
 20
-48.78024105404359
  0
LINE
  5
107F
330
A
100
AcDbEntity
  8
0
  6
Continuous
 62
     7
370
    15
100
AcDbLine
 10
44.63477874790232
 20
-48.78024105404359
 30
0.0
 11
43.52820070125165
 21
-49.49151663792861
 31
0.0
  0
ARC
  5
1080
330
A
100
AcDbEntity
  8
0
  6
Continuous
 62
     7
370
    15
100
AcDbCircle
 10
43.420878526004
 20
-49.33088840887194
 30
0.0
 40
0.1931824973172642
100
AcDbArc
 50
218.5020336728065
 51
303.7484769562399
  0
ARC
  5
1081
330
A
100
AcDbEntity
  8
0
  6
Continuous
 62
     7
370
    15
100
AcDbCircle
 10
44.58842442914215
 20
-49.1336599979029
 30
0.0
 40
1.35640875740715
100
AcDbArc
 50
110.9553658272229
 51
193.5367267529127
  0
LINE
  5
1082
330
A
100
AcDbEntity
  8
0
  6
Continuous
 62
     7
370
    15
100
AcDbLine
 10
44.10331762889274
 20
-47.86696504270549
 30
0.0
 11
48.22406880342299
 21
-45.52539350561756
 31
0.0
  0
ARC
  5
1083
330
A
100
AcDbEntity
  8
0
  6
Continuous
 62
     7
370
    15
100
AcDbCircle
 10
48.36430551685601
 20
-45.79935308879897
 30
0.0
 40
0.3077664520564013
100
AcDbArc
 50
62.63135356366363
 51
117.1073768572879
  0
LINE
  5
1084
330
A
100
AcDbEntity
  8
0
  6
Continuous
 62
     7
370
    15
100
AcDbLine
 10
48.50579002758127
 20
-45.52603583314863
 30
0.0
 11
49.76722494970068
 21
-46.25424671328369
 31
0.0
  0
LINE
  5
1085
330
A
100
AcDbEntity
  8
0
  6
Continuous
 62
     7
370
    15
100
AcDbLine
 10
49.76722494970068
 20
-46.25424671328369
 30
0.0
 11
54.29270859076132
 21
-43.64174087095023
 31
0.0
  0
ARC
  5
1086
330
A
100
AcDbEntity
  8
0
  6
Continuous
 62
     7
370
    15
100
AcDbCircle
 10
59.64453055660897
 20
-145.1342579293003
 30
0.0
 40
18.33840330210411
100
AcDbArc
 50
74.64905100209668
 51
106.5108051038697
  0
LINE
  5
1087
330
A
100
AcDbEntity
  8
0
  6
Continuous
 62
     7
370
    15
100
AcDbLine
 10
54.43282678832469
 20
-127.5520174718878
 30
0.0
 11
54.43282678832401
 21
-50.99442264639231
 31
0.0
  0
ARC
  5
1088
330
A
100
AcDbEntity
  8
0
  6
Continuous
 62
     7
370
    15
100
AcDbCircle
 10
49.87467895282668
 20
-124.9581609252282
 30
0.0
 40
4.546013272487163
100
AcDbArc
 50
262.1003204735624
 51
297.7622035827554
  0
LWPOLYLINE
  5
1089
330
A
100
AcDbEntity
  8
0
  6
Continuous
 62
     7
370
    15
100
AcDbPolyline
 90
        6
 70
   128
 43
0.0
 10
49.24987940830351
 20
-129.4610335864072
 10
49.21102067129789
 20
-129.4530640232658
 10
49.17738974214092
 20
-129.4392869682165
 10
49.15152849809965
 20
-129.4207437122351
 10
49.13539157170965
 20
-129.3988357830825
 10
49.13018846223292
 20
-129.3762265805398
  0
LINE
  5
108A
330
A
100
AcDbEntity
  8
0
  6
Continuous
 62
     7
370
    15
100
AcDbLine
 10
54.43282678832554
 20
-127.5520174718875
 30
0.0
 11
51.99222559895873
 21
-128.980875540396
 31
0.0
  0
LWPOLYLINE
  5
108B
330
A
100
AcDbEntity
  8
0
  6
Continuous
 62
     7
370
    15
100
AcDbPolyline
 90
        7
 70
   128
 43
0.0
 10
64.78716676033918
 20
-127.3464156945688
 10
64.7845017773875
 20
-127.3652009866245
 10
64.75912764274801
 20
-127.4053710305934
 10
64.71016996204116
 20
-127.4374556549973
 10
64.64434302808831
 20
-127.4570546194612
 10
64.57067466458756
 20
-127.4614800273263
 10
64.49926810676288
 20
-127.4501249567809
  0
LINE
  5
108C
330
A
100
AcDbEntity
  8
0
  6
Continuous
 62
     7
370
    15
100
AcDbLine
 10
49.13018846223292
 20
-123.2604962654725
 30
0.0
 11
48.9198258052491
 21
-123.1390564885141
 31
0.0
  0
ARC
  5
108D
330
A
100
AcDbEntity
  8
0
  6
Continuous
 62
     7
370
    15
100
AcDbCircle
 10
43.42087852600548
 20
-125.8884832343675
 30
0.0
 40
0.1931824973170609
100
AcDbArc
 50
218.5020336727846
 51
303.7484769562983
  0
LINE
  5
108E
330
A
100
AcDbEntity
  8
0
  6
Continuous
 62
     7
370
    15
100
AcDbLine
 10
44.63477874790385
 20
-125.3378358795388
 30
0.0
 11
43.52820070125313
 21
-126.0491114634237
 31
0.0
  0
LWPOLYLINE
  5
108F
330
A
100
AcDbEntity
  8
0
  6
Continuous
 62
     7
370
    15
100
AcDbPolyline
 90
        3
 70
   128
 43
0.0
 10
43.26969659644419
 20
-126.00874753266
 10
43.21714085149461
 20
-125.7952509849195
 10
43.20781581965878
 20
-125.6588067119054
  0
ARC
  5
1090
330
A
100
AcDbEntity
  8
0
  6
Continuous
 62
     7
370
    15
100
AcDbCircle
 10
44.5923460696979
 20
-125.2541083431681
 30
0.0
 40
0.0938660349990208
100
AcDbArc
 50
296.8756536171713
 51
355.9805380667001
  0
LINE
  5
1091
330
A
100
AcDbEntity
  8
0
  6
Continuous
 62
     7
370
    15
100
AcDbLine
 10
48.15378201061043
 20
-123.1375036865451
 30
0.0
 11
44.68598122224114
 21
-125.1115007159855
 31
0.0
  0
ARC
  5
1092
330
A
100
AcDbEntity
  8
0
  6
Continuous
 62
     7
370
    15
100
AcDbCircle
 10
48.53529674703361
 20
-123.8818077717293
 30
0.0
 40
0.836386313452042
100
AcDbArc
 50
62.62898860307909
 51
117.1387299581554
  0
LINE
  5
1093
330
A
100
AcDbEntity
  8
0
  6
Continuous
 62
     7
370
     0
100
AcDbLine
 10
64.49926810676203
 20
-127.4501249567807
 30
0.0
 11
64.49926810676135
 21
-50.89253013128564
 31
0.0
  0
LINE
  5
1094
330
A
100
AcDbEntity
  8
0
  6
Continuous
 62
     7
370
     0
100
AcDbLine
 10
51.99222559895787
 20
-128.980875540396
 30
0.0
 11
51.99222559895719
 21
-52.42328071490067
 31
0.0
  0
LINE
  5
1095
330
A
100
AcDbEntity
  8
0
  6
Continuous
 62
     7
370
     0
100
AcDbLine
 10
49.24987940830266
 20
-129.4610335864072
 30
0.0
 11
49.24987940830192
 21
-52.90343876091197
 31
0.0
  0
LINE
  5
1096
330
A
100
AcDbEntity
  8
0
  6
Continuous
 62
     7
370
     0
100
AcDbLine
 10
54.22199771422618
 20
-50.04899018237586
 30
0.0
 11
54.22199771422618
 21
-49.64234035343736
 31
0.0
  0
LINE
  5
1097
330
A
100
AcDbEntity
  8
0
  6
Continuous
 62
     7
370
     0
100
AcDbLine
 10
48.91982580524825
 20
-123.1390564885136
 30
0.0
 11
48.91982580524757
 21
-46.5814616630189
 31
0.0
  0
LINE
  5
1098
330
A
100
AcDbEntity
  8
0
  6
Continuous
 62
     7
370
     0
100
AcDbLine
 10
43.52820070125233
 20
-126.0491114634238
 30
0.0
 11
43.52820070125165
 21
-49.49151663792861
 31
0.0
  0
LINE
  5
1099
330
A
100
AcDbEntity
  8
0
  6
Continuous
 62
     7
370
     0
100
AcDbLine
 10
43.26969659644334
 20
-126.00874753266
 30
0.0
 11
43.2696965964426
 21
-49.45115270716462
 31
0.0
  0
LINE
  5
109A
330
A
100
AcDbEntity
  8
0
  6
Continuous
 62
     7
370
     0
100
AcDbLine
 10
44.634778747903
 20
-125.3378358795393
 30
0.0
 11
44.63477874790232
 21
-48.78024105404359
 31
0.0
  0
LINE
  5
109B
330
A
100
AcDbEntity
  8
0
  6
Continuous
 62
     7
370
     0
100
AcDbLine
 10
62.14159411158255
 20
-49.90283847952901
 30
0.0
 11
62.14159411158255
 21
-44.62143067480554
 31
0.0
  0
LINE
  5
109C
330
A
100
AcDbEntity
  8
0
  6
Continuous
 62
     7
370
     0
100
AcDbLine
 10
48.15378201060958
 20
-123.1375036865456
 30
0.0
 11
48.15378201060889
 21
-46.57990886104983
 31
0.0
  0
LINE
  5
109D
330
A
100
AcDbEntity
  8
0
  6
Continuous
 62
     7
370
     0
100
AcDbLine
 10
55.14123668679099
 20
-48.25444656605589
 30
0.0
 11
55.14123668679093
 21
-44.13158576194019
 31
0.0
  0
ENDSEC
  0
SECTION
  2
OBJECTS
  0
DICTIONARY
  5
19
330
0
100
AcDbDictionary
281
     1
  3
ACAD_DETAILVIEWSTYLE
350
D7E
  3
ACAD_GROUP
350
1A
  3
ACAD_IMAGE_VARS
350
D7C
  3
ACAD_LAYOUT
350
1E
  3
ACAD_MLINESTYLE
350
1B
  3
ACAD_PLOTSETTINGS
350
22
  3
ACAD_PLOTSTYLENAME
350
1F
  3
ACAD_SCALELIST
350
51A
  3
ACAD_SECTIONVIEWSTYLE
350
D7F
  3
ACAD_WIPEOUT_VARS
350
23
  3
AcDbVariableDictionary
350
54B
  3
APPDATA
350
D7A
  3
ASE_INDEX_DICTIONARY
350
543
  3
DWGPROPS
350
112B
  0
DICTIONARY
  5
546
330
14
100
AcDbDictionary
280
     1
281
     1
  3
ADSK_XREC_LAYER_RECONCILED
360
547
  0
DICTIONARY
  5
90F
330
A
100
AcDbDictionary
280
     1
281
     1
  3
ACAD_SORTENTS
360
910
  0
DICTIONARY
  5
D7E
102
{ACAD_REACTORS
330
19
102
}
330
19
100
AcDbDictionary
281
     1
  0
DICTIONARY
  5
1A
102
{ACAD_REACTORS
330
19
102
}
330
19
100
AcDbDictionary
281
     1
  0
RASTERVARIABLES
  5
D7C
102
{ACAD_REACTORS
330
19
102
}
330
19
100
AcDbRasterVariables
 90
        0
 70
     1
 71
     1
 72
     0
  0
DICTIONARY
  5
1E
102
{ACAD_REACTORS
330
19
102
}
330
19
100
AcDbDictionary
281
     1
  3
Layout1
350
21
  3
Model
350
20
  0
DICTIONARY
  5
1B
102
{ACAD_REACTORS
330
19
102
}
330
19
100
AcDbDictionary
281
     1
  3
Standard
350
1C
  0
DICTIONARY
  5
22
102
{ACAD_REACTORS
330
19
102
}
330
19
100
AcDbDictionary
281
     1
  0
ACDBDICTIONARYWDFLT
  5
1F
102
{ACAD_REACTORS
330
19
102
}
330
19
100
AcDbDictionary
281
     1
  3
Normal
350
1D
100
AcDbDictionaryWithDefault
340
1D
  0
DICTIONARY
  5
51A
102
{ACAD_REACTORS
330
19
102
}
330
19
100
AcDbDictionary
281
     1
  3
A0
350
51B
  3
A1
350
51C
  3
A2
350
51D
  3
A3
350
51E
  3
A4
350
51F
  3
A5
350
520
  3
A6
350
521
  3
A7
350
522
  3
A8
350
523
  3
A9
350
524
  3
B0
350
525
  3
B1
350
526
  3
B2
350
527
  3
B3
350
528
  3
B4
350
529
  3
B5
350
52A
  3
B6
350
52B
  3
B7
350
52C
  3
B8
350
52D
  3
B9
350
52E
  3
C0
350
52F
  3
C1
350
530
  3
C2
350
531
  3
C3
350
532
  3
C4
350
533
  3
C5
350
534
  3
C6
350
535
  3
C7
350
536
  3
C8
350
537
  3
C9
350
538
  3
D0
350
539
  3
D1
350
53A
  3
D2
350
53B
  0
DICTIONARY
  5
D7F
102
{ACAD_REACTORS
330
19
102
}
330
19
100
AcDbDictionary
281
     1
  0
WIPEOUTVARIABLES
  5
23
330
19
100
AcDbWipeoutVariables
 70
     1
  0
DICTIONARY
  5
54B
102
{ACAD_REACTORS
330
19
102
}
330
19
100
AcDbDictionary
281
     1
  3
DIMASSOC
350
CD4
  3
INDEXCTL
350
CD3
  3
SORTENTS
350
CD2
  0
DICTIONARY
  5
D7A
102
{ACAD_REACTORS
330
19
102
}
330
19
100
AcDbDictionary
281
     1
  0
DICTIONARY
  5
543
102
{ACAD_REACTORS
330
19
102
}
330
19
100
AcDbDictionary
281
     1
  3
ASEBlockHierarchyIndexRecord
350
545
1001
DCO15
1040
1685697460.757
  0
XRECORD
  5
112B
102
{ACAD_REACTORS
330
19
102
}
330
19
100
AcDbXrecord
280
     1
  1
DWGPROPS COOKIE
  2

  3

  4

  6

  7

  8
renzo.ceresoli
  9

300
=
301
=
302
=
303
=
304
=
305
=
306
=
307
=
308
=
309
=
 40
0.0
 41
2455313.515715498
 42
2457007.555927997
  1

 90
        0
  0
XRECORD
  5
547
102
{ACAD_REACTORS
330
546
102
}
330
546
100
AcDbXrecord
280
     1
290
     1
  0
SORTENTSTABLE
  5
910
102
{ACAD_REACTORS
330
90F
102
}
330
90F
100
AcDbSortentsTable
330
A
331
0
  5
A46
331
B28
  5
AA1
  0
LAYOUT
  5
21
102
{ACAD_REACTORS
330
1E
102
}
330
1E
100
AcDbPlotSettings
  1

  2

  4

  6

 40
0.0
 41
0.0
 42
0.0
 43
0.0
 44
0.0
 45
0.0
 46
0.0
 47
0.0
 48
0.0
 49
0.0
140
0.0
141
0.0
142
1.0
143
1.0
 70
     0
 72
     0
 73
     0
 74
     0
  7

 75
     0
147
1.0
148
0.0
149
0.0
100
AcDbLayout
  1
Layout1
 70
     0
 71
     1
 10
0.0
 20
0.0
 11
12.0
 21
9.0
 12
0.0
 22
0.0
 32
0.0
 14
1.000000000000000E+20
 24
1.000000000000000E+20
 34
1.000000000000000E+20
 15
-1.000000000000000E+20
 25
-1.000000000000000E+20
 35
-1.000000000000000E+20
146
0.0
 13
0.0
 23
0.0
 33
0.0
 16
1.0
 26
0.0
 36
0.0
 17
0.0
 27
1.0
 37
0.0
 76
     0
330
B
  0
LAYOUT
  5
20
102
{ACAD_REACTORS
330
1E
102
}
330
1E
100
AcDbPlotSettings
  1

  2

  4

  6

 40
0.0
 41
0.0
 42
0.0
 43
0.0
 44
0.0
 45
0.0
 46
0.0
 47
0.0
 48
0.0
 49
0.0
140
0.0
141
0.0
142
1.0
143
1.0
 70
  1024
 72
     0
 73
     0
 74
     0
  7

 75
     0
147
1.0
148
0.0
149
0.0
100
AcDbLayout
  1
Model
 70
     0
 71
     0
 10
0.0
 20
0.0
 11
0.0
 21
0.0
 12
0.0
 22
0.0
 32
0.0
 14
-5.5796983268712
 24
-135.3259152698815
 34
0.0
 15
64.78716676033918
 25
52.4481270387811
 35
0.0
146
0.0
 13
0.0
 23
0.0
 33
0.0
 16
0.0
 26
0.0
 36
0.0
 17
0.0
 27
0.0
 37
0.0
 76
     0
330
A
331
15
  0
MLINESTYLE
  5
1C
102
{ACAD_REACTORS
330
1B
102
}
330
1B
100
AcDbMlineStyle
  2
STANDARD
 70
     0
  3

 62
     0
 51
90.0
 52
90.0
 71
     2
 49
0.5
 62
   256
  6
BYLAYER
 49
-0.5
 62
   256
  6
BYLAYER
  0
ACDBPLACEHOLDER
  5
1D
102
{ACAD_REACTORS
330
1F
102
}
330
1F
  0
SCALE
  5
51B
102
{ACAD_REACTORS
330
51A
102
}
330
51A
100
AcDbScale
 70
     0
300
1:1
140
1.0
141
1.0
290
     1
  0
SCALE
  5
51C
102
{ACAD_REACTORS
330
51A
102
}
330
51A
100
AcDbScale
 70
     0
300
1:2
140
1.0
141
2.0
290
     0
  0
SCALE
  5
51D
102
{ACAD_REACTORS
330
51A
102
}
330
51A
100
AcDbScale
 70
     0
300
1:4
140
1.0
141
4.0
290
     0
  0
SCALE
  5
51E
102
{ACAD_REACTORS
330
51A
102
}
330
51A
100
AcDbScale
 70
     0
300
1:5
140
1.0
141
5.0
290
     0
  0
SCALE
  5
51F
102
{ACAD_REACTORS
330
51A
102
}
330
51A
100
AcDbScale
 70
     0
300
1:8
140
1.0
141
8.0
290
     0
  0
SCALE
  5
520
102
{ACAD_REACTORS
330
51A
102
}
330
51A
100
AcDbScale
 70
     0
300
1:10
140
1.0
141
10.0
290
     0
  0
SCALE
  5
521
102
{ACAD_REACTORS
330
51A
102
}
330
51A
100
AcDbScale
 70
     0
300
1:16
140
1.0
141
16.0
290
     0
  0
SCALE
  5
522
102
{ACAD_REACTORS
330
51A
102
}
330
51A
100
AcDbScale
 70
     0
300
1:20
140
1.0
141
20.0
290
     0
  0
SCALE
  5
523
102
{ACAD_REACTORS
330
51A
102
}
330
51A
100
AcDbScale
 70
     0
300
1:30
140
1.0
141
30.0
290
     0
  0
SCALE
  5
524
102
{ACAD_REACTORS
330
51A
102
}
330
51A
100
AcDbScale
 70
     0
300
1:40
140
1.0
141
40.0
290
     0
  0
SCALE
  5
525
102
{ACAD_REACTORS
330
51A
102
}
330
51A
100
AcDbScale
 70
     0
300
1:50
140
1.0
141
50.0
290
     0
  0
SCALE
  5
526
102
{ACAD_REACTORS
330
51A
102
}
330
51A
100
AcDbScale
 70
     0
300
1:100
140
1.0
141
100.0
290
     0
  0
SCALE
  5
527
102
{ACAD_REACTORS
330
51A
102
}
330
51A
100
AcDbScale
 70
     0
300
2:1
140
2.0
141
1.0
290
     0
  0
SCALE
  5
528
102
{ACAD_REACTORS
330
51A
102
}
330
51A
100
AcDbScale
 70
     0
300
4:1
140
4.0
141
1.0
290
     0
  0
SCALE
  5
529
102
{ACAD_REACTORS
330
51A
102
}
330
51A
100
AcDbScale
 70
     0
300
8:1
140
8.0
141
1.0
290
     0
  0
SCALE
  5
52A
102
{ACAD_REACTORS
330
51A
102
}
330
51A
100
AcDbScale
 70
     0
300
10:1
140
10.0
141
1.0
290
     0
  0
SCALE
  5
52B
102
{ACAD_REACTORS
330
51A
102
}
330
51A
100
AcDbScale
 70
     0
300
100:1
140
100.0
141
1.0
290
     0
  0
SCALE
  5
52C
102
{ACAD_REACTORS
330
51A
102
}
330
51A
100
AcDbScale
 70
     0
300
1/128" = 1'-0"
140
0.0078125
141
12.0
290
     0
  0
SCALE
  5
52D
102
{ACAD_REACTORS
330
51A
102
}
330
51A
100
AcDbScale
 70
     0
300
1/64" = 1'-0"
140
0.015625
141
12.0
290
     0
  0
SCALE
  5
52E
102
{ACAD_REACTORS
330
51A
102
}
330
51A
100
AcDbScale
 70
     0
300
1/32" = 1'-0"
140
0.03125
141
12.0
290
     0
  0
SCALE
  5
52F
102
{ACAD_REACTORS
330
51A
102
}
330
51A
100
AcDbScale
 70
     0
300
1/16" = 1'-0"
140
0.0625
141
12.0
290
     0
  0
SCALE
  5
530
102
{ACAD_REACTORS
330
51A
102
}
330
51A
100
AcDbScale
 70
     0
300
3/32" = 1'-0"
140
0.09375
141
12.0
290
     0
  0
SCALE
  5
531
102
{ACAD_REACTORS
330
51A
102
}
330
51A
100
AcDbScale
 70
     0
300
1/8" = 1'-0"
140
0.125
141
12.0
290
     0
  0
SCALE
  5
532
102
{ACAD_REACTORS
330
51A
102
}
330
51A
100
AcDbScale
 70
     0
300
3/16" = 1'-0"
140
0.1875
141
12.0
290
     0
  0
SCALE
  5
533
102
{ACAD_REACTORS
330
51A
102
}
330
51A
100
AcDbScale
 70
     0
300
1/4" = 1'-0"
140
0.25
141
12.0
290
     0
  0
SCALE
  5
534
102
{ACAD_REACTORS
330
51A
102
}
330
51A
100
AcDbScale
 70
     0
300
3/8" = 1'-0"
140
0.375
141
12.0
290
     0
  0
SCALE
  5
535
102
{ACAD_REACTORS
330
51A
102
}
330
51A
100
AcDbScale
 70
     0
300
1/2" = 1'-0"
140
0.5
141
12.0
290
     0
  0
SCALE
  5
536
102
{ACAD_REACTORS
330
51A
102
}
330
51A
100
AcDbScale
 70
     0
300
3/4" = 1'-0"
140
0.75
141
12.0
290
     0
  0
SCALE
  5
537
102
{ACAD_REACTORS
330
51A
102
}
330
51A
100
AcDbScale
 70
     0
300
1" = 1'-0"
140
1.0
141
12.0
290
     0
  0
SCALE
  5
538
102
{ACAD_REACTORS
330
51A
102
}
330
51A
100
AcDbScale
 70
     0
300
1-1/2" = 1'-0"
140
1.5
141
12.0
290
     0
  0
SCALE
  5
539
102
{ACAD_REACTORS
330
51A
102
}
330
51A
100
AcDbScale
 70
     0
300
3" = 1'-0"
140
3.0
141
12.0
290
     0
  0
SCALE
  5
53A
102
{ACAD_REACTORS
330
51A
102
}
330
51A
100
AcDbScale
 70
     0
300
6" = 1'-0"
140
6.0
141
12.0
290
     0
  0
SCALE
  5
53B
102
{ACAD_REACTORS
330
51A
102
}
330
51A
100
AcDbScale
 70
     0
300
1'-0" = 1'-0"
140
12.0
141
12.0
290
     0
  0
DICTIONARYVAR
  5
CD4
102
{ACAD_REACTORS
330
54B
102
}
330
54B
100
DictionaryVariables
280
     0
  1
1
  0
DICTIONARYVAR
  5
CD3
102
{ACAD_REACTORS
330
54B
102
}
330
54B
100
DictionaryVariables
280
     0
  1
0
  0
DICTIONARYVAR
  5
CD2
102
{ACAD_REACTORS
330
54B
102
}
330
54B
100
DictionaryVariables
280
     0
  1
127
  0
XRECORD
  5
545
102
{ACAD_REACTORS
330
543
102
}
330
543
100
AcDbXrecord
280
     1
330
0
330
0
330
0
330
0
330
0
330
0
330
0
330
0
330
0
330
0
330
0
330
0
330
0
330
0
330
0
330
0
330
0
330
0
330
0
330
0
330
0
330
0
330
0
330
0
330
0
330
0
330
0
330
0
330
0
330
0
330
0
330
0
330
0
330
0
330
0
330
0
330
0
330
0
330
0
330
0
330
0
330
0
330
0
330
0
330
0
330
0
330
0
330
0
330
0
330
0
330
0
330
0
330
0
330
0
330
0
330
0
  0
ENDSEC
  0
EOF
