  0
SECTION
  2
HEADER
  9
$ACADVER
  1
AC1015
  9
$ACADMAINTVER
 70
     6
  9
$DWGCODEPAGE
  3
ANSI_1252
  9
$INSBASE
 10
0.0
 20
0.0
 30
0.0
  9
$EXTMIN
 10
-95.46408908757621
 20
-116.156858518495
 30
-0.0000000000000028
  9
$EXTMAX
 10
206.0696300228819
 20
102.5698560636022
 30
0.0000000000000124
  9
$LIMMIN
 10
-656.35
 20
-384.35
  9
$LIMMAX
 10
2061.85
 20
268.85
  9
$ORTHOMODE
 70
     1
  9
$REGENMODE
 70
     1
  9
$FILLMODE
 70
     1
  9
$QTEXTMODE
 70
     0
  9
$MIRRTEXT
 70
     1
  9
$LTSCALE
 40
10.0
  9
$ATTMODE
 70
     1
  9
$TEXTSIZE
 40
0.2
  9
$TRACEWID
 40
0.05
  9
$TEXTSTYLE
  7
Standard
  9
$CLAYER
  8
0
  9
$CELTYPE
  6
Continuous
  9
$CECOLOR
 62
   256
  9
$CELTSCALE
 40
1.0
  9
$DISPSILH
 70
     0
  9
$DIMSCALE
 40
1.0
  9
$DIMASZ
 40
1.25
  9
$DIMEXO
 40
0.0
  9
$DIMDLI
 40
0.38
  9
$DIMRND
 40
0.0
  9
$DIMDLE
 40
0.0
  9
$DIMEXE
 40
0.75
  9
$DIMTP
 40
0.0
  9
$DIMTM
 40
0.0
  9
$DIMTXT
 40
2.5
  9
$DIMCEN
 40
0.09
  9
$DIMTSZ
 40
0.0
  9
$DIMTOL
 70
     0
  9
$DIMLIM
 70
     0
  9
$DIMTIH
 70
     0
  9
$DIMTOH
 70
     0
  9
$DIMSE1
 70
     0
  9
$DIMSE2
 70
     0
  9
$DIMTAD
 70
     1
  9
$DIMZIN
 70
     0
  9
$DIMBLK
  1

  9
$DIMASO
 70
     1
  9
$DIMSHO
 70
     1
  9
$DIMPOST
  1

  9
$DIMAPOST
  1

  9
$DIMALT
 70
     0
  9
$DIMALTD
 70
     2
  9
$DIMALTF
 40
25.4
  9
$DIMLFAC
 40
1.0
  9
$DIMTOFL
 70
     0
  9
$DIMTVP
 40
0.0
  9
$DIMTIX
 70
     0
  9
$DIMSOXD
 70
     0
  9
$DIMSAH
 70
     0
  9
$DIMBLK1
  1

  9
$DIMBLK2
  1

  9
$DIMSTYLE
  2
Standard
  9
$DIMCLRD
 70
     7
  9
$DIMCLRE
 70
     7
  9
$DIMCLRT
 70
     7
  9
$DIMTFAC
 40
0.8
  9
$DIMGAP
 40
1.25
  9
$DIMJUST
 70
     0
  9
$DIMSD1
 70
     0
  9
$DIMSD2
 70
     0
  9
$DIMTOLJ
 70
     1
  9
$DIMTZIN
 70
     0
  9
$DIMALTZ
 70
     0
  9
$DIMALTTZ
 70
     0
  9
$DIMUPT
 70
     0
  9
$DIMDEC
 70
     2
  9
$DIMTDEC
 70
     4
  9
$DIMALTU
 70
     2
  9
$DIMALTTD
 70
     2
  9
$DIMTXSTY
  7
Standard
  9
$DIMAUNIT
 70
     0
  9
$DIMADEC
 70
     0
  9
$DIMALTRND
 40
0.0
  9
$DIMAZIN
 70
     0
  9
$DIMDSEP
 70
     0
  9
$DIMATFIT
 70
     3
  9
$DIMFRAC
 70
     0
  9
$DIMLDRBLK
  1

  9
$DIMLUNIT
 70
     2
  9
$DIMLWD
 70
     0
  9
$DIMLWE
 70
     0
  9
$DIMTMOVE
 70
     0
  9
$LUNITS
 70
     2
  9
$LUPREC
 70
     4
  9
$SKETCHINC
 40
0.1
  9
$FILLETRAD
 40
9.0
  9
$AUNITS
 70
     0
  9
$AUPREC
 70
     0
  9
$MENU
  1
acad
  9
$ELEVATION
 40
0.0
  9
$PELEVATION
 40
0.0
  9
$THICKNESS
 40
0.0
  9
$LIMCHECK
 70
     0
  9
$CHAMFERA
 40
0.0
  9
$CHAMFERB
 40
0.0
  9
$CHAMFERC
 40
0.0
  9
$CHAMFERD
 40
0.0
  9
$SKPOLY
 70
     0
  9
$TDCREATE
 40
2455323.569860648
  9
$TDUCREATE
 40
2455323.486527315
  9
$TDUPDATE
 40
2455324.615805567
  9
$TDUUPDATE
 40
2455324.532472234
  9
$TDINDWG
 40
0.1224776389
  9
$TDUSRTIMER
 40
2455828.519025289
  9
$USRTIMER
 70
     1
  9
$ANGBASE
 50
0.0
  9
$ANGDIR
 70
     0
  9
$PDMODE
 70
     0
  9
$PDSIZE
 40
0.0
  9
$PLINEWID
 40
0.0
  9
$SPLFRAME
 70
     0
  9
$SPLINETYPE
 70
     6
  9
$SPLINESEGS
 70
     8
  9
$HANDSEED
  5
47A6
  9
$SURFTAB1
 70
     6
  9
$SURFTAB2
 70
     6
  9
$SURFTYPE
 70
     6
  9
$SURFU
 70
     6
  9
$SURFV
 70
     6
  9
$UCSBASE
  2

  9
$UCSNAME
  2

  9
$UCSORG
 10
0.0
 20
0.0
 30
0.0
  9
$UCSXDIR
 10
1.0
 20
0.0
 30
0.0
  9
$UCSYDIR
 10
0.0
 20
1.0
 30
0.0
  9
$UCSORTHOREF
  2

  9
$UCSORTHOVIEW
 70
     0
  9
$UCSORGTOP
 10
0.0
 20
0.0
 30
0.0
  9
$UCSORGBOTTOM
 10
0.0
 20
0.0
 30
0.0
  9
$UCSORGLEFT
 10
0.0
 20
0.0
 30
0.0
  9
$UCSORGRIGHT
 10
0.0
 20
0.0
 30
0.0
  9
$UCSORGFRONT
 10
0.0
 20
0.0
 30
0.0
  9
$UCSORGBACK
 10
0.0
 20
0.0
 30
0.0
  9
$PUCSBASE
  2

  9
$PUCSNAME
  2

  9
$PUCSORG
 10
0.0
 20
0.0
 30
0.0
  9
$PUCSXDIR
 10
1.0
 20
0.0
 30
0.0
  9
$PUCSYDIR
 10
0.0
 20
1.0
 30
0.0
  9
$PUCSORTHOREF
  2

  9
$PUCSORTHOVIEW
 70
     0
  9
$PUCSORGTOP
 10
0.0
 20
0.0
 30
0.0
  9
$PUCSORGBOTTOM
 10
0.0
 20
0.0
 30
0.0
  9
$PUCSORGLEFT
 10
0.0
 20
0.0
 30
0.0
  9
$PUCSORGRIGHT
 10
0.0
 20
0.0
 30
0.0
  9
$PUCSORGFRONT
 10
0.0
 20
0.0
 30
0.0
  9
$PUCSORGBACK
 10
0.0
 20
0.0
 30
0.0
  9
$USERI1
 70
     0
  9
$USERI2
 70
     0
  9
$USERI3
 70
     0
  9
$USERI4
 70
     0
  9
$USERI5
 70
     0
  9
$USERR1
 40
0.0
  9
$USERR2
 40
0.0
  9
$USERR3
 40
0.0
  9
$USERR4
 40
0.0
  9
$USERR5
 40
0.0
  9
$WORLDVIEW
 70
     1
  9
$SHADEDGE
 70
     3
  9
$SHADEDIF
 70
    70
  9
$TILEMODE
 70
     1
  9
$MAXACTVP
 70
    16
  9
$PINSBASE
 10
0.0
 20
0.0
 30
0.0
  9
$PLIMCHECK
 70
     0
  9
$PEXTMIN
 10
1.000000000000000E+20
 20
1.000000000000000E+20
 30
1.000000000000000E+20
  9
$PEXTMAX
 10
-1.000000000000000E+20
 20
-1.000000000000000E+20
 30
-1.000000000000000E+20
  9
$PLIMMIN
 10
0.0
 20
0.0
  9
$PLIMMAX
 10
12.0
 20
9.0
  9
$UNITMODE
 70
     0
  9
$VISRETAIN
 70
     0
  9
$PLINEGEN
 70
     1
  9
$PSLTSCALE
 70
     0
  9
$TREEDEPTH
 70
  3020
  9
$CMLSTYLE
  2
Standard
  9
$CMLJUST
 70
     0
  9
$CMLSCALE
 40
1.0
  9
$PROXYGRAPHICS
 70
     0
  9
$MEASUREMENT
 70
     1
  9
$CELWEIGHT
370
     0
  9
$ENDCAPS
280
     0
  9
$JOINSTYLE
280
     0
  9
$LWDISPLAY
290
     0
  9
$INSUNITS
 70
     0
  9
$HYPERLINKBASE
  1

  9
$STYLESHEET
  1

  9
$XEDIT
290
     1
  9
$CEPSNTYPE
380
     0
  9
$PSTYLEMODE
290
     1
  9
$FINGERPRINTGUID
  2

  9
$VERSIONGUID
  2
{3C41C1E8-8B13-4549-929C-8EC12EB5B225}
  9
$EXTNAMES
290
     1
  9
$PSVPSCALE
 40
0.0
  9
$OLESTARTUP
290
     0
  0
ENDSEC
  0
SECTION
  2
CLASSES
  0
CLASS
  1
IMAGE
  2
AcDbRasterImage
  3
ISM
 90
      127
280
     0
281
     1
  0
CLASS
  1
DICTIONARYVAR
  2
AcDbDictionaryVar
  3
ObjectDBX Classes
 90
        0
280
     0
281
     0
  0
CLASS
  1
RASTERVARIABLES
  2
AcDbRasterVariables
  3
ISM
 90
        0
280
     0
281
     0
  0
CLASS
  1
IMAGEDEF
  2
AcDbRasterImageDef
  3
ISM
 90
        0
280
     0
281
     0
  0
CLASS
  1
IMAGEDEF_REACTOR
  2
AcDbRasterImageDefReactor
  3
ISM
 90
        1
280
     0
281
     0
  0
CLASS
  1
IDBUFFER
  2
AcDbIdBuffer
  3
ObjectDBX Classes
 90
        0
280
     0
281
     0
  0
CLASS
  1
SPATIAL_FILTER
  2
AcDbSpatialFilter
  3
ObjectDBX Classes
 90
        0
280
     0
281
     0
  0
CLASS
  1
SORTENTSTABLE
  2
AcDbSortentsTable
  3
ObjectDBX Classes
 90
        0
280
     0
281
     0
  0
CLASS
  1
LAYER_INDEX
  2
AcDbLayerIndex
  3
ObjectDBX Classes
 90
        0
280
     0
281
     0
  0
CLASS
  1
SPATIAL_INDEX
  2
AcDbSpatialIndex
  3
AutoCAD 2000
 90
        0
280
     0
281
     0
  0
CLASS
  1
OBJECT_PTR
  2
CAseDLPNTableRecord
  3
ASE-LPNTableRecord
 90
        1
280
     0
281
     0
  0
CLASS
  1
LAYOUT
  2
AcDbLayout
  3
ObjectDBX Classes
 90
        0
280
     0
281
     0
  0
CLASS
  1
PLOTSETTINGS
  2
AcDbPlotSettings
  3
ObjectDBX Classes
 90
        0
280
     0
281
     0
  0
CLASS
  1
ACDBDICTIONARYWDFLT
  2
AcDbDictionaryWithDefault
  3
ObjectDBX Classes
 90
        0
280
     0
281
     0
  0
CLASS
  1
ACDBPLACEHOLDER
  2
AcDbPlaceHolder
  3
ObjectDBX Classes
 90
        0
280
     0
281
     0
  0
CLASS
  1
VBA_PROJECT
  2
AcDbVbaProject
  3
ObjectDBX Classes
 90
        0
280
     0
281
     0
  0
CLASS
  1
WIPEOUT
  2
AcDbWipeout
  3
WipeOut|AutoCAD Express Tool|expresstools@autodesk.com
 90
      127
280
     0
281
     1
  0
CLASS
  1
WIPEOUTVARIABLES
  2
AcDbWipeoutVariables
  3
WipeOut|AutoCAD Express Tool|expresstools@autodesk.com
 90
        0
280
     0
281
     0
  0
CLASS
  1
RTEXT
  2
RText
  3
RText|AutoCAD Express Tool|expresstools@autodesk.com
 90
        0
280
     0
281
     1
  0
CLASS
  1
ARCALIGNEDTEXT
  2
AcDbArcAlignedText
  3
ATEXT|AutoCAD Express Tool|expresstools@autodesk.com
 90
        0
280
     0
281
     1
  0
CLASS
  1
MATERIAL
  2
AcDbMaterial
  3
ObjectDBX Classes
 90
     1153
280
     0
281
     0
  0
CLASS
  1
VISUALSTYLE
  2
AcDbVisualStyle
  3
ObjectDBX Classes
 90
     4095
280
     0
281
     0
  0
CLASS
  1
TABLESTYLE
  2
AcDbTableStyle
  3
ObjectDBX Classes
 90
     4095
280
     0
281
     0
  0
CLASS
  1
SCALE
  2
AcDbScale
  3
ObjectDBX Classes
 90
     1153
280
     0
281
     0
  0
CLASS
  1
MLEADERSTYLE
  2
AcDbMLeaderStyle
  3
ACDB_MLEADERSTYLE_CLASS
 90
     4095
280
     0
281
     0
  0
CLASS
  1
CELLSTYLEMAP
  2
AcDbCellStyleMap
  3
ObjectDBX Classes
 90
     1152
280
     0
281
     0
  0
ENDSEC
  0
SECTION
  2
TABLES
  0
TABLE
  2
VPORT
  5
7
330
0
100
AcDbSymbolTable
 70
     1
  0
VPORT
  5
15
330
7
100
AcDbSymbolTableRecord
100
AcDbViewportTableRecord
  2
*ACTIVE
 70
     0
 10
0.0
 20
0.0
 11
1.0
 21
1.0
 12
77.2504536218905
 22
-68.2109123382166
 13
0.0
 23
0.0
 14
1.0
 24
1.0
 15
0.0
 25
0.0
 16
0.0
 26
0.0
 36
1.0
 17
0.0
 27
0.0
 37
0.0
 40
254.8314157978841
 41
1.509293680297398
 42
50.0
 43
0.0
 44
0.0
 50
0.0
 51
0.0
 71
    16
 72
   100
 73
     1
 74
     1
 75
     0
 76
     0
 77
     0
 78
     0
281
     0
 65
     0
110
0.0
120
0.0
130
0.0
111
1.0
121
0.0
131
0.0
112
0.0
122
1.0
132
0.0
 79
     0
146
0.0
  0
ENDTAB
  0
TABLE
  2
LTYPE
  5
4
330
0
100
AcDbSymbolTable
 70
     3
  0
LTYPE
  5
11
330
4
100
AcDbSymbolTableRecord
100
AcDbLinetypeTableRecord
  2
ByBlock
 70
     0
  3

 72
    65
 73
     0
 40
0.0
  0
LTYPE
  5
12
330
4
100
AcDbSymbolTableRecord
100
AcDbLinetypeTableRecord
  2
ByLayer
 70
     0
  3

 72
    65
 73
     0
 40
0.0
  0
LTYPE
  5
13
330
4
100
AcDbSymbolTableRecord
100
AcDbLinetypeTableRecord
  2
Continuous
 70
     0
  3
Solid line
 72
    65
 73
     0
 40
0.0
  0
LTYPE
  5
690
330
4
100
AcDbSymbolTableRecord
100
AcDbLinetypeTableRecord
  2
CENTER
 70
     0
  3
____ _ ____ _ ____ _ ____ _ ____ _ ____ _ ____
 72
    65
 73
     4
 40
2.0
 49
1.25
 74
     0
 49
-0.25
 74
     0
 49
0.25
 74
     0
 49
-0.25
 74
     0
  0
LTYPE
  5
44D0
330
4
100
AcDbSymbolTableRecord
100
AcDbLinetypeTableRecord
  2
________________
 70
     0
  3

 72
    65
 73
     0
 40
0.0
  0
ENDTAB
  0
TABLE
  2
LAYER
  5
2
330
0
100
AcDbSymbolTable
 70
     1
  0
LAYER
  5
14
102
{ACAD_XDICTIONARY
360
4441
102
}
330
2
100
AcDbSymbolTableRecord
100
AcDbLayerTableRecord
  2
0
 70
     0
 62
     7
  6
Continuous
370
    -3
390
1D
  0
ENDTAB
  0
TABLE
  2
STYLE
  5
3
330
0
100
AcDbSymbolTable
 70
     1
  0
STYLE
  5
17
330
3
100
AcDbSymbolTableRecord
100
AcDbTextStyleTableRecord
  2
Standard
 70
     0
 40
0.0
 41
1.0
 50
0.0
 71
     0
 42
0.0
  3
I011000D_0.TTF
  4

1001
ACAD
1000
IsonormD
1071
        0
  0
ENDTAB
  0
TABLE
  2
VIEW
  5
5
330
0
100
AcDbSymbolTable
 70
     0
  0
ENDTAB
  0
TABLE
  2
UCS
  5
6
330
0
100
AcDbSymbolTable
 70
     0
  0
ENDTAB
  0
TABLE
  2
APPID
  5
8
330
0
100
AcDbSymbolTable
 70
     5
  0
APPID
  5
16
330
8
100
AcDbSymbolTableRecord
100
AcDbRegAppTableRecord
  2
ACAD
 70
     0
  0
APPID
  5
26
330
8
100
AcDbSymbolTableRecord
100
AcDbRegAppTableRecord
  2
TopSolid_Draft
 70
     0
  0
APPID
  5
2336
330
8
100
AcDbSymbolTableRecord
100
AcDbRegAppTableRecord
  2
ACAD_MLEADERVER
 70
     0
  0
APPID
  5
443F
330
8
100
AcDbSymbolTableRecord
100
AcDbRegAppTableRecord
  2
DCO15
 70
     0
  0
APPID
  5
44BB
330
8
100
AcDbSymbolTableRecord
100
AcDbRegAppTableRecord
  2
ACAD_EXEMPT_FROM_CAD_STANDARDS
 70
     0
  0
ENDTAB
  0
TABLE
  2
DIMSTYLE
  5
9
330
0
100
AcDbSymbolTable
 70
     1
100
AcDbDimStyleTable
  0
DIMSTYLE
105
18
330
9
100
AcDbSymbolTableRecord
100
AcDbDimStyleTableRecord
  2
Standard
 70
     0
 41
1.25
 42
0.0
 44
0.75
 73
     0
 74
     0
 77
     1
140
2.5
146
0.8
147
1.25
176
     7
177
     7
178
     7
271
     2
340
17
  0
ENDTAB
  0
TABLE
  2
BLOCK_RECORD
  5
1
330
0
100
AcDbSymbolTable
 70
     4
  0
BLOCK_RECORD
  5
A
102
{ACAD_XDICTIONARY
360
233E
102
}
330
1
100
AcDbSymbolTableRecord
100
AcDbBlockTableRecord
  2
*MODEL_SPACE
340
20
  0
BLOCK_RECORD
  5
B
330
1
100
AcDbSymbolTableRecord
100
AcDbBlockTableRecord
  2
*PAPER_SPACE
340
21
  0
BLOCK_RECORD
  5
44D1
330
1
100
AcDbSymbolTableRecord
100
AcDbBlockTableRecord
  2
D_FRAME_VIEW@403
340
0
  0
BLOCK_RECORD
  5
4500
330
1
100
AcDbSymbolTableRecord
100
AcDbBlockTableRecord
  2
D_FRAME_VIEW@416
340
0
  0
BLOCK_RECORD
  5
4555
330
1
100
AcDbSymbolTableRecord
100
AcDbBlockTableRecord
  2
D_FRAME_VIEW@409
340
0
  0
BLOCK_RECORD
  5
4577
330
1
100
AcDbSymbolTableRecord
100
AcDbBlockTableRecord
  2
D_FRAME_VIEW@411
340
0
  0
ENDTAB
  0
ENDSEC
  0
SECTION
  2
BLOCKS
  0
BLOCK
  5
D
330
A
100
AcDbEntity
  8
0
100
AcDbBlockBegin
  2
*MODEL_SPACE
 70
     0
 10
0.0
 20
0.0
 30
0.0
  3
*MODEL_SPACE
  1

  0
ENDBLK
  5
E
330
A
100
AcDbEntity
  8
0
100
AcDbBlockEnd
  0
BLOCK
  5
F
330
B
100
AcDbEntity
 67
     1
  8
0
100
AcDbBlockBegin
  2
*PAPER_SPACE
 70
     0
 10
0.0
 20
0.0
 30
0.0
  3
*PAPER_SPACE
  1

  0
ENDBLK
  5
10
330
B
100
AcDbEntity
 67
     1
  8
0
100
AcDbBlockEnd
  0
BLOCK
  5
44D2
330
44D1
100
AcDbEntity
  8
0
100
AcDbBlockBegin
  2
D_FRAME_VIEW@403
 70
     0
 10
0.0
 20
0.0
 30
0.0
  3
D_FRAME_VIEW@403
  1

  0
LINE
  5
44D3
330
44D1
100
AcDbEntity
  8
0
  6
________________
 62
     7
370
     9
100
AcDbLine
 10
331.1250000000001
 20
233.9999999999997
 30
0.0
 11
329.6250000000001
 21
233.9999999999997
 31
0.0
  0
LINE
  5
44D4
330
44D1
100
AcDbEntity
  8
0
  6
________________
 62
     7
370
     9
100
AcDbLine
 10
331.1250000000001
 20
232.4999999999997
 30
0.0
 11
331.1250000000001
 21
233.9999999999997
 31
0.0
  0
LINE
  5
44D5
330
44D1
100
AcDbEntity
  8
0
  6
________________
 62
     7
370
     9
100
AcDbLine
 10
330.1250000000001
 20
230.4999999999997
 30
0.0
 11
331.1250000000001
 21
232.4999999999997
 31
0.0
  0
LINE
  5
44D6
330
44D1
100
AcDbEntity
  8
0
  6
________________
 62
     7
370
     9
100
AcDbLine
 10
330.1250000000001
 20
228.9999999999997
 30
0.0
 11
330.1250000000001
 21
230.4999999999997
 31
0.0
  0
LINE
  5
44D7
330
44D1
100
AcDbEntity
  8
0
  6
________________
 62
     7
370
     9
100
AcDbLine
 10
332.0551887631789
 20
225.1396224736417
 30
0.0
 11
330.1250000000001
 21
228.9999999999997
 31
0.0
  0
LINE
  5
44D8
330
44D1
100
AcDbEntity
  8
0
  6
________________
 62
     7
370
     9
100
AcDbLine
 10
330.4869157498637
 20
222.0030764470112
 30
0.0
 11
332.0551887631789
 21
225.1396224736417
 31
0.0
  0
LINE
  5
44D9
330
44D1
100
AcDbEntity
  8
0
  6
________________
 62
     7
370
     9
100
AcDbLine
 10
333.5551887631789
 20
225.1396224736417
 30
0.0
 11
330.4869157498637
 21
222.0030764470112
 31
0.0
  0
LINE
  5
44DA
330
44D1
100
AcDbEntity
  8
0
  6
________________
 62
     7
370
     9
100
AcDbLine
 10
331.6250000000001
 20
228.9999999999997
 30
0.0
 11
333.5551887631789
 21
225.1396224736417
 31
0.0
  0
LINE
  5
44DB
330
44D1
100
AcDbEntity
  8
0
  6
________________
 62
     7
370
     9
100
AcDbLine
 10
331.6250000000001
 20
230.2899175830392
 30
0.0
 11
331.6250000000001
 21
228.9999999999997
 31
0.0
  0
LINE
  5
44DC
330
44D1
100
AcDbEntity
  8
0
  6
________________
 62
     7
370
     9
100
AcDbLine
 10
332.6250000000001
 20
232.2899175830392
 30
0.0
 11
331.6250000000001
 21
230.2899175830392
 31
0.0
  0
LINE
  5
44DD
330
44D1
100
AcDbEntity
  8
0
  6
________________
 62
     7
370
     9
100
AcDbLine
 10
332.6250000000001
 20
235.4999999999997
 30
0.0
 11
332.6250000000001
 21
232.2899175830392
 31
0.0
  0
LINE
  5
44DE
330
44D1
100
AcDbEntity
  8
0
  6
________________
 62
     7
370
     9
100
AcDbLine
 10
329.6250000000001
 20
235.4999999999997
 30
0.0
 11
332.6250000000001
 21
235.4999999999997
 31
0.0
  0
LINE
  5
44DF
330
44D1
100
AcDbEntity
  8
0
  6
________________
 62
     7
370
     9
100
AcDbLine
 10
329.6250000000001
 20
233.9999999999997
 30
0.0
 11
329.6250000000001
 21
235.4999999999997
 31
0.0
  0
CIRCLE
  5
44E0
330
44D1
100
AcDbEntity
  8
0
  6
________________
 62
     7
370
     9
100
AcDbCircle
 10
331.6250000000001
 20
228.9999999999997
 30
0.0
 40
8.000000000000007
  0
ARC
  5
44E1
330
44D1
100
AcDbEntity
  8
0
  6
________________
 62
     7
370
     9
100
AcDbCircle
 10
-331.6250000000001
 20
228.9999999999997
 30
0.0
 40
8.750000000000005
210
0.0
220
0.0
230
-1.0
100
AcDbArc
 50
308.9448035940941
 51
231.0551964059066
  0
LINE
  5
44E2
330
44D1
100
AcDbEntity
  8
0
  6
________________
 62
     7
370
     9
100
AcDbLine
 10
337.125
 20
222.1946712055912
 30
0.0
 11
337.125
 21
208.9999999999998
 31
0.0
  0
ARC
  5
44E3
330
44D1
100
AcDbEntity
  8
0
  6
________________
 62
     7
370
     9
100
AcDbCircle
 10
-331.6250000000001
 20
208.9999999999998
 30
0.0
 40
5.500000000000004
210
0.0
220
0.0
230
-1.0
100
AcDbArc
 50
180.0
 51
0.0
  0
LINE
  5
44E4
330
44D1
100
AcDbEntity
  8
0
  6
________________
 62
     7
370
     9
100
AcDbLine
 10
326.1250000000001
 20
208.9999999999998
 30
0.0
 11
326.1250000000001
 21
222.1946712055912
 31
0.0
  0
LINE
  5
44E5
330
44D1
100
AcDbEntity
  8
0
  6
________________
 62
     7
370
     9
100
AcDbLine
 10
313.3749999999999
 20
289.4949979983983
 30
0.0
 11
313.3749999999999
 21
283.2499999999993
 31
0.0
  0
LINE
  5
44E6
330
44D1
100
AcDbEntity
  8
0
  6
________________
 62
   253
370
     9
100
AcDbLine
 10
313.6250000000002
 20
283.2499999999992
 30
0.0
 11
313.3749999999999
 21
283.2499999999992
 31
0.0
  0
LINE
  5
44E7
330
44D1
100
AcDbEntity
  8
0
  6
________________
 62
   253
370
     9
100
AcDbLine
 10
313.6250000000002
 20
187.2499999999997
 30
0.0
 11
313.3750000000002
 21
187.2499999999997
 31
0.0
  0
LINE
  5
44E8
330
44D1
100
AcDbEntity
  8
0
  6
________________
 62
     7
370
     9
100
AcDbLine
 10
313.3750000000001
 20
187.2499999999997
 30
0.0
 11
313.3750000000001
 21
181.0050020016012
 31
0.0
  0
LINE
  5
44E9
330
44D1
100
AcDbEntity
  8
0
  6
________________
 62
     7
370
     9
100
AcDbLine
 10
313.3749999999999
 20
283.2499999999992
 30
0.0
 11
313.3750000000002
 21
187.2499999999997
 31
0.0
  0
LINE
  5
44EA
330
44D1
100
AcDbEntity
  8
0
  6
________________
 62
     7
370
     9
100
AcDbLine
 10
310.3749999999999
 20
241.2499999999997
 30
0.0
 11
310.3749999999999
 21
247.2499999999997
 31
0.0
  0
LINE
  5
44EB
330
44D1
100
AcDbEntity
  8
0
  6
________________
 62
   253
370
     9
100
AcDbLine
 10
312.3749999999999
 20
249.2499999999997
 30
0.0
 11
312.3749999999999
 21
239.2499999999997
 31
0.0
  0
LINE
  5
44EC
330
44D1
100
AcDbEntity
  8
0
  6
________________
 62
     7
370
     9
100
AcDbLine
 10
313.3750000000001
 20
181.0050020016012
 30
0.0
 11
313.6250000000002
 21
181.0050020016012
 31
0.0
  0
LINE
  5
44ED
330
44D1
100
AcDbEntity
  8
0
  6
________________
 62
     7
370
     9
100
AcDbLine
 10
313.6250000000002
 20
289.4949979983983
 30
0.0
 11
313.3749999999999
 21
289.4949979983983
 31
0.0
  0
LINE
  5
44EE
330
44D1
100
AcDbEntity
  8
0
  6
________________
 62
     7
370
     9
100
AcDbLine
 10
313.3749999999999
 20
289.4949979983983
 30
0.0
 11
313.3750000000002
 21
299.5000000000003
 31
0.0
  0
ARC
  5
44EF
330
44D1
100
AcDbEntity
  8
0
  6
________________
 62
     7
370
     9
100
AcDbCircle
 10
313.8749999999999
 20
299.5000000000002
 30
0.0
 40
0.4999999999999939
100
AcDbArc
 50
119.9999999999729
 51
180.0
  0
LINE
  5
44F0
330
44D1
100
AcDbEntity
  8
0
  6
________________
 62
     7
370
     9
100
AcDbLine
 10
313.6250000000002
 20
171.4999999999997
 30
0.0
 11
313.3750000000002
 21
171.4999999999997
 31
0.0
  0
LINE
  5
44F1
330
44D1
100
AcDbEntity
  8
0
  6
________________
 62
     7
370
     9
100
AcDbLine
 10
313.3750000000001
 20
171.4999999999997
 30
0.0
 11
313.3750000000001
 21
181.0050020016012
 31
0.0
  0
LINE
  5
44F2
330
44D1
100
AcDbEntity
  8
0
  6
________________
 62
     7
370
     9
100
AcDbLine
 10
313.6250000000002
 20
301.0000000000003
 30
0.0
 11
313.3749999999997
 21
301.0000000000003
 31
0.0
  0
LINE
  5
44F3
330
44D1
100
AcDbEntity
  8
0
  6
________________
 62
     7
370
     9
100
AcDbLine
 10
313.3750000000001
 20
150.9999999999997
 30
0.0
 11
313.6250000000002
 21
150.9999999999997
 31
0.0
  0
LINE
  5
44F4
330
44D1
100
AcDbEntity
  8
0
  6
________________
 62
     7
370
     9
100
AcDbLine
 10
313.3749999999999
 20
171.4999999999997
 30
0.0
 11
313.3750000000001
 21
150.9999999999997
 31
0.0
  0
LINE
  5
44F5
330
44D1
100
AcDbEntity
  8
0
  6
________________
 62
     7
370
     9
100
AcDbLine
 10
313.3749999999997
 20
301.0000000000003
 30
0.0
 11
313.3749999999997
 21
299.5000000000003
 31
0.0
  0
LINE
  5
44F6
330
44D1
100
AcDbEntity
  8
0
  6
________________
 62
     7
370
     9
100
AcDbLine
 10
363.6250000000001
 20
150.9999999999997
 30
0.0
 11
363.625
 21
300.9999999999993
 31
0.0
  0
LINE
  5
44F7
330
44D1
100
AcDbEntity
  8
0
  6
________________
 62
     7
370
     9
100
AcDbLine
 10
313.6250000000002
 20
150.9999999999997
 30
0.0
 11
363.6250000000001
 21
150.9999999999997
 31
0.0
  0
LINE
  5
44F8
330
44D1
100
AcDbEntity
  8
0
  6
________________
 62
     7
370
     9
100
AcDbLine
 10
313.6250000000002
 20
300.9999999999993
 30
0.0
 11
313.6250000000002
 21
150.9999999999997
 31
0.0
  0
LINE
  5
44F9
330
44D1
100
AcDbEntity
  8
0
  6
________________
 62
     7
370
     9
100
AcDbLine
 10
363.625
 20
300.9999999999993
 30
0.0
 11
313.6250000000002
 21
300.9999999999993
 31
0.0
  0
ARC
  5
44FA
330
44D1
100
AcDbEntity
  8
0
  6
________________
 62
     7
370
     9
100
AcDbCircle
 10
312.3749999999999
 20
241.2499999999997
 30
0.0
 40
2.000000000000002
100
AcDbArc
 50
180.0
 51
270.0
  0
ARC
  5
44FB
330
44D1
100
AcDbEntity
  8
0
  6
________________
 62
     7
370
     9
100
AcDbCircle
 10
312.3749999999999
 20
247.2499999999997
 30
0.0
 40
2.000000000000002
100
AcDbArc
 50
90.0
 51
180.0
  0
LINE
  5
44FC
330
44D1
100
AcDbEntity
  8
0
  6
________________
 62
     7
370
     9
100
AcDbLine
 10
313.3749999999999
 20
249.2499999999997
 30
0.0
 11
312.3749999999999
 21
249.2499999999997
 31
0.0
  0
LINE
  5
44FD
330
44D1
100
AcDbEntity
  8
0
  6
________________
 62
     7
370
     9
100
AcDbLine
 10
312.3749999999999
 20
239.2499999999997
 30
0.0
 11
313.3749999999999
 21
239.2499999999997
 31
0.0
  0
ENDBLK
  5
44FE
330
44D1
100
AcDbEntity
  8
0
100
AcDbBlockEnd
  0
BLOCK
  5
4501
330
4500
100
AcDbEntity
  8
0
100
AcDbBlockBegin
  2
D_FRAME_VIEW@416
 70
     0
 10
0.0
 20
0.0
 30
0.0
  3
D_FRAME_VIEW@416
  1

  0
ELLIPSE
  5
4502
330
4500
100
AcDbEntity
  8
0
  6
________________
 62
     7
370
     9
100
AcDbEllipse
 10
424.267752934961
 20
66.76164048166194
 30
0.0
 11
-4.427188724235746
 21
5.422176684690398
 31
0.0
210
0.0
220
0.0
230
-1.0
 40
0.8164965809277261
 41
4.606705866246703
 42
6.283185307179586
  0
LINE
  5
4503
330
4500
100
AcDbEntity
  8
0
  6
________________
 62
     7
370
     9
100
AcDbLine
 10
428.2032325753605
 20
60.9884046080718
 30
0.0
 11
428.2032325753605
 21
51.35237919718332
 31
0.0
  0
ELLIPSE
  5
4504
330
4500
100
AcDbEntity
  8
0
  6
________________
 62
     7
370
     9
100
AcDbEllipse
 10
424.267752934961
 20
52.15570561485755
 30
0.0
 11
-2.782804340948198
 21
3.408225344662554
 31
0.0
210
0.0
220
0.0
230
-1.0
 40
0.816496580927726
 41
2.356194490192336
 42
3.141592653589776
  0
LINE
  5
4505
330
4500
100
AcDbEntity
  8
0
  6
________________
 62
     7
370
     9
100
AcDbLine
 10
420.3322732945613
 20
52.95903203253182
 30
0.0
 11
420.3322732945613
 21
62.59505744342031
 31
0.0
  0
ELLIPSE
  5
4506
330
4500
100
AcDbEntity
  8
0
  6
________________
 62
     7
370
     9
100
AcDbEllipse
 10
427.8454616989607
 20
69.68282745502286
 30
0.0
 11
-4.427188724235755
 21
5.422176684690415
 31
0.0
210
0.0
220
0.0
230
-1.0
 40
0.8164965809277259
 41
0.0
 42
3.141592653589791
  0
ELLIPSE
  5
4507
330
4500
100
AcDbEntity
  8
0
  6
________________
 62
     7
370
     9
100
AcDbEllipse
 10
424.267752934961
 20
66.76164048166194
 30
0.0
 11
-4.427188724235743
 21
5.422176684690401
 31
0.0
210
0.0
220
0.0
230
-1.0
 40
0.8164965809277259
 41
3.141592653589789
 42
3.24727576772778
  0
ELLIPSE
  5
4508
330
4500
100
AcDbEntity
  8
0
  6
________________
 62
     7
370
     9
100
AcDbEllipse
 10
424.267752934961
 20
66.76164048166194
 30
0.0
 11
-4.427188724235743
 21
5.422176684690401
 31
0.0
210
0.0
220
0.0
230
-1.0
 40
0.8164965809277259
 41
0.0
 42
3.141592653589789
  0
LINE
  5
4509
330
4500
100
AcDbEntity
  8
0
  6
________________
 62
     7
370
     9
100
AcDbLine
 10
423.8026507956411
 20
70.3985182634963
 30
0.0
 11
422.7293381664412
 21
70.61760728649836
 31
0.0
  0
LINE
  5
450A
330
4500
100
AcDbEntity
  8
0
  6
________________
 62
     7
370
     9
100
AcDbLine
 10
423.8026507956411
 20
69.30307314848594
 30
0.0
 11
423.8026507956411
 21
70.3985182634963
 31
0.0
  0
LINE
  5
450B
330
4500
100
AcDbEntity
  8
0
  6
________________
 62
     7
370
     9
100
AcDbLine
 10
423.0871090428411
 20
67.98853901047363
 30
0.0
 11
423.8026507956411
 21
69.30307314848594
 31
0.0
  0
LINE
  5
450C
330
4500
100
AcDbEntity
  8
0
  6
________________
 62
     7
370
     9
100
AcDbLine
 10
423.0871090428411
 20
66.89309389546327
 30
0.0
 11
423.0871090428411
 21
67.98853901047363
 31
0.0
  0
LINE
  5
450D
330
4500
100
AcDbEntity
  8
0
  6
________________
 62
     7
370
     9
100
AcDbLine
 10
424.4682396936808
 20
63.79195064634402
 30
0.0
 11
423.0871090428411
 21
66.89309389546327
 31
0.0
  0
LINE
  5
450E
330
4500
100
AcDbEntity
  8
0
  6
________________
 62
     7
370
     9
100
AcDbLine
 10
423.3460748728644
 20
61.73040223261744
 30
0.0
 11
424.4682396936808
 21
63.79195064634402
 31
0.0
  0
LINE
  5
450F
330
4500
100
AcDbEntity
  8
0
  6
________________
 62
     7
370
     9
100
AcDbLine
 10
425.5415523228807
 20
63.57286162334191
 30
0.0
 11
423.3460748728644
 21
61.73040223261744
 31
0.0
  0
LINE
  5
4510
330
4500
100
AcDbEntity
  8
0
  6
________________
 62
     7
370
     9
100
AcDbLine
 10
424.160421672041
 20
66.67400487246117
 30
0.0
 11
425.5415523228807
 21
63.57286162334191
 31
0.0
  0
LINE
  5
4511
330
4500
100
AcDbEntity
  8
0
  6
________________
 62
     7
370
     9
100
AcDbLine
 10
424.160421672041
 20
67.6160274825322
 30
0.0
 11
424.160421672041
 21
66.67400487246117
 31
0.0
  0
LINE
  5
4512
330
4500
100
AcDbEntity
  8
0
  6
________________
 62
     7
370
     9
100
AcDbLine
 10
424.875963424841
 20
68.93056162054457
 30
0.0
 11
424.160421672041
 21
67.6160274825322
 31
0.0
  0
LINE
  5
4513
330
4500
100
AcDbEntity
  8
0
  6
________________
 62
     7
370
     9
100
AcDbLine
 10
424.875963424841
 20
71.27487435550461
 30
0.0
 11
424.875963424841
 21
68.93056162054457
 31
0.0
  0
LINE
  5
4514
330
4500
100
AcDbEntity
  8
0
  6
________________
 62
     7
370
     9
100
AcDbLine
 10
422.7293381664412
 20
71.71305240150872
 30
0.0
 11
424.875963424841
 21
71.27487435550461
 31
0.0
  0
LINE
  5
4515
330
4500
100
AcDbEntity
  8
0
  6
________________
 62
     7
370
     9
100
AcDbLine
 10
422.7293381664412
 20
70.61760728649836
 30
0.0
 11
422.7293381664412
 21
71.71305240150872
 31
0.0
  0
ELLIPSE
  5
4516
330
4500
100
AcDbEntity
  8
0
  6
________________
 62
     7
370
     9
100
AcDbEllipse
 10
424.160421672041
 20
66.67400487246117
 30
0.0
 11
4.04771540501549
 21
-4.957418683145452
 31
0.0
210
0.0
220
0.0
230
1.0
 40
0.8164965809277261
 41
5.497787143782134
 42
6.283185307179586
  0
ELLIPSE
  5
4517
330
4500
100
AcDbEntity
  8
0
  6
________________
 62
     7
370
     9
100
AcDbEllipse
 10
424.267752934961
 20
66.76164048166194
 30
0.0
 11
4.04771540501549
 21
-4.957418683145452
 31
0.0
210
0.0
220
0.0
230
1.0
 40
0.8164965809277261
 41
0.0
 42
3.141592653589782
  0
ELLIPSE
  5
4518
330
4500
100
AcDbEntity
  8
0
  6
________________
 62
     7
370
     9
100
AcDbEllipse
 10
424.160421672041
 20
66.67400487246117
 30
0.0
 11
4.04771540501549
 21
-4.957418683145452
 31
0.0
210
0.0
220
0.0
230
1.0
 40
0.8164965809277261
 41
3.141592653589788
 42
5.497787143782134
  0
ELLIPSE
  5
4519
330
4500
100
AcDbEntity
  8
0
  6
________________
 62
     7
370
     9
100
AcDbEllipse
 10
424.160421672041
 20
66.67400487246117
 30
0.0
 11
4.04771540501549
 21
-4.957418683145452
 31
0.0
210
0.0
220
0.0
230
1.0
 40
0.8164965809277261
 41
0.0
 42
3.141592653589788
  0
LINE
  5
451A
330
4500
100
AcDbEntity
  8
0
  6
________________
 62
     7
370
     9
100
AcDbLine
 10
423.8026507956411
 20
70.3985182634963
 30
0.0
 11
424.875963424841
 21
71.27487435550461
 31
0.0
  0
LINE
  5
451B
330
4500
100
AcDbEntity
  8
0
  6
________________
 62
     7
370
     9
100
AcDbLine
 10
423.8026507956411
 20
69.30307314848594
 30
0.0
 11
424.875963424841
 21
70.17942924049424
 31
0.0
  0
LINE
  5
451C
330
4500
100
AcDbEntity
  8
0
  6
________________
 62
     7
370
     9
100
AcDbLine
 10
422.7293381664412
 20
70.61760728649836
 30
0.0
 11
423.8026507956411
 21
71.49396337850666
 31
0.0
  0
LINE
  5
451D
330
4500
100
AcDbEntity
  8
0
  6
________________
 62
     7
370
     9
100
AcDbLine
 10
423.0871090428411
 20
67.98853901047363
 30
0.0
 11
424.875963424841
 21
69.44913249715407
 31
0.0
  0
LINE
  5
451E
330
4500
100
AcDbEntity
  8
0
  6
________________
 62
     7
370
     9
100
AcDbLine
 10
423.0871090428411
 20
66.89309389546327
 30
0.0
 11
424.3107444129054
 21
67.89218799142293
 31
0.0
  0
LINE
  5
451F
330
4500
100
AcDbEntity
  8
0
  6
________________
 62
     7
370
     9
100
AcDbLine
 10
424.4682396936808
 20
63.79195064634402
 30
0.0
 11
425.1837814464808
 21
64.37618804101619
 31
0.0
  0
LINE
  5
4520
330
4500
100
AcDbEntity
  8
0
  6
________________
 62
     7
370
     9
100
AcDbLine
 10
431.7809413393603
 20
63.85917198456914
 30
0.0
 11
431.7809413393603
 21
54.27356617054424
 31
0.0
  0
LINE
  5
4521
330
4500
100
AcDbEntity
  8
0
  6
________________
 62
   253
370
     9
100
AcDbLine
 10
431.7809413393603
 20
54.27356617054424
 30
0.0
 11
428.2032325753605
 21
51.35237919718332
 31
0.0
  0
LINE
  5
4522
330
4500
100
AcDbEntity
  8
0
  6
________________
 62
     7
370
     9
100
AcDbLine
 10
425.4789424195107
 20
63.71344374643489
 30
0.0
 11
425.2854132870456
 21
63.35790802775748
 31
0.0
  0
ELLIPSE
  5
4523
330
4500
100
AcDbEntity
  8
0
  6
________________
 62
     7
370
     9
100
AcDbEllipse
 10
424.267752934961
 20
52.15570561485755
 30
0.0
 11
-2.782804340948195
 21
3.408225344662555
 31
0.0
210
0.0
220
0.0
230
-1.0
 40
0.8164965809277263
 41
3.141592653589776
 42
5.497787143782142
  0
ELLIPSE
  5
4524
330
4500
100
AcDbEntity
  8
0
  6
________________
 62
     7
370
     9
100
AcDbEllipse
 10
427.8454616989607
 20
55.07689258821846
 30
0.0
 11
-2.782804340948198
 21
3.408225344662554
 31
0.0
210
0.0
220
0.0
230
-1.0
 40
0.816496580927726
 41
2.356194490192336
 42
3.141592653589776
  0
LINE
  5
4525
330
4500
100
AcDbEntity
  8
0
  6
________________
 62
     7
370
     9
100
AcDbLine
 10
444.481807451559
 20
123.2500935790285
 30
0.0
 11
444.481807451559
 21
121.7895000923474
 31
0.0
  0
LINE
  5
4526
330
4500
100
AcDbEntity
  8
0
  6
________________
 62
     7
370
     9
100
AcDbLine
 10
441.6196404403586
 20
122.3737374870197
 30
0.0
 11
444.481807451559
 21
124.710687065709
 31
0.0
  0
LINE
  5
4527
330
4500
100
AcDbEntity
  8
0
  6
________________
 62
     7
370
     9
100
AcDbLine
 10
444.481807451559
 20
124.710687065709
 30
0.0
 11
444.481807451559
 21
123.2500935790285
 31
0.0
  0
LINE
  5
4528
330
4500
100
AcDbEntity
  8
0
  6
________________
 62
   253
370
     9
100
AcDbLine
 10
421.5844713619611
 20
129.3845862230864
 30
0.0
 11
418.7223043507607
 21
127.0476366443971
 31
0.0
  0
LINE
  5
4529
330
4500
100
AcDbEntity
  8
0
  6
________________
 62
     7
370
     9
100
AcDbLine
 10
421.5844713619611
 20
129.3845862230864
 30
0.0
 11
421.9422422383612
 21
129.3115565487524
 31
0.0
  0
LINE
  5
452A
330
4500
100
AcDbEntity
  8
0
  6
________________
 62
     7
370
     9
100
AcDbLine
 10
421.9422422383612
 20
129.3115565487524
 30
0.0
 11
444.481807451559
 21
124.710687065709
 31
0.0
  0
ELLIPSE
  5
452B
330
4500
100
AcDbEntity
  8
0
  6
________________
 62
     7
370
     9
100
AcDbEllipse
 10
453.7838502379581
 20
119.1604318163233
 30
0.0
 11
1.517893276880801
 21
-1.859032006179529
 31
0.0
210
0.0
220
0.0
230
1.0
 40
0.8164965809277265
 41
0.7853981633974669
 42
2.356194490192348
  0
LINE
  5
452C
330
4500
100
AcDbEntity
  8
0
  6
________________
 62
     7
370
     9
100
AcDbLine
 10
455.9304754963579
 20
16.48070970268772
 30
0.0
 11
455.9304754963579
 21
118.7222537703192
 31
0.0
  0
ELLIPSE
  5
452D
330
4500
100
AcDbEntity
  8
0
  6
________________
 62
     7
370
     9
100
AcDbEllipse
 10
453.7838502379581
 20
16.91888774869187
 30
0.0
 11
1.517893276880847
 21
-1.859032006179592
 31
0.0
210
0.0
220
0.0
230
1.0
 40
0.816496580927726
 41
5.497787143782138
 42
6.283185307179586
  0
LINE
  5
452E
330
4500
100
AcDbEntity
  8
0
  6
________________
 62
     7
370
     9
100
AcDbLine
 10
453.6049647997582
 20
14.76451235583819
 30
0.0
 11
453.7838502379581
 21
14.7279975186712
 31
0.0
  0
LINE
  5
452F
330
4500
100
AcDbEntity
  8
0
  6
________________
 62
     7
370
     9
100
AcDbLine
 10
453.7838502379581
 20
121.351322046344
 30
0.0
 11
444.481807451559
 21
123.2500935790285
 31
0.0
  0
LINE
  5
4530
330
4500
100
AcDbEntity
  8
0
  6
________________
 62
   253
370
     9
100
AcDbLine
 10
455.214933743558
 20
122.5197968356884
 30
0.0
 11
453.7838502379581
 21
121.351322046344
 31
0.0
  0
LINE
  5
4531
330
4500
100
AcDbEntity
  8
0
  6
________________
 62
   253
370
     9
100
AcDbLine
 10
456.288246372758
 20
119.0143724676553
 30
0.0
 11
455.9304754963579
 21
118.7222537703192
 31
0.0
  0
LINE
  5
4532
330
4500
100
AcDbEntity
  8
0
  6
________________
 62
   253
370
     9
100
AcDbLine
 10
456.288246372758
 20
16.77282840002386
 30
0.0
 11
455.9304754963579
 21
16.48070970268772
 31
0.0
  0
ELLIPSE
  5
4533
330
4500
100
AcDbEntity
  8
0
  6
________________
 62
     7
370
     9
100
AcDbEllipse
 10
421.5844713619611
 20
129.0194378514163
 30
0.0
 11
-0.2529822128134881
 21
0.3098386676966153
 31
0.0
210
0.0
220
0.0
230
-1.0
 40
0.8164965809277255
 41
0.0
 42
0.7853981633973991
  0
ELLIPSE
  5
4534
330
4500
100
AcDbEntity
  8
0
  6
________________
 62
     7
370
     9
100
AcDbEllipse
 10
453.7838502379581
 20
16.91888774869187
 30
0.0
 11
1.517893276880847
 21
-1.859032006179592
 31
0.0
210
0.0
220
0.0
230
1.0
 40
0.8164965809277256
 41
0.0
 42
0.785398163397442
  0
LINE
  5
4535
330
4500
100
AcDbEntity
  8
0
  6
________________
 62
     7
370
     9
100
AcDbLine
 10
453.6049647997582
 20
14.76451235583819
 30
0.0
 11
453.7838502379581
 21
14.72799751867126
 31
0.0
  0
LINE
  5
4536
330
4500
100
AcDbEntity
  8
0
  6
________________
 62
     7
370
     9
100
AcDbLine
 10
453.7838502379581
 20
14.72799751867126
 30
0.0
 11
456.288246372758
 21
14.21678979833301
 31
0.0
  0
LINE
  5
4537
330
4500
100
AcDbEntity
  8
0
  6
________________
 62
     7
370
     9
100
AcDbLine
 10
456.288246372758
 20
14.21678979833301
 30
0.0
 11
456.288246372758
 21
122.3007078126863
 31
0.0
  0
LINE
  5
4538
330
4500
100
AcDbEntity
  8
0
  6
________________
 62
     7
370
     9
100
AcDbLine
 10
456.288246372758
 20
122.3007078126863
 30
0.0
 11
444.481807451559
 21
124.710687065709
 31
0.0
  0
LINE
  5
4539
330
4500
100
AcDbEntity
  8
0
  6
________________
 62
     7
370
     9
100
AcDbLine
 10
444.481807451559
 20
124.710687065709
 30
0.0
 11
421.9422422383612
 21
129.3115565487524
 31
0.0
  0
LINE
  5
453A
330
4500
100
AcDbEntity
  8
0
  6
________________
 62
     7
370
     9
100
AcDbLine
 10
421.226700485561
 20
130.1879126407607
 30
0.0
 11
421.226700485561
 21
129.2437169335744
 31
0.0
  0
LINE
  5
453B
330
4500
100
AcDbEntity
  8
0
  6
________________
 62
     7
370
     9
100
AcDbLine
 10
457.0037881255578
 20
122.8849452073584
 30
0.0
 11
421.226700485561
 21
130.1879126407607
 31
0.0
  0
LINE
  5
453C
330
4500
100
AcDbEntity
  8
0
  6
________________
 62
     7
370
     9
100
AcDbLine
 10
457.0037881255578
 20
13.34043370632475
 30
0.0
 11
457.0037881255578
 21
122.8849452073584
 31
0.0
  0
LINE
  5
453D
330
4500
100
AcDbEntity
  8
0
  6
________________
 62
     7
370
     9
100
AcDbLine
 10
453.6049647997582
 20
14.03421561249795
 30
0.0
 11
457.0037881255578
 21
13.34043370632475
 31
0.0
  0
LINE
  5
453E
330
4500
100
AcDbEntity
  8
0
  6
________________
 62
     7
370
     9
100
AcDbLine
 10
459.8659551367575
 20
125.2218947860471
 30
0.0
 11
457.0037881255578
 21
122.8849452073584
 31
0.0
  0
LINE
  5
453F
330
4500
100
AcDbEntity
  8
0
  6
________________
 62
     7
370
     9
100
AcDbLine
 10
459.8659551367576
 20
15.67738328501349
 30
0.0
 11
459.8659551367575
 21
125.2218947860471
 31
0.0
  0
LINE
  5
4540
330
4500
100
AcDbEntity
  8
0
  6
________________
 62
     7
370
     9
100
AcDbLine
 10
459.8659551367576
 20
15.67738328501349
 30
0.0
 11
457.0037881255578
 21
13.34043370632475
 31
0.0
  0
LINE
  5
4541
330
4500
100
AcDbEntity
  8
0
  6
________________
 62
     7
370
     9
100
AcDbLine
 10
424.0888674967608
 20
132.5248622194494
 30
0.0
 11
421.226700485561
 21
130.1879126407607
 31
0.0
  0
LINE
  5
4542
330
4500
100
AcDbEntity
  8
0
  6
________________
 62
     7
370
     9
100
AcDbLine
 10
459.8659551367575
 20
125.2218947860471
 30
0.0
 11
424.0888674967608
 21
132.5248622194494
 31
0.0
  0
LINE
  5
4543
330
4500
100
AcDbEntity
  8
0
  6
________________
 62
     7
370
     9
100
AcDbLine
 10
450.7427977885585
 20
8.045782317108166
 30
0.0
 11
450.7427977885584
 21
117.5902938181411
 31
0.0
  0
LINE
  5
4544
330
4500
100
AcDbEntity
  8
0
  6
________________
 62
     7
370
     9
100
AcDbLine
 10
414.9657101485619
 20
15.34874975051042
 30
0.0
 11
450.7427977885585
 21
8.045782317108166
 31
0.0
  0
LINE
  5
4545
330
4500
100
AcDbEntity
  8
0
  6
________________
 62
     7
370
     9
100
AcDbLine
 10
414.9657101485619
 20
124.8932612515433
 30
0.0
 11
414.9657101485619
 21
15.34874975051043
 31
0.0
  0
LINE
  5
4546
330
4500
100
AcDbEntity
  8
0
  6
________________
 62
     7
370
     9
100
AcDbLine
 10
450.7427977885584
 20
117.5902938181411
 30
0.0
 11
414.9657101485619
 21
124.8932612515433
 31
0.0
  0
LINE
  5
4547
330
4500
100
AcDbEntity
  8
0
  6
________________
 62
     7
370
     9
100
AcDbLine
 10
450.7427977885585
 20
8.045782317108166
 30
0.0
 11
453.6049647997582
 21
10.38273189579685
 31
0.0
  0
LINE
  5
4548
330
4500
100
AcDbEntity
  8
0
  6
________________
 62
     7
370
     9
100
AcDbLine
 10
450.7427977885584
 20
117.5902938181411
 30
0.0
 11
453.6049647997582
 21
119.9272433968298
 31
0.0
  0
LINE
  5
4549
330
4500
100
AcDbEntity
  8
0
  6
________________
 62
     7
370
     9
100
AcDbLine
 10
453.6049647997582
 20
10.38273189579685
 30
0.0
 11
453.6049647997582
 21
119.9272433968298
 31
0.0
  0
LINE
  5
454A
330
4500
100
AcDbEntity
  8
0
  6
________________
 62
     7
370
     9
100
AcDbLine
 10
414.9657101485619
 20
124.8932612515433
 30
0.0
 11
417.8278771597617
 21
127.230210830232
 31
0.0
  0
LINE
  5
454B
330
4500
100
AcDbEntity
  8
0
  6
________________
 62
     7
370
     9
100
AcDbLine
 10
453.6049647997582
 20
119.9272433968298
 30
0.0
 11
417.8278771597616
 21
127.230210830232
 31
0.0
  0
LINE
  5
454C
330
4500
100
AcDbEntity
  8
0
  6
________________
 62
     7
370
     9
100
AcDbLine
 10
428.6949416591967
 20
61.33946379697157
 30
0.0
 11
432.2726504231964
 21
64.26065077033249
 31
0.0
  0
LINE
  5
454D
330
4500
100
AcDbEntity
  8
0
  6
________________
 62
     7
370
     9
100
AcDbLine
 10
423.418272974725
 20
75.10500413971327
 30
0.0
 11
419.8405642107253
 21
72.18381716635236
 31
0.0
  0
LINE
  5
454E
330
4500
100
AcDbEntity
  8
0
  6
________________
 62
     7
370
     9
100
AcDbLine
 10
420.2200375299455
 20
71.71905916480748
 30
0.0
 11
420.1127062670255
 21
71.63142355560664
 31
0.0
  0
LINE
  5
454F
330
4500
100
AcDbEntity
  8
0
  6
________________
 62
     7
370
     9
100
AcDbLine
 10
428.2081370770566
 20
61.71658618931574
 30
0.0
 11
428.3154683399765
 21
61.80422179851652
 31
0.0
  0
LINE
  5
4550
330
4500
100
AcDbEntity
  8
0
  6
________________
 62
     7
370
     9
100
AcDbLine
 10
427.0505572759092
 20
48.74748027019509
 30
0.0
 11
430.6282660399089
 21
51.668667243556
 31
0.0
  0
LINE
  5
4551
330
4500
100
AcDbEntity
  8
0
  6
________________
 62
     7
370
     9
100
AcDbLine
 10
421.3314891491476
 20
129.3292765191129
 30
0.0
 11
418.5741108015337
 21
127.077886525962
 31
0.0
  0
LINE
  5
4552
330
4500
100
AcDbEntity
  8
0
  6
________________
 62
     7
370
     9
100
AcDbLine
 10
455.301743514839
 20
15.05985574251228
 30
0.0
 11
456.288246372758
 21
15.86533195307865
 31
0.0
  0
ENDBLK
  5
4553
330
4500
100
AcDbEntity
  8
0
100
AcDbBlockEnd
  0
BLOCK
  5
4556
330
4555
100
AcDbEntity
  8
0
100
AcDbBlockBegin
  2
D_FRAME_VIEW@409
 70
     0
 10
0.0
 20
0.0
 30
0.0
  3
D_FRAME_VIEW@409
  1

  0
LINE
  5
4557
330
4555
100
AcDbEntity
  8
0
  6
________________
 62
     7
370
     9
100
AcDbLine
 10
322.8750000000001
 20
76.14999999999999
 30
0.0
 11
340.3750000000002
 21
76.14999999999999
 31
0.0
  0
LINE
  5
4558
330
4555
100
AcDbEntity
  8
0
  6
________________
 62
     7
370
     9
100
AcDbLine
 10
339.6250000000002
 20
75.85
 30
0.0
 11
323.6250000000002
 21
75.85
 31
0.0
  0
LINE
  5
4559
330
4555
100
AcDbEntity
  8
0
  6
________________
 62
     7
370
     9
100
AcDbLine
 10
313.6250000000002
 20
91.15
 30
0.0
 11
313.3749999999999
 21
91.15
 31
0.0
  0
LINE
  5
455A
330
4555
100
AcDbEntity
  8
0
  6
________________
 62
     7
370
     9
100
AcDbLine
 10
313.3749999999999
 20
94.14999999999998
 30
0.0
 11
313.3749999999999
 21
91.14999999999998
 31
0.0
  0
LINE
  5
455B
330
4555
100
AcDbEntity
  8
0
  6
________________
 62
   253
370
     9
100
AcDbLine
 10
312.3749999999999
 20
104.15
 30
0.0
 11
312.3749999999999
 21
99.14999999999999
 31
0.0
  0
LINE
  5
455C
330
4555
100
AcDbEntity
  8
0
  6
________________
 62
   253
370
     9
100
AcDbLine
 10
312.3749999999999
 20
99.14999999999999
 30
0.0
 11
312.3749999999999
 21
94.14999999999998
 31
0.0
  0
LINE
  5
455D
330
4555
100
AcDbEntity
  8
0
  6
________________
 62
     7
370
     9
100
AcDbLine
 10
310.3749999999999
 20
96.14999999999998
 30
0.0
 11
310.3749999999999
 21
99.14999999999999
 31
0.0
  0
LINE
  5
455E
330
4555
100
AcDbEntity
  8
0
  6
________________
 62
     7
370
     9
100
AcDbLine
 10
310.3749999999999
 20
99.14999999999999
 30
0.0
 11
310.3749999999999
 21
102.15
 31
0.0
  0
LINE
  5
455F
330
4555
100
AcDbEntity
  8
0
  6
________________
 62
     7
370
     9
100
AcDbLine
 10
313.3750000000002
 20
94.14999999999998
 30
0.0
 11
313.3750000000002
 21
104.15
 31
0.0
  0
LINE
  5
4560
330
4555
100
AcDbEntity
  8
0
  6
________________
 62
   253
370
     9
100
AcDbLine
 10
313.8749999999999
 20
104.15
 30
0.0
 11
313.8749999999999
 21
94.14999999999998
 31
0.0
  0
LINE
  5
4561
330
4555
100
AcDbEntity
  8
0
  6
________________
 62
     7
370
     9
100
AcDbLine
 10
313.6250000000002
 20
94.14999999999998
 30
0.0
 11
313.3749999999999
 21
94.14999999999998
 31
0.0
  0
LINE
  5
4562
330
4555
100
AcDbEntity
  8
0
  6
________________
 62
     7
370
     9
100
AcDbLine
 10
345.8749999999999
 20
94.14999999999998
 30
0.0
 11
345.8749999999999
 21
104.15
 31
0.0
  0
LINE
  5
4563
330
4555
100
AcDbEntity
  8
0
  6
________________
 62
     7
370
     9
100
AcDbLine
 10
313.3749999999997
 20
112.15
 30
0.0
 11
313.3749999999997
 21
104.15
 31
0.0
  0
LINE
  5
4564
330
4555
100
AcDbEntity
  8
0
  6
________________
 62
     7
370
     9
100
AcDbLine
 10
363.3749999999999
 20
112.15
 30
0.0
 11
313.3749999999997
 21
112.15
 31
0.0
  0
LINE
  5
4565
330
4555
100
AcDbEntity
  8
0
  6
________________
 62
     7
370
     9
100
AcDbLine
 10
363.3749999999999
 20
104.15
 30
0.0
 11
313.3749999999997
 21
104.15
 31
0.0
  0
LINE
  5
4566
330
4555
100
AcDbEntity
  8
0
  6
________________
 62
     7
370
     9
100
AcDbLine
 10
363.3749999999999
 20
112.15
 30
0.0
 11
363.3749999999999
 21
104.15
 31
0.0
  0
LINE
  5
4567
330
4555
100
AcDbEntity
  8
0
  6
________________
 62
     7
370
     9
100
AcDbLine
 10
363.6250000000001
 20
86.15
 30
0.0
 11
363.6250000000001
 21
94.14999999999998
 31
0.0
  0
LINE
  5
4568
330
4555
100
AcDbEntity
  8
0
  6
________________
 62
     7
370
     9
100
AcDbLine
 10
363.6250000000001
 20
86.15
 30
0.0
 11
313.6250000000002
 21
86.15
 31
0.0
  0
LINE
  5
4569
330
4555
100
AcDbEntity
  8
0
  6
________________
 62
     7
370
     9
100
AcDbLine
 10
313.6250000000002
 20
86.15
 30
0.0
 11
313.6250000000002
 21
94.14999999999998
 31
0.0
  0
LINE
  5
456A
330
4555
100
AcDbEntity
  8
0
  6
________________
 62
     7
370
     9
100
AcDbLine
 10
363.6250000000001
 20
94.14999999999998
 30
0.0
 11
313.6250000000002
 21
94.14999999999998
 31
0.0
  0
LINE
  5
456B
330
4555
100
AcDbEntity
  8
0
  6
________________
 62
     7
370
     9
100
AcDbLine
 10
347.8750000000001
 20
99.14999999999999
 30
0.0
 11
345.8749999999999
 21
99.14999999999996
 31
0.0
  0
LINE
  5
456C
330
4555
100
AcDbEntity
  8
0
  6
________________
 62
     7
370
     9
100
AcDbLine
 10
347.8750000000001
 20
99.14999999999999
 30
0.0
 11
347.8750000000001
 21
94.14999999999998
 31
0.0
  0
LINE
  5
456D
330
4555
100
AcDbEntity
  8
0
  6
________________
 62
     7
370
     9
100
AcDbLine
 10
340.3750000000002
 20
76.14999999999999
 30
0.0
 11
340.3750000000002
 21
86.15
 31
0.0
  0
LINE
  5
456E
330
4555
100
AcDbEntity
  8
0
  6
________________
 62
     7
370
     9
100
AcDbLine
 10
322.8750000000001
 20
86.15
 30
0.0
 11
322.8750000000001
 21
76.14999999999999
 31
0.0
  0
LINE
  5
456F
330
4555
100
AcDbEntity
  8
0
  6
________________
 62
     7
370
     9
100
AcDbLine
 10
323.6250000000002
 20
76.14999999999999
 30
0.0
 11
323.6250000000002
 21
75.85
 31
0.0
  0
LINE
  5
4570
330
4555
100
AcDbEntity
  8
0
  6
________________
 62
     7
370
     9
100
AcDbLine
 10
339.6250000000002
 20
75.85
 30
0.0
 11
339.6250000000002
 21
76.14999999999999
 31
0.0
  0
LINE
  5
4571
330
4555
100
AcDbEntity
  8
0
  6
________________
 62
     7
370
     9
100
AcDbLine
 10
313.3749999999999
 20
104.15
 30
0.0
 11
312.3749999999999
 21
104.15
 31
0.0
  0
LINE
  5
4572
330
4555
100
AcDbEntity
  8
0
  6
________________
 62
     7
370
     9
100
AcDbLine
 10
312.3749999999999
 20
94.14999999999998
 30
0.0
 11
313.3749999999999
 21
94.14999999999998
 31
0.0
  0
ARC
  5
4573
330
4555
100
AcDbEntity
  8
0
  6
________________
 62
     7
370
     9
100
AcDbCircle
 10
312.3749999999999
 20
96.14999999999998
 30
0.0
 40
2.000000000000002
100
AcDbArc
 50
180.0
 51
270.0
  0
ARC
  5
4574
330
4555
100
AcDbEntity
  8
0
  6
________________
 62
     7
370
     9
100
AcDbCircle
 10
312.3749999999999
 20
102.15
 30
0.0
 40
2.000000000000002
100
AcDbArc
 50
90.0
 51
180.0
  0
ENDBLK
  5
4575
330
4555
100
AcDbEntity
  8
0
100
AcDbBlockEnd
  0
BLOCK
  5
4578
330
4577
100
AcDbEntity
  8
0
100
AcDbBlockBegin
  2
D_FRAME_VIEW@411
 70
     0
 10
0.0
 20
0.0
 30
0.0
  3
D_FRAME_VIEW@411
  1

  0
LINE
  5
4579
330
4577
100
AcDbEntity
  8
0
  6
________________
 62
     7
370
     9
100
AcDbLine
 10
427.8499999999999
 20
222.1946712055912
 30
0.0
 11
437.8499999999999
 21
222.1946712055912
 31
0.0
  0
LINE
  5
457A
330
4577
100
AcDbEntity
  8
0
  6
________________
 62
     7
370
     9
100
AcDbLine
 10
437.8499999999999
 20
222.1946712055915
 30
0.0
 11
437.8499999999999
 21
237.7499999999997
 31
0.0
  0
LINE
  5
457B
330
4577
100
AcDbEntity
  8
0
  6
________________
 62
     7
370
     9
100
AcDbLine
 10
438.1499999999999
 20
236.9999999999997
 30
0.0
 11
438.1499999999999
 21
220.9999999999997
 31
0.0
  0
LINE
  5
457C
330
4577
100
AcDbEntity
  8
0
  6
________________
 62
   253
370
     9
100
AcDbLine
 10
427.8499999999999
 20
208.9999999999998
 30
0.0
 11
437.8499999999999
 21
208.9999999999998
 31
0.0
  0
LINE
  5
457D
330
4577
100
AcDbEntity
  8
0
  6
________________
 62
     7
370
     9
100
AcDbLine
 10
437.8499999999999
 20
208.9999999999998
 30
0.0
 11
437.8499999999999
 21
222.1946712055912
 31
0.0
  0
LINE
  5
457E
330
4577
100
AcDbEntity
  8
0
  6
________________
 62
     7
370
     9
100
AcDbLine
 10
437.8499999999999
 20
203.4999999999998
 30
0.0
 11
437.8499999999999
 21
208.9999999999998
 31
0.0
  0
ARC
  5
457F
330
4577
100
AcDbEntity
  8
0
  6
________________
 62
     7
370
     9
100
AcDbCircle
 10
-414.8499999999999
 20
207.2499999999997
 30
0.0
 40
3.00000000000004
210
0.0
220
0.0
230
-1.0
100
AcDbArc
 50
170.4059317731401
 51
189.5940682268599
  0
LINE
  5
4580
330
4577
100
AcDbEntity
  8
0
  6
________________
 62
     7
370
     9
100
AcDbLine
 10
417.8080398915499
 20
206.7499999999997
 30
0.0
 11
411.8919601084499
 21
206.7499999999997
 31
0.0
  0
LINE
  5
4581
330
4577
100
AcDbEntity
  8
0
  6
________________
 62
     7
370
     9
100
AcDbLine
 10
411.8919601084499
 20
207.7499999999997
 30
0.0
 11
417.8080398915499
 21
207.7499999999997
 31
0.0
  0
ARC
  5
4582
330
4577
100
AcDbEntity
  8
0
  6
________________
 62
     7
370
     9
100
AcDbCircle
 10
-414.8499999999999
 20
207.2499999999997
 30
0.0
 40
2.99999999999993
210
0.0
220
0.0
230
-1.0
100
AcDbArc
 50
350.4059317731401
 51
9.59406822685986
  0
ARC
  5
4583
330
4577
100
AcDbEntity
  8
0
  6
________________
 62
     7
370
     9
100
AcDbCircle
 10
-414.8499999999999
 20
244.2499999999997
 30
0.0
 40
5.000000000000004
210
0.0
220
0.0
230
-1.0
100
AcDbArc
 50
0.0
 51
90.0
  0
CIRCLE
  5
4584
330
4577
100
AcDbEntity
  8
0
  6
________________
 62
   253
370
     9
100
AcDbCircle
 10
414.8499999999999
 20
244.2499999999997
 30
0.0
 40
3.000000000000003
  0
ARC
  5
4585
330
4577
100
AcDbEntity
  8
0
  6
________________
 62
     7
370
     9
100
AcDbCircle
 10
-414.8499999999999
 20
244.2499999999997
 30
0.0
 40
5.000000000000004
210
0.0
220
0.0
230
-1.0
100
AcDbArc
 50
90.0
 51
0.0
  0
CIRCLE
  5
4586
330
4577
100
AcDbEntity
  8
0
  6
________________
 62
     7
370
     9
100
AcDbCircle
 10
-414.8499999999999
 20
283.2499999999992
 30
0.0
 40
4.200000000000037
210
0.0
220
0.0
230
-1.0
  0
CIRCLE
  5
4587
330
4577
100
AcDbEntity
  8
0
  6
________________
 62
     7
370
     9
100
AcDbCircle
 10
-414.8499999999999
 20
187.2499999999997
 30
0.0
 40
4.200000000000037
210
0.0
220
0.0
230
-1.0
  0
ARC
  5
4588
330
4577
100
AcDbEntity
  8
0
  6
________________
 62
     7
370
     9
100
AcDbCircle
 10
-414.8499999999999
 20
283.2499999999992
 30
0.0
 40
8.000000000000007
210
0.0
220
0.0
230
-1.0
100
AcDbArc
 50
0.0
 51
51.31781254651322
  0
ARC
  5
4589
330
4577
100
AcDbEntity
  8
0
  6
________________
 62
     7
370
     9
100
AcDbCircle
 10
-414.8499999999999
 20
283.2499999999992
 30
0.0
 40
7.999999999999964
210
0.0
220
0.0
230
-1.0
100
AcDbArc
 50
51.31781254651322
 51
128.6248328730418
  0
ARC
  5
458A
330
4577
100
AcDbEntity
  8
0
  6
________________
 62
     7
370
     9
100
AcDbCircle
 10
-414.8499999999999
 20
283.2499999999992
 30
0.0
 40
8.000000000000039
210
0.0
220
0.0
230
-1.0
100
AcDbArc
 50
128.6248328730418
 51
180.0
  0
ARC
  5
458B
330
4577
100
AcDbEntity
  8
0
  6
________________
 62
     7
370
     9
100
AcDbCircle
 10
-414.8499999999999
 20
187.2499999999997
 30
0.0
 40
8.000000000000007
210
0.0
220
0.0
230
-1.0
100
AcDbArc
 50
180.0
 51
231.3178125465105
  0
ARC
  5
458C
330
4577
100
AcDbEntity
  8
0
  6
________________
 62
     7
370
     9
100
AcDbCircle
 10
-414.8499999999999
 20
187.2499999999997
 30
0.0
 40
7.999999999999998
210
0.0
220
0.0
230
-1.0
100
AcDbArc
 50
231.3178125465105
 51
308.6821874534889
  0
ARC
  5
458D
330
4577
100
AcDbEntity
  8
0
  6
________________
 62
     7
370
     9
100
AcDbCircle
 10
-414.8499999999999
 20
187.2499999999997
 30
0.0
 40
7.999999999999974
210
0.0
220
0.0
230
-1.0
100
AcDbArc
 50
308.682187453489
 51
0.0
  0
ARC
  5
458E
330
4577
100
AcDbEntity
  8
0
  6
________________
 62
     7
370
     9
100
AcDbCircle
 10
414.8499999999999
 20
207.2499999999997
 30
0.0
 40
3.000000000000003
100
AcDbArc
 50
90.0
 51
170.4059317731395
  0
ARC
  5
458F
330
4577
100
AcDbEntity
  8
0
  6
________________
 62
     7
370
     9
100
AcDbCircle
 10
414.8499999999999
 20
207.2499999999997
 30
0.0
 40
2.999999999999939
100
AcDbArc
 50
170.4059317731395
 51
189.5940682268605
  0
ARC
  5
4590
330
4577
100
AcDbEntity
  8
0
  6
________________
 62
     7
370
     9
100
AcDbCircle
 10
414.8499999999999
 20
207.2499999999997
 30
0.0
 40
2.999999999999939
100
AcDbArc
 50
189.5940682268605
 51
350.4059317731395
  0
ARC
  5
4591
330
4577
100
AcDbEntity
  8
0
  6
________________
 62
     7
370
     9
100
AcDbCircle
 10
414.8499999999999
 20
207.2499999999997
 30
0.0
 40
3.000000000000049
100
AcDbArc
 50
350.4059317731395
 51
9.594068226860486
  0
ARC
  5
4592
330
4577
100
AcDbEntity
  8
0
  6
________________
 62
     7
370
     9
100
AcDbCircle
 10
414.8499999999999
 20
207.2499999999997
 30
0.0
 40
3.000000000000049
100
AcDbArc
 50
9.594068226860495
 51
90.00000000000001
  0
LINE
  5
4593
330
4577
100
AcDbEntity
  8
0
  6
________________
 62
     7
370
     9
100
AcDbLine
 10
422.8499999999999
 20
283.2499999999992
 30
0.0
 11
422.8499999999999
 21
187.2499999999997
 31
0.0
  0
LINE
  5
4594
330
4577
100
AcDbEntity
  8
0
  6
________________
 62
     7
370
     9
100
AcDbLine
 10
406.8499999999999
 20
187.2499999999997
 30
0.0
 11
406.8499999999999
 21
283.2499999999992
 31
0.0
  0
CIRCLE
  5
4595
330
4577
100
AcDbEntity
  8
0
  6
________________
 62
     7
370
     9
100
AcDbCircle
 10
414.8499999999999
 20
283.2499999999992
 30
0.0
 40
2.099999999999991
  0
CIRCLE
  5
4596
330
4577
100
AcDbEntity
  8
0
  6
________________
 62
     7
370
     9
100
AcDbCircle
 10
414.8499999999999
 20
187.2499999999997
 30
0.0
 40
2.099999999999991
  0
CIRCLE
  5
4597
330
4577
100
AcDbEntity
  8
0
  6
________________
 62
     7
370
     9
100
AcDbCircle
 10
414.8499999999999
 20
283.2499999999992
 30
0.0
 40
2.000000000000002
  0
CIRCLE
  5
4598
330
4577
100
AcDbEntity
  8
0
  6
________________
 62
     7
370
     9
100
AcDbCircle
 10
414.8499999999999
 20
187.2499999999997
 30
0.0
 40
2.000000000000002
  0
LINE
  5
4599
330
4577
100
AcDbEntity
  8
0
  6
________________
 62
     7
370
     9
100
AcDbLine
 10
419.8499999999999
 20
171.4999999999997
 30
0.0
 11
409.8499999999999
 21
171.4999999999997
 31
0.0
  0
ARC
  5
459A
330
4577
100
AcDbEntity
  8
0
  6
________________
 62
     7
370
     9
100
AcDbCircle
 10
-414.8499999999999
 20
187.2499999999997
 30
0.0
 40
8.000000000000043
210
0.0
220
0.0
230
-1.0
100
AcDbArc
 50
231.317812546511
 51
308.682187453489
  0
LINE
  5
459B
330
4577
100
AcDbEntity
  8
0
  6
________________
 62
     7
370
     9
100
AcDbLine
 10
419.8499999999999
 20
171.4999999999997
 30
0.0
 11
419.8499999999999
 21
181.0050020016012
 31
0.0
  0
LINE
  5
459C
330
4577
100
AcDbEntity
  8
0
  6
________________
 62
     7
370
     9
100
AcDbLine
 10
409.8499999999999
 20
171.4999999999997
 30
0.0
 11
409.8499999999999
 21
181.0050020016012
 31
0.0
  0
LINE
  5
459D
330
4577
100
AcDbEntity
  8
0
  6
________________
 62
   253
370
     9
100
AcDbLine
 10
419.8499999999999
 20
299.5000000000002
 30
0.0
 11
409.8499999999999
 21
299.5000000000002
 31
0.0
  0
ARC
  5
459E
330
4577
100
AcDbEntity
  8
0
  6
________________
 62
     7
370
     9
100
AcDbCircle
 10
414.8499999999999
 20
283.2499999999992
 30
0.0
 40
7.999999999999998
100
AcDbArc
 50
51.31781254651326
 51
128.6821874534868
  0
LINE
  5
459F
330
4577
100
AcDbEntity
  8
0
  6
________________
 62
     7
370
     9
100
AcDbLine
 10
409.8499999999999
 20
289.4949979983983
 30
0.0
 11
409.8499999999999
 21
299.5000000000002
 31
0.0
  0
LINE
  5
45A0
330
4577
100
AcDbEntity
  8
0
  6
________________
 62
     7
370
     9
100
AcDbLine
 10
419.8499999999999
 20
289.4949979983983
 30
0.0
 11
419.8499999999999
 21
299.5000000000002
 31
0.0
  0
LINE
  5
45A1
330
4577
100
AcDbEntity
  8
0
  6
________________
 62
     7
370
     9
100
AcDbLine
 10
409.8499999999999
 20
300.0000000000003
 30
0.0
 11
419.8499999999999
 21
300.0000000000003
 31
0.0
  0
LINE
  5
45A2
330
4577
100
AcDbEntity
  8
0
  6
________________
 62
     7
370
     9
100
AcDbLine
 10
409.8499999999999
 20
299.5000000000002
 30
0.0
 11
409.8499999999999
 21
300.0000000000003
 31
0.0
  0
LINE
  5
45A3
330
4577
100
AcDbEntity
  8
0
  6
________________
 62
     7
370
     9
100
AcDbLine
 10
419.8499999999999
 20
300.0000000000003
 30
0.0
 11
419.8499999999999
 21
299.9330127018926
 31
0.0
  0
LINE
  5
45A4
330
4577
100
AcDbEntity
  8
0
  6
________________
 62
     7
370
     9
100
AcDbLine
 10
419.8499999999999
 20
299.9330127018926
 30
0.0
 11
419.8499999999999
 21
299.5000000000002
 31
0.0
  0
LINE
  5
45A5
330
4577
100
AcDbEntity
  8
0
  6
________________
 62
     7
370
     9
100
AcDbLine
 10
401.8499999999999
 20
150.9999999999997
 30
0.0
 11
409.8499999999999
 21
150.9999999999997
 31
0.0
  0
LINE
  5
45A6
330
4577
100
AcDbEntity
  8
0
  6
________________
 62
     7
370
     9
100
AcDbLine
 10
401.8499999999999
 20
301.0000000000003
 30
0.0
 11
401.8499999999999
 21
150.9999999999997
 31
0.0
  0
LINE
  5
45A7
330
4577
100
AcDbEntity
  8
0
  6
________________
 62
     7
370
     9
100
AcDbLine
 10
401.8499999999999
 20
301.0000000000003
 30
0.0
 11
409.8499999999999
 21
301.0000000000003
 31
0.0
  0
ARC
  5
45A8
330
4577
100
AcDbEntity
  8
0
  6
________________
 62
     7
370
     9
100
AcDbCircle
 10
414.8499999999999
 20
283.2499999999992
 30
0.0
 40
7.999999999999964
100
AcDbArc
 50
128.6821874534868
 51
180.0
  0
LINE
  5
45A9
330
4577
100
AcDbEntity
  8
0
  6
________________
 62
     7
370
     9
100
AcDbLine
 10
406.8499999999999
 20
283.2499999999992
 30
0.0
 11
406.8499999999999
 21
187.2499999999997
 31
0.0
  0
ARC
  5
45AA
330
4577
100
AcDbEntity
  8
0
  6
________________
 62
     7
370
     9
100
AcDbCircle
 10
414.8499999999999
 20
187.2499999999997
 30
0.0
 40
8.000000000000007
100
AcDbArc
 50
180.0
 51
231.317812546511
  0
LINE
  5
45AB
330
4577
100
AcDbEntity
  8
0
  6
________________
 62
     7
370
     9
100
AcDbLine
 10
409.8499999999999
 20
301.0000000000003
 30
0.0
 11
409.8499999999999
 21
299.5000000000002
 31
0.0
  0
LINE
  5
45AC
330
4577
100
AcDbEntity
  8
0
  6
________________
 62
     7
370
     9
100
AcDbLine
 10
409.8499999999999
 20
299.5000000000002
 30
0.0
 11
409.8499999999999
 21
289.4949979983983
 31
0.0
  0
LINE
  5
45AD
330
4577
100
AcDbEntity
  8
0
  6
________________
 62
     7
370
     9
100
AcDbLine
 10
409.8499999999999
 20
181.0050020016012
 30
0.0
 11
409.8499999999999
 21
171.4999999999997
 31
0.0
  0
LINE
  5
45AE
330
4577
100
AcDbEntity
  8
0
  6
________________
 62
     7
370
     9
100
AcDbLine
 10
409.8499999999999
 20
171.4999999999997
 30
0.0
 11
409.8499999999999
 21
150.9999999999997
 31
0.0
  0
LINE
  5
45AF
330
4577
100
AcDbEntity
  8
0
  6
________________
 62
     7
370
     9
100
AcDbLine
 10
419.8499999999999
 20
300.9999999999993
 30
0.0
 11
419.8499999999999
 21
299.9330127018926
 31
0.0
  0
LINE
  5
45B0
330
4577
100
AcDbEntity
  8
0
  6
________________
 62
     7
370
     9
100
AcDbLine
 10
419.8499999999999
 20
299.9330127018926
 30
0.0
 11
419.8499999999999
 21
299.5000000000002
 31
0.0
  0
LINE
  5
45B1
330
4577
100
AcDbEntity
  8
0
  6
________________
 62
     7
370
     9
100
AcDbLine
 10
427.8499999999999
 20
300.9999999999993
 30
0.0
 11
419.8499999999999
 21
300.9999999999993
 31
0.0
  0
LINE
  5
45B2
330
4577
100
AcDbEntity
  8
0
  6
________________
 62
     7
370
     9
100
AcDbLine
 10
419.8499999999999
 20
171.4999999999997
 30
0.0
 11
419.8499999999999
 21
150.9999999999997
 31
0.0
  0
LINE
  5
45B3
330
4577
100
AcDbEntity
  8
0
  6
________________
 62
     7
370
     9
100
AcDbLine
 10
427.8499999999999
 20
300.9999999999993
 30
0.0
 11
427.8499999999999
 21
150.9999999999997
 31
0.0
  0
LINE
  5
45B4
330
4577
100
AcDbEntity
  8
0
  6
________________
 62
     7
370
     9
100
AcDbLine
 10
427.8499999999999
 20
150.9999999999997
 30
0.0
 11
419.8499999999999
 21
150.9999999999997
 31
0.0
  0
LINE
  5
45B5
330
4577
100
AcDbEntity
  8
0
  6
________________
 62
     7
370
     9
100
AcDbLine
 10
437.8499999999999
 20
237.7499999999997
 30
0.0
 11
427.8499999999999
 21
237.7499999999997
 31
0.0
  0
LINE
  5
45B6
330
4577
100
AcDbEntity
  8
0
  6
________________
 62
     7
370
     9
100
AcDbLine
 10
437.8499999999999
 20
220.9999999999997
 30
0.0
 11
438.1499999999999
 21
220.9999999999997
 31
0.0
  0
LINE
  5
45B7
330
4577
100
AcDbEntity
  8
0
  6
________________
 62
     7
370
     9
100
AcDbLine
 10
438.1499999999999
 20
236.9999999999997
 30
0.0
 11
437.8499999999999
 21
236.9999999999997
 31
0.0
  0
LINE
  5
45B8
330
4577
100
AcDbEntity
  8
0
  6
________________
 62
     7
370
     9
100
AcDbLine
 10
427.8499999999999
 20
203.4999999999998
 30
0.0
 11
437.8499999999999
 21
203.4999999999998
 31
0.0
  0
ENDBLK
  5
45B9
330
4577
100
AcDbEntity
  8
0
100
AcDbBlockEnd
  0
ENDSEC
  0
SECTION
  2
ENTITIES
  0
TEXT
  5
2FB3
330
A
100
AcDbEntity
  8
0
  6
Continuous
 62
     7
370
     0
100
AcDbText
 10
155.7785989969734
 20
-56.93197106671475
 30
0.0
 40
20.0
  1
1030
100
AcDbText
  0
LINE
  5
466C
330
A
100
AcDbEntity
  8
0
  6
________________
 62
     7
370
     9
100
AcDbLine
 10
-6.80532879440841
 20
-123.7249999999999
 30
0.0
 11
-6.80532879440841
 21
-133.7249999999999
 31
0.0
  0
LINE
  5
466E
330
A
100
AcDbEntity
  8
0
  6
________________
 62
     7
370
     9
100
AcDbLine
 10
-6.805328794408183
 20
-133.7249999999999
 30
0.0
 11
8.75
 21
-133.7249999999999
 31
0.0
  0
LINE
  5
466F
330
A
100
AcDbEntity
  8
0
  6
________________
 62
     7
370
     9
100
AcDbLine
 10
8.000000000000114
 20
-134.0249999999999
 30
0.0
 11
-8.0
 21
-134.0249999999999
 31
0.0
  0
LINE
  5
4670
330
A
100
AcDbEntity
  8
0
  6
________________
 62
   253
370
     9
100
AcDbLine
 10
-19.99999999999989
 20
-123.7249999999999
 30
0.0
 11
-19.99999999999989
 21
-133.7249999999999
 31
0.0
  0
LINE
  5
4671
330
A
100
AcDbEntity
  8
0
  6
________________
 62
     7
370
     9
100
AcDbLine
 10
-19.99999999999989
 20
-133.7249999999999
 30
0.0
 11
-6.80532879440841
 21
-133.7249999999999
 31
0.0
  0
LINE
  5
4672
330
A
100
AcDbEntity
  8
0
  6
________________
 62
     7
370
     9
100
AcDbLine
 10
-25.49999999999989
 20
-133.7249999999999
 30
0.0
 11
-19.99999999999989
 21
-133.7249999999999
 31
0.0
  0
ARC
  5
4673
330
A
100
AcDbEntity
  8
0
  6
________________
 62
     7
370
     9
100
AcDbCircle
 10
21.74999999999989
 20
-110.7249999999999
 30
0.0
 40
2.999999999999985
210
0.0
220
0.0
230
-1.0
100
AcDbArc
 50
260.4059317731405
 51
279.5940682268594
  0
LINE
  5
4674
330
A
100
AcDbEntity
  8
0
  6
________________
 62
     7
370
     9
100
AcDbLine
 10
-22.24999999999989
 20
-113.6830398915499
 30
0.0
 11
-22.24999999999989
 21
-107.7669601084499
 31
0.0
  0
LINE
  5
4675
330
A
100
AcDbEntity
  8
0
  6
________________
 62
     7
370
     9
100
AcDbLine
 10
-21.24999999999989
 20
-107.7669601084499
 30
0.0
 11
-21.24999999999989
 21
-113.6830398915499
 31
0.0
  0
ARC
  5
4676
330
A
100
AcDbEntity
  8
0
  6
________________
 62
     7
370
     9
100
AcDbCircle
 10
21.74999999999989
 20
-110.7249999999999
 30
0.0
 40
2.999999999999985
210
0.0
220
0.0
230
-1.0
100
AcDbArc
 50
80.40593177314055
 51
99.59406822685946
  0
ARC
  5
4677
330
A
100
AcDbEntity
  8
0
  6
________________
 62
     7
370
     9
100
AcDbCircle
 10
-15.25
 20
-110.7249999999999
 30
0.0
 40
5.000000000000004
210
0.0
220
0.0
230
-1.0
100
AcDbArc
 50
0.0
 51
180.0
  0
CIRCLE
  5
4678
330
A
100
AcDbEntity
  8
0
  6
________________
 62
   253
370
     9
100
AcDbCircle
 10
15.25
 20
-110.7249999999999
 30
0.0
 40
3.000000000000003
  0
ARC
  5
4679
330
A
100
AcDbEntity
  8
0
  6
________________
 62
     7
370
     9
100
AcDbCircle
 10
-15.25
 20
-110.7249999999999
 30
0.0
 40
5.000000000000004
210
0.0
220
0.0
230
-1.0
100
AcDbArc
 50
180.0
 51
0.0
  0
CIRCLE
  5
467A
330
A
100
AcDbEntity
  8
0
  6
________________
 62
     7
370
     9
100
AcDbCircle
 10
-54.24999999999955
 20
-110.7249999999999
 30
0.0
 40
4.200000000000009
210
0.0
220
0.0
230
-1.0
  0
CIRCLE
  5
467B
330
A
100
AcDbEntity
  8
0
  6
________________
 62
     7
370
     9
100
AcDbCircle
 10
41.74999999999994
 20
-110.7249999999999
 30
0.0
 40
4.200000000000009
210
0.0
220
0.0
230
-1.0
  0
LINE
  5
467C
330
A
100
AcDbEntity
  8
0
  6
________________
 62
     7
370
     9
100
AcDbLine
 10
-41.74999999999994
 20
-102.7249999999999
 30
0.0
 11
54.24999999999955
 21
-102.7249999999999
 31
0.0
  0
ARC
  5
467D
330
A
100
AcDbEntity
  8
0
  6
________________
 62
     7
370
     9
100
AcDbCircle
 10
-54.24999999999955
 20
-110.7249999999999
 30
0.0
 40
8.000000000000007
210
0.0
220
0.0
230
-1.0
100
AcDbArc
 50
90.0
 51
141.3178125465134
  0
ARC
  5
467E
330
A
100
AcDbEntity
  8
0
  6
________________
 62
     7
370
     9
100
AcDbCircle
 10
-54.24999999999955
 20
-110.7249999999999
 30
0.0
 40
7.999999999999982
210
0.0
220
0.0
230
-1.0
100
AcDbArc
 50
141.3178125465136
 51
218.6248328730414
  0
ARC
  5
467F
330
A
100
AcDbEntity
  8
0
  6
________________
 62
     7
370
     9
100
AcDbCircle
 10
-54.24999999999955
 20
-110.7249999999999
 30
0.0
 40
8.000000000000005
210
0.0
220
0.0
230
-1.0
100
AcDbArc
 50
218.6248328730416
 51
270.0
  0
LINE
  5
4680
330
A
100
AcDbEntity
  8
0
  6
________________
 62
     7
370
     9
100
AcDbLine
 10
54.24999999999955
 20
-118.7249999999999
 30
0.0
 11
-41.74999999999994
 21
-118.7249999999999
 31
0.0
  0
ARC
  5
4681
330
A
100
AcDbEntity
  8
0
  6
________________
 62
     7
370
     9
100
AcDbCircle
 10
41.74999999999994
 20
-110.7249999999999
 30
0.0
 40
8.000000000000007
210
0.0
220
0.0
230
-1.0
100
AcDbArc
 50
270.0
 51
321.3178125465103
  0
ARC
  5
4682
330
A
100
AcDbEntity
  8
0
  6
________________
 62
     7
370
     9
100
AcDbCircle
 10
41.74999999999994
 20
-110.7249999999999
 30
0.0
 40
7.999999999999998
210
0.0
220
0.0
230
-1.0
100
AcDbArc
 50
321.3178125465105
 51
38.68218745348891
  0
ARC
  5
4683
330
A
100
AcDbEntity
  8
0
  6
________________
 62
     7
370
     9
100
AcDbCircle
 10
41.74999999999994
 20
-110.7249999999999
 30
0.0
 40
8.000000000000007
210
0.0
220
0.0
230
-1.0
100
AcDbArc
 50
38.68218745348891
 51
90.0
  0
ARC
  5
4684
330
A
100
AcDbEntity
  8
0
  6
________________
 62
     7
370
     9
100
AcDbCircle
 10
-21.74999999999989
 20
-110.7249999999999
 30
0.0
 40
3.000000000000003
100
AcDbArc
 50
0.0
 51
80.40593177314064
  0
ARC
  5
4685
330
A
100
AcDbEntity
  8
0
  6
________________
 62
     7
370
     9
100
AcDbCircle
 10
-21.74999999999989
 20
-110.7249999999999
 30
0.0
 40
3.000000000000012
100
AcDbArc
 50
80.40593177314064
 51
99.59406822686044
  0
ARC
  5
4686
330
A
100
AcDbEntity
  8
0
  6
________________
 62
     7
370
     9
100
AcDbCircle
 10
-21.74999999999989
 20
-110.7249999999999
 30
0.0
 40
2.999999999999994
100
AcDbArc
 50
99.59406822686053
 51
260.4059317731395
  0
ARC
  5
4687
330
A
100
AcDbEntity
  8
0
  6
________________
 62
     7
370
     9
100
AcDbCircle
 10
-21.74999999999989
 20
-110.7249999999999
 30
0.0
 40
2.999999999999994
100
AcDbArc
 50
260.4059317731395
 51
279.5940682268605
  0
ARC
  5
4688
330
A
100
AcDbEntity
  8
0
  6
________________
 62
     7
370
     9
100
AcDbCircle
 10
-21.74999999999989
 20
-110.7249999999999
 30
0.0
 40
2.999999999999994
100
AcDbArc
 50
279.5940682268605
 51
0.0
  0
CIRCLE
  5
4689
330
A
100
AcDbEntity
  8
0
  6
________________
 62
     7
370
     9
100
AcDbCircle
 10
54.24999999999955
 20
-110.7249999999999
 30
0.0
 40
2.099999999999991
  0
CIRCLE
  5
468A
330
A
100
AcDbEntity
  8
0
  6
________________
 62
     7
370
     9
100
AcDbCircle
 10
-41.74999999999994
 20
-110.7249999999999
 30
0.0
 40
2.099999999999991
  0
CIRCLE
  5
468B
330
A
100
AcDbEntity
  8
0
  6
________________
 62
     7
370
     9
100
AcDbCircle
 10
54.24999999999955
 20
-110.7249999999999
 30
0.0
 40
2.000000000000002
  0
CIRCLE
  5
468C
330
A
100
AcDbEntity
  8
0
  6
________________
 62
     7
370
     9
100
AcDbCircle
 10
-41.74999999999994
 20
-110.7249999999999
 30
0.0
 40
2.000000000000002
  0
LINE
  5
468D
330
A
100
AcDbEntity
  8
0
  6
________________
 62
     7
370
     9
100
AcDbLine
 10
-57.49999999999989
 20
-115.7249999999999
 30
0.0
 11
-57.49999999999989
 21
-105.7249999999999
 31
0.0
  0
ARC
  5
468E
330
A
100
AcDbEntity
  8
0
  6
________________
 62
     7
370
     9
100
AcDbCircle
 10
41.74999999999994
 20
-110.7249999999999
 30
0.0
 40
8.000000000000007
210
0.0
220
0.0
230
-1.0
100
AcDbArc
 50
321.3178125465109
 51
38.68218745348891
  0
LINE
  5
468F
330
A
100
AcDbEntity
  8
0
  6
________________
 62
     7
370
     9
100
AcDbLine
 10
-57.49999999999989
 20
-115.7249999999999
 30
0.0
 11
-47.99499799839845
 21
-115.7249999999999
 31
0.0
  0
LINE
  5
4690
330
A
100
AcDbEntity
  8
0
  6
________________
 62
     7
370
     9
100
AcDbLine
 10
-57.49999999999989
 20
-105.7249999999999
 30
0.0
 11
-47.99499799839845
 21
-105.7249999999999
 31
0.0
  0
LINE
  5
4691
330
A
100
AcDbEntity
  8
0
  6
________________
 62
   253
370
     9
100
AcDbLine
 10
70.50000000000057
 20
-115.7249999999999
 30
0.0
 11
70.50000000000057
 21
-105.7249999999999
 31
0.0
  0
ARC
  5
4692
330
A
100
AcDbEntity
  8
0
  6
________________
 62
     7
370
     9
100
AcDbCircle
 10
54.24999999999955
 20
-110.7249999999999
 30
0.0
 40
7.999999999999982
100
AcDbArc
 50
321.3178125465134
 51
38.68218745348589
  0
LINE
  5
4693
330
A
100
AcDbEntity
  8
0
  6
________________
 62
     7
370
     9
100
AcDbLine
 10
60.49499799839862
 20
-105.7249999999999
 30
0.0
 11
70.50000000000057
 21
-105.7249999999999
 31
0.0
  0
LINE
  5
4694
330
A
100
AcDbEntity
  8
0
  6
________________
 62
     7
370
     9
100
AcDbLine
 10
60.49499799839862
 20
-115.7249999999999
 30
0.0
 11
70.50000000000057
 21
-115.7249999999999
 31
0.0
  0
LINE
  5
4695
330
A
100
AcDbEntity
  8
0
  6
________________
 62
     7
370
     9
100
AcDbLine
 10
71.00000000000057
 20
-105.7249999999999
 30
0.0
 11
71.00000000000057
 21
-115.7249999999999
 31
0.0
  0
LINE
  5
4696
330
A
100
AcDbEntity
  8
0
  6
________________
 62
     7
370
     9
100
AcDbLine
 10
70.50000000000057
 20
-105.7249999999999
 30
0.0
 11
71.00000000000057
 21
-105.7249999999999
 31
0.0
  0
LINE
  5
4697
330
A
100
AcDbEntity
  8
0
  6
________________
 62
     7
370
     9
100
AcDbLine
 10
71.00000000000057
 20
-115.7249999999999
 30
0.0
 11
70.93301270189295
 21
-115.7249999999999
 31
0.0
  0
LINE
  5
4698
330
A
100
AcDbEntity
  8
0
  6
________________
 62
     7
370
     9
100
AcDbLine
 10
70.93301270189295
 20
-115.7249999999999
 30
0.0
 11
70.50000000000057
 21
-115.7249999999999
 31
0.0
  0
LINE
  5
4699
330
A
100
AcDbEntity
  8
0
  6
________________
 62
     7
370
     9
100
AcDbLine
 10
-77.99999999999994
 20
-97.72499999999985
 30
0.0
 11
-77.99999999999994
 21
-105.7249999999999
 31
0.0
  0
LINE
  5
469A
330
A
100
AcDbEntity
  8
0
  6
________________
 62
     7
370
     9
100
AcDbLine
 10
72.00000000000057
 20
-97.72499999999985
 30
0.0
 11
-77.99999999999994
 21
-97.72499999999985
 31
0.0
  0
LINE
  5
469B
330
A
100
AcDbEntity
  8
0
  6
________________
 62
     7
370
     9
100
AcDbLine
 10
72.00000000000057
 20
-97.72499999999985
 30
0.0
 11
72.00000000000057
 21
-105.7249999999999
 31
0.0
  0
ARC
  5
469C
330
A
100
AcDbEntity
  8
0
  6
________________
 62
     7
370
     9
100
AcDbCircle
 10
54.24999999999955
 20
-110.7249999999999
 30
0.0
 40
7.999999999999982
100
AcDbArc
 50
38.68218745348639
 51
90.0
  0
LINE
  5
469D
330
A
100
AcDbEntity
  8
0
  6
________________
 62
     7
370
     9
100
AcDbLine
 10
54.24999999999955
 20
-102.7249999999999
 30
0.0
 11
-41.74999999999994
 21
-102.7249999999999
 31
0.0
  0
ARC
  5
469E
330
A
100
AcDbEntity
  8
0
  6
________________
 62
     7
370
     9
100
AcDbCircle
 10
-41.74999999999994
 20
-110.7249999999999
 30
0.0
 40
8.000000000000007
100
AcDbArc
 50
90.0
 51
141.3178125465111
  0
LINE
  5
469F
330
A
100
AcDbEntity
  8
0
  6
________________
 62
     7
370
     9
100
AcDbLine
 10
72.00000000000057
 20
-105.7249999999999
 30
0.0
 11
70.50000000000057
 21
-105.7249999999999
 31
0.0
  0
LINE
  5
46A0
330
A
100
AcDbEntity
  8
0
  6
________________
 62
     7
370
     9
100
AcDbLine
 10
70.50000000000057
 20
-105.7249999999999
 30
0.0
 11
60.49499799839862
 21
-105.7249999999999
 31
0.0
  0
LINE
  5
46A1
330
A
100
AcDbEntity
  8
0
  6
________________
 62
     7
370
     9
100
AcDbLine
 10
-47.99499799839845
 20
-105.7249999999999
 30
0.0
 11
-57.49999999999989
 21
-105.7249999999998
 31
0.0
  0
LINE
  5
46A2
330
A
100
AcDbEntity
  8
0
  6
________________
 62
     7
370
     9
100
AcDbLine
 10
-57.49999999999989
 20
-105.7249999999998
 30
0.0
 11
-77.99999999999994
 21
-105.7249999999999
 31
0.0
  0
LINE
  5
46A3
330
A
100
AcDbEntity
  8
0
  6
________________
 62
     7
370
     9
100
AcDbLine
 10
71.99999999999955
 20
-115.7249999999999
 30
0.0
 11
70.93301270189295
 21
-115.7249999999999
 31
0.0
  0
LINE
  5
46A4
330
A
100
AcDbEntity
  8
0
  6
________________
 62
     7
370
     9
100
AcDbLine
 10
70.93301270189295
 20
-115.7249999999999
 30
0.0
 11
70.50000000000057
 21
-115.7249999999999
 31
0.0
  0
LINE
  5
46A5
330
A
100
AcDbEntity
  8
0
  6
________________
 62
     7
370
     9
100
AcDbLine
 10
71.99999999999955
 20
-123.7249999999999
 30
0.0
 11
71.99999999999955
 21
-115.7249999999999
 31
0.0
  0
LINE
  5
46A6
330
A
100
AcDbEntity
  8
0
  6
________________
 62
     7
370
     9
100
AcDbLine
 10
-57.49999999999989
 20
-115.7249999999999
 30
0.0
 11
-77.99999999999994
 21
-115.7249999999999
 31
0.0
  0
LINE
  5
46A7
330
A
100
AcDbEntity
  8
0
  6
________________
 62
     7
370
     9
100
AcDbLine
 10
71.99999999999955
 20
-123.7249999999999
 30
0.0
 11
-77.99999999999994
 21
-123.7249999999999
 31
0.0
  0
LINE
  5
46A8
330
A
100
AcDbEntity
  8
0
  6
________________
 62
     7
370
     9
100
AcDbLine
 10
-77.99999999999994
 20
-123.7249999999999
 30
0.0
 11
-77.99999999999994
 21
-115.7249999999999
 31
0.0
  0
LINE
  5
46A9
330
A
100
AcDbEntity
  8
0
  6
________________
 62
     7
370
     9
100
AcDbLine
 10
8.75
 20
-133.7249999999999
 30
0.0
 11
8.75
 21
-123.7249999999999
 31
0.0
  0
LINE
  5
46AA
330
A
100
AcDbEntity
  8
0
  6
________________
 62
     7
370
     9
100
AcDbLine
 10
-8.0
 20
-133.7249999999999
 30
0.0
 11
-8.0
 21
-134.0249999999999
 31
0.0
  0
LINE
  5
46AB
330
A
100
AcDbEntity
  8
0
  6
________________
 62
     7
370
     9
100
AcDbLine
 10
8.000000000000114
 20
-134.0249999999999
 30
0.0
 11
8.000000000000114
 21
-133.7249999999999
 31
0.0
  0
LINE
  5
46AC
330
A
100
AcDbEntity
  8
0
  6
________________
 62
     7
370
     9
100
AcDbLine
 10
-25.49999999999989
 20
-123.7249999999999
 30
0.0
 11
-25.49999999999989
 21
-133.7249999999999
 31
0.0
  0
LINE
  5
46AD
330
A
100
AcDbEntity
  8
0
  6
________________
 62
     7
370
     9
100
AcDbLine
 10
132.8500000000004
 20
-5.499999999999829
 30
0.0
 11
142.8500000000004
 21
-5.499999999999829
 31
0.0
  0
LINE
  5
46AE
330
A
100
AcDbEntity
  8
0
  6
________________
 62
     7
370
     9
100
AcDbLine
 10
132.8500000000004
 20
5.500000000000028
 30
0.0
 11
142.8500000000004
 21
5.500000000000028
 31
0.0
  0
LINE
  5
46AF
330
A
100
AcDbEntity
  8
0
  6
________________
 62
     7
370
     9
100
AcDbLine
 10
142.8500000000004
 20
-5.499999999999972
 30
0.0
 11
142.8500000000004
 21
5.500000000000028
 31
0.0
  0
LINE
  5
46B0
330
A
100
AcDbEntity
  8
0
  6
________________
 62
     7
370
     9
100
AcDbLine
 10
143.1500000000004
 20
8.0
 30
0.0
 11
143.1500000000004
 21
0.0
 31
0.0
  0
LINE
  5
46B1
330
A
100
AcDbEntity
  8
0
  6
________________
 62
     7
370
     9
100
AcDbLine
 10
143.1500000000004
 20
0.0
 30
0.0
 11
143.1500000000004
 21
-7.999999999999972
 31
0.0
  0
LINE
  5
46B2
330
A
100
AcDbEntity
  8
0
  6
________________
 62
     7
370
     9
100
AcDbLine
 10
142.8500000000004
 20
-8.749999999999972
 30
0.0
 11
142.8500000000004
 21
-5.499999999999744
 31
0.0
  0
LINE
  5
46B3
330
A
100
AcDbEntity
  8
0
  6
________________
 62
     7
370
     9
100
AcDbLine
 10
142.8500000000004
 20
5.499999999999829
 30
0.0
 11
142.8500000000004
 21
8.75
 31
0.0
  0
LINE
  5
46B4
330
A
100
AcDbEntity
  8
0
  6
________________
 62
     7
370
     9
100
AcDbLine
 10
127.8500000000004
 20
18.0
 30
0.0
 11
127.8500000000004
 21
18.25000000000003
 31
0.0
  0
LINE
  5
46B5
330
A
100
AcDbEntity
  8
0
  6
________________
 62
     7
370
     9
100
AcDbLine
 10
127.8500000000004
 20
18.25000000000003
 30
0.0
 11
124.8500000000004
 21
18.25000000000003
 31
0.0
  0
LINE
  5
46B6
330
A
100
AcDbEntity
  8
0
  6
________________
 62
   253
370
     9
100
AcDbLine
 10
124.8500000000004
 20
19.2500000000002
 30
0.0
 11
114.8500000000004
 21
19.2500000000002
 31
0.0
  0
LINE
  5
46B7
330
A
100
AcDbEntity
  8
0
  6
________________
 62
     7
370
     9
100
AcDbLine
 10
116.8500000000004
 20
21.2500000000002
 30
0.0
 11
122.8500000000004
 21
21.2500000000002
 31
0.0
  0
LINE
  5
46B8
330
A
100
AcDbEntity
  8
0
  6
________________
 62
     7
370
     9
100
AcDbLine
 10
124.8500000000004
 20
18.25000000000003
 30
0.0
 11
114.8500000000004
 21
18.25000000000003
 31
0.0
  0
LINE
  5
46B9
330
A
100
AcDbEntity
  8
0
  6
________________
 62
     7
370
     9
100
AcDbLine
 10
124.8500000000004
 20
18.00000000000006
 30
0.0
 11
124.8500000000004
 21
18.25000000000003
 31
0.0
  0
LINE
  5
46BA
330
A
100
AcDbEntity
  8
0
  6
________________
 62
     7
370
     9
100
AcDbLine
 10
124.8500000000004
 20
15.25000000000003
 30
0.0
 11
119.8500000000004
 21
15.25000000000003
 31
0.0
  0
LINE
  5
46BB
330
A
100
AcDbEntity
  8
0
  6
________________
 62
     7
370
     9
100
AcDbLine
 10
119.8500000000004
 20
-11.24999999999986
 30
0.0
 11
119.8500000000004
 21
13.25000000000003
 31
0.0
  0
LINE
  5
46BC
330
A
100
AcDbEntity
  8
0
  6
________________
 62
     7
370
     9
100
AcDbLine
 10
119.8500000000004
 20
13.25000000000003
 30
0.0
 11
119.8500000000004
 21
15.25000000000003
 31
0.0
  0
LINE
  5
46BD
330
A
100
AcDbEntity
  8
0
  6
________________
 62
   253
370
     9
100
AcDbLine
 10
119.8500000000004
 20
-11.24999999999986
 30
0.0
 11
114.8500000000004
 21
-11.24999999999986
 31
0.0
  0
LINE
  5
46BE
330
A
100
AcDbEntity
  8
0
  6
________________
 62
     7
370
     9
100
AcDbLine
 10
119.8500000000004
 20
-13.24999999999983
 30
0.0
 11
119.8500000000004
 21
-11.24999999999986
 31
0.0
  0
LINE
  5
46BF
330
A
100
AcDbEntity
  8
0
  6
________________
 62
     7
370
     9
100
AcDbLine
 10
119.8500000000004
 20
-14.24999999999986
 30
0.0
 11
114.8500000000004
 21
-14.24999999999986
 31
0.0
  0
LINE
  5
46C0
330
A
100
AcDbEntity
  8
0
  6
________________
 62
     7
370
     9
100
AcDbLine
 10
119.8500000000004
 20
14.35000000000002
 30
0.0
 11
124.3866369101124
 21
14.35000000000002
 31
0.0
  0
ARC
  5
46C1
330
A
100
AcDbEntity
  8
0
  6
________________
 62
     7
370
     9
100
AcDbCircle
 10
120.4329830778116
 20
2.706621993330742
 30
0.0
 40
12.29632587531156
100
AcDbArc
 50
71.24444235130012
 51
92.71747810519915
  0
LINE
  5
46C2
330
A
100
AcDbEntity
  8
0
  6
________________
 62
     7
370
     9
100
AcDbLine
 10
106.8500000000004
 20
18.25000000000003
 30
0.0
 11
106.8500000000004
 21
-31.74999999999983
 31
0.0
  0
LINE
  5
46C3
330
A
100
AcDbEntity
  8
0
  6
________________
 62
     7
370
     9
100
AcDbLine
 10
106.8500000000004
 20
18.25000000000003
 30
0.0
 11
114.8500000000004
 21
18.25000000000003
 31
0.0
  0
LINE
  5
46C4
330
A
100
AcDbEntity
  8
0
  6
________________
 62
     7
370
     9
100
AcDbLine
 10
114.8500000000004
 20
18.25000000000003
 30
0.0
 11
114.8500000000004
 21
-31.74999999999983
 31
0.0
  0
LINE
  5
46C5
330
A
100
AcDbEntity
  8
0
  6
________________
 62
     7
370
     9
100
AcDbLine
 10
106.8500000000004
 20
-31.74999999999983
 30
0.0
 11
114.8500000000004
 21
-31.74999999999983
 31
0.0
  0
LINE
  5
46C6
330
A
100
AcDbEntity
  8
0
  6
________________
 62
     7
370
     9
100
AcDbLine
 10
132.8500000000004
 20
18.00000000000003
 30
0.0
 11
124.8500000000004
 21
18.00000000000003
 31
0.0
  0
LINE
  5
46C7
330
A
100
AcDbEntity
  8
0
  6
________________
 62
     7
370
     9
100
AcDbLine
 10
132.8500000000004
 20
18.00000000000003
 30
0.0
 11
132.8500000000004
 21
-31.99999999999997
 31
0.0
  0
LINE
  5
46C8
330
A
100
AcDbEntity
  8
0
  6
________________
 62
     7
370
     9
100
AcDbLine
 10
132.8500000000004
 20
-31.99999999999997
 30
0.0
 11
124.8500000000004
 21
-31.99999999999997
 31
0.0
  0
LINE
  5
46C9
330
A
100
AcDbEntity
  8
0
  6
________________
 62
     7
370
     9
100
AcDbLine
 10
124.8500000000004
 20
18.00000000000003
 30
0.0
 11
124.8500000000004
 21
-31.99999999999997
 31
0.0
  0
LINE
  5
46CA
330
A
100
AcDbEntity
  8
0
  6
________________
 62
   253
370
     9
100
AcDbLine
 10
119.8500000000004
 20
-13.24999999999986
 30
0.0
 11
124.8500000000004
 21
-13.24999999999986
 31
0.0
  0
LINE
  5
46CB
330
A
100
AcDbEntity
  8
0
  6
________________
 62
     7
370
     9
100
AcDbLine
 10
119.8500000000004
 20
13.25000000000003
 30
0.0
 11
119.8500000000004
 21
-11.24999999999997
 31
0.0
  0
LINE
  5
46CC
330
A
100
AcDbEntity
  8
0
  6
________________
 62
     7
370
     9
100
AcDbLine
 10
119.8500000000004
 20
-11.24999999999997
 30
0.0
 11
119.8500000000004
 21
-13.24999999999986
 31
0.0
  0
LINE
  5
46CD
330
A
100
AcDbEntity
  8
0
  6
________________
 62
     7
370
     9
100
AcDbLine
 10
119.8500000000004
 20
13.25000000000003
 30
0.0
 11
124.8500000000004
 21
13.25000000000003
 31
0.0
  0
LINE
  5
46CE
330
A
100
AcDbEntity
  8
0
  6
________________
 62
     7
370
     9
100
AcDbLine
 10
119.8500000000004
 20
-16.24999999999997
 30
0.0
 11
124.8500000000004
 21
-16.24999999999997
 31
0.0
  0
LINE
  5
46CF
330
A
100
AcDbEntity
  8
0
  6
________________
 62
     7
370
     9
100
AcDbLine
 10
119.8500000000004
 20
-13.24999999999986
 30
0.0
 11
119.8500000000004
 21
-16.24999999999986
 31
0.0
  0
LINE
  5
46D0
330
A
100
AcDbEntity
  8
0
  6
________________
 62
     7
370
     9
100
AcDbLine
 10
142.8500000000004
 20
-7.999999999999972
 30
0.0
 11
143.1500000000004
 21
-7.999999999999972
 31
0.0
  0
LINE
  5
46D1
330
A
100
AcDbEntity
  8
0
  6
________________
 62
     7
370
     9
100
AcDbLine
 10
143.1500000000004
 20
8.0
 30
0.0
 11
142.8500000000004
 21
8.0
 31
0.0
  0
LINE
  5
46D2
330
A
100
AcDbEntity
  8
0
  6
________________
 62
     7
370
     9
100
AcDbLine
 10
142.8500000000004
 20
8.75
 30
0.0
 11
132.8500000000004
 21
8.75
 31
0.0
  0
LINE
  5
46D3
330
A
100
AcDbEntity
  8
0
  6
________________
 62
     7
370
     9
100
AcDbLine
 10
132.8500000000004
 20
-8.749999999999972
 30
0.0
 11
142.8500000000004
 21
-8.749999999999972
 31
0.0
  0
ARC
  5
46D4
330
A
100
AcDbEntity
  8
0
  6
________________
 62
     7
370
     9
100
AcDbCircle
 10
116.8500000000004
 20
19.2500000000002
 30
0.0
 40
2.000000000000002
100
AcDbArc
 50
90.0
 51
180.0
  0
ARC
  5
46D5
330
A
100
AcDbEntity
  8
0
  6
________________
 62
     7
370
     9
100
AcDbCircle
 10
122.8500000000004
 20
19.2500000000002
 30
0.0
 40
2.000000000000002
100
AcDbArc
 50
0.0
 51
90.0
  0
LINE
  5
46D6
330
A
100
AcDbEntity
  8
0
  6
________________
 62
     7
370
     9
100
AcDbLine
 10
124.8500000000004
 20
18.2500000000002
 30
0.0
 11
124.8500000000004
 21
19.2500000000002
 31
0.0
  0
LINE
  5
46D7
330
A
100
AcDbEntity
  8
0
  6
________________
 62
     7
370
     9
100
AcDbLine
 10
114.8500000000004
 20
19.2500000000002
 30
0.0
 11
114.8500000000004
 21
18.2500000000002
 31
0.0
  0
LINE
  5
46D8
330
A
100
AcDbEntity
  8
0
  6
________________
 62
     7
370
     9
100
AcDbLine
 10
5.0
 20
0.5
 30
0.0
 11
5.0
 21
2.0
 31
0.0
  0
LINE
  5
46D9
330
A
100
AcDbEntity
  8
0
  6
________________
 62
     7
370
     9
100
AcDbLine
 10
3.5
 20
0.5
 30
0.0
 11
5.0
 21
0.5
 31
0.0
  0
LINE
  5
46DA
330
A
100
AcDbEntity
  8
0
  6
________________
 62
     7
370
     9
100
AcDbLine
 10
1.5
 20
1.5
 30
0.0
 11
3.5
 21
0.5
 31
0.0
  0
LINE
  5
46DB
330
A
100
AcDbEntity
  8
0
  6
________________
 62
     7
370
     9
100
AcDbLine
 10
0.0
 20
1.5
 30
0.0
 11
1.5
 21
1.5
 31
0.0
  0
LINE
  5
46DC
330
A
100
AcDbEntity
  8
0
  6
________________
 62
     7
370
     9
100
AcDbLine
 10
-3.860377526357979
 20
-0.4301887631787338
 30
0.0
 11
0.0
 21
1.5
 31
0.0
  0
LINE
  5
46DD
330
A
100
AcDbEntity
  8
0
  6
________________
 62
     7
370
     9
100
AcDbLine
 10
-6.996923552988392
 20
1.138084250136444
 30
0.0
 11
-3.860377526357979
 21
-0.4301887631787338
 31
0.0
  0
LINE
  5
46DE
330
A
100
AcDbEntity
  8
0
  6
________________
 62
     7
370
     9
100
AcDbLine
 10
-3.860377526357979
 20
-1.930188763178734
 30
0.0
 11
-6.996923552988392
 21
1.138084250136444
 31
0.0
  0
LINE
  5
46DF
330
A
100
AcDbEntity
  8
0
  6
________________
 62
     7
370
     9
100
AcDbLine
 10
0.0
 20
0.0
 30
0.0
 11
-3.860377526357979
 21
-1.930188763178734
 31
0.0
  0
LINE
  5
46E0
330
A
100
AcDbEntity
  8
0
  6
________________
 62
     7
370
     9
100
AcDbLine
 10
1.289917583039596
 20
0.0
 30
0.0
 11
0.0
 21
0.0
 31
0.0
  0
LINE
  5
46E1
330
A
100
AcDbEntity
  8
0
  6
________________
 62
     7
370
     9
100
AcDbLine
 10
3.289917583039596
 20
-1.0
 30
0.0
 11
1.289917583039596
 21
0.0
 31
0.0
  0
LINE
  5
46E2
330
A
100
AcDbEntity
  8
0
  6
________________
 62
     7
370
     9
100
AcDbLine
 10
6.500000000000114
 20
-1.0
 30
0.0
 11
3.289917583039596
 21
-1.0
 31
0.0
  0
LINE
  5
46E3
330
A
100
AcDbEntity
  8
0
  6
________________
 62
     7
370
     9
100
AcDbLine
 10
6.500000000000114
 20
2.0
 30
0.0
 11
6.500000000000114
 21
-1.0
 31
0.0
  0
LINE
  5
46E4
330
A
100
AcDbEntity
  8
0
  6
________________
 62
     7
370
     9
100
AcDbLine
 10
5.0
 20
2.0
 30
0.0
 11
6.500000000000114
 21
2.0
 31
0.0
  0
CIRCLE
  5
46E5
330
A
100
AcDbEntity
  8
0
  6
________________
 62
     7
370
     9
100
AcDbCircle
 10
0.0
 20
0.0
 30
0.0
 40
8.000000000000007
  0
ARC
  5
46E6
330
A
100
AcDbEntity
  8
0
  6
________________
 62
     7
370
     9
100
AcDbCircle
 10
0.0
 20
0.0
 30
0.0
 40
8.750000000000023
210
0.0
220
0.0
230
-1.0
100
AcDbArc
 50
38.94480359409461
 51
321.0551964059064
  0
LINE
  5
46E7
330
A
100
AcDbEntity
  8
0
  6
________________
 62
     7
370
     9
100
AcDbLine
 10
-6.80532879440841
 20
-5.499999999999829
 30
0.0
 11
-19.99999999999989
 21
-5.499999999999829
 31
0.0
  0
ARC
  5
46E8
330
A
100
AcDbEntity
  8
0
  6
________________
 62
     7
370
     9
100
AcDbCircle
 10
19.99999999999989
 20
0.0000000000000284
 30
0.0
 40
5.500000000000004
210
0.0
220
0.0
230
-1.0
100
AcDbArc
 50
270.0
 51
90.0
  0
LINE
  5
46E9
330
A
100
AcDbEntity
  8
0
  6
________________
 62
     7
370
     9
100
AcDbLine
 10
-19.99999999999989
 20
5.500000000000028
 30
0.0
 11
-6.80532879440841
 21
5.500000000000028
 31
0.0
  0
LINE
  5
46EA
330
A
100
AcDbEntity
  8
0
  6
________________
 62
     7
370
     9
100
AcDbLine
 10
60.49499799839862
 20
18.2500000000002
 30
0.0
 11
54.24999999999955
 21
18.2500000000002
 31
0.0
  0
LINE
  5
46EB
330
A
100
AcDbEntity
  8
0
  6
________________
 62
   253
370
     9
100
AcDbLine
 10
54.24999999999955
 20
18.0
 30
0.0
 11
54.24999999999955
 21
18.2500000000002
 31
0.0
  0
LINE
  5
46EC
330
A
100
AcDbEntity
  8
0
  6
________________
 62
   253
370
     9
100
AcDbLine
 10
-41.74999999999994
 20
18.0
 30
0.0
 11
-41.74999999999994
 21
18.25000000000003
 31
0.0
  0
LINE
  5
46ED
330
A
100
AcDbEntity
  8
0
  6
________________
 62
     7
370
     9
100
AcDbLine
 10
-41.74999999999994
 20
18.25000000000003
 30
0.0
 11
-47.99499799839845
 21
18.25000000000003
 31
0.0
  0
LINE
  5
46EE
330
A
100
AcDbEntity
  8
0
  6
________________
 62
     7
370
     9
100
AcDbLine
 10
54.24999999999955
 20
18.2500000000002
 30
0.0
 11
-41.74999999999994
 21
18.25000000000003
 31
0.0
  0
LINE
  5
46EF
330
A
100
AcDbEntity
  8
0
  6
________________
 62
     7
370
     9
100
AcDbLine
 10
12.25
 20
21.2500000000002
 30
0.0
 11
18.25
 21
21.2500000000002
 31
0.0
  0
LINE
  5
46F0
330
A
100
AcDbEntity
  8
0
  6
________________
 62
   253
370
     9
100
AcDbLine
 10
20.25
 20
19.2500000000002
 30
0.0
 11
10.25
 21
19.2500000000002
 31
0.0
  0
LINE
  5
46F1
330
A
100
AcDbEntity
  8
0
  6
________________
 62
     7
370
     9
100
AcDbLine
 10
-47.99499799839845
 20
18.25000000000003
 30
0.0
 11
-47.99499799839845
 21
18.0
 31
0.0
  0
LINE
  5
46F2
330
A
100
AcDbEntity
  8
0
  6
________________
 62
     7
370
     9
100
AcDbLine
 10
60.49499799839862
 20
18.0
 30
0.0
 11
60.49499799839862
 21
18.2500000000002
 31
0.0
  0
LINE
  5
46F3
330
A
100
AcDbEntity
  8
0
  6
________________
 62
     7
370
     9
100
AcDbLine
 10
60.49499799839862
 20
18.2500000000002
 30
0.0
 11
70.50000000000057
 21
18.24999999999997
 31
0.0
  0
ARC
  5
46F4
330
A
100
AcDbEntity
  8
0
  6
________________
 62
     7
370
     9
100
AcDbCircle
 10
70.50000000000057
 20
17.7500000000002
 30
0.0
 40
0.5000000000000009
100
AcDbArc
 50
29.99999999996962
 51
90.0
  0
LINE
  5
46F5
330
A
100
AcDbEntity
  8
0
  6
________________
 62
     7
370
     9
100
AcDbLine
 10
-57.49999999999989
 20
18.00000000000003
 30
0.0
 11
-57.49999999999989
 21
18.25000000000003
 31
0.0
  0
LINE
  5
46F6
330
A
100
AcDbEntity
  8
0
  6
________________
 62
     7
370
     9
100
AcDbLine
 10
-57.49999999999989
 20
18.25000000000003
 30
0.0
 11
-47.99499799839845
 21
18.25000000000003
 31
0.0
  0
LINE
  5
46F7
330
A
100
AcDbEntity
  8
0
  6
________________
 62
     7
370
     9
100
AcDbLine
 10
72.00000000000057
 20
18.0
 30
0.0
 11
72.00000000000057
 21
18.2500000000004
 31
0.0
  0
LINE
  5
46F8
330
A
100
AcDbEntity
  8
0
  6
________________
 62
     7
370
     9
100
AcDbLine
 10
-77.99999999999994
 20
18.25000000000003
 30
0.0
 11
-77.99999999999994
 21
18.00000000000003
 31
0.0
  0
LINE
  5
46F9
330
A
100
AcDbEntity
  8
0
  6
________________
 62
     7
370
     9
100
AcDbLine
 10
-57.49999999999989
 20
18.25000000000017
 30
0.0
 11
-77.99999999999994
 21
18.25000000000003
 31
0.0
  0
LINE
  5
46FA
330
A
100
AcDbEntity
  8
0
  6
________________
 62
     7
370
     9
100
AcDbLine
 10
72.00000000000057
 20
18.2500000000004
 30
0.0
 11
70.50000000000057
 21
18.2500000000004
 31
0.0
  0
LINE
  5
46FB
330
A
100
AcDbEntity
  8
0
  6
________________
 62
     7
370
     9
100
AcDbLine
 10
-78.0
 20
-31.99999999999997
 30
0.0
 11
71.99999999999955
 21
-31.99999999999989
 31
0.0
  0
LINE
  5
46FC
330
A
100
AcDbEntity
  8
0
  6
________________
 62
     7
370
     9
100
AcDbLine
 10
-77.99999999999994
 20
18.00000000000003
 30
0.0
 11
-78.0
 21
-31.99999999999997
 31
0.0
  0
LINE
  5
46FD
330
A
100
AcDbEntity
  8
0
  6
________________
 62
     7
370
     9
100
AcDbLine
 10
71.99999999999955
 20
18.0
 30
0.0
 11
-77.99999999999994
 21
18.00000000000003
 31
0.0
  0
LINE
  5
46FE
330
A
100
AcDbEntity
  8
0
  6
________________
 62
     7
370
     9
100
AcDbLine
 10
71.99999999999955
 20
-31.99999999999989
 30
0.0
 11
71.99999999999955
 21
18.0
 31
0.0
  0
ARC
  5
46FF
330
A
100
AcDbEntity
  8
0
  6
________________
 62
     7
370
     9
100
AcDbCircle
 10
12.25
 20
19.2500000000002
 30
0.0
 40
2.000000000000002
100
AcDbArc
 50
90.0
 51
180.0
  0
ARC
  5
4700
330
A
100
AcDbEntity
  8
0
  6
________________
 62
     7
370
     9
100
AcDbCircle
 10
18.25
 20
19.2500000000002
 30
0.0
 40
2.000000000000002
100
AcDbArc
 50
0.0
 51
90.0
  0
LINE
  5
4701
330
A
100
AcDbEntity
  8
0
  6
________________
 62
     7
370
     9
100
AcDbLine
 10
20.25
 20
18.2500000000002
 30
0.0
 11
20.25
 21
19.2500000000002
 31
0.0
  0
LINE
  5
4702
330
A
100
AcDbEntity
  8
0
  6
________________
 62
     7
370
     9
100
AcDbLine
 10
10.25
 20
19.2500000000002
 30
0.0
 11
10.25
 21
18.2500000000002
 31
0.0
  0
ELLIPSE
  5
4703
330
A
100
AcDbEntity
  8
0
  6
________________
 62
     7
370
     9
100
AcDbEllipse
 10
159.2604151146604
 20
-122.6021517979995
 30
0.0
 11
-4.42718872423572
 21
5.422176684690371
 31
0.0
210
0.0
220
0.0
230
-1.0
 40
0.8164965809277257
 41
6.177502193041597
 42
6.283185307179586
  0
LINE
  5
4704
330
A
100
AcDbEntity
  8
0
  6
________________
 62
     7
370
     9
100
AcDbLine
 10
154.3909182207295
 20
-125.6248019951875
 30
0.0
 11
144.9495800586619
 21
-123.6975969130098
 31
0.0
  0
ELLIPSE
  5
4705
330
A
100
AcDbEntity
  8
0
  6
________________
 62
     7
370
     9
100
AcDbEllipse
 10
144.9495800586619
 20
-119.6809648246386
 30
0.0
 11
-2.782804340948158
 21
3.408225344662512
 31
0.0
210
0.0
220
0.0
230
-0.9999999999999998
 40
0.816496580927726
 41
3.926990816987233
 42
6.283185307179586
  0
LINE
  5
4706
330
A
100
AcDbEntity
  8
0
  6
________________
 62
     7
370
     9
100
AcDbLine
 10
144.9495800586619
 20
-115.6643327362675
 30
0.0
 11
154.3909182207295
 21
-117.5915378184451
 31
0.0
  0
ELLIPSE
  5
4707
330
A
100
AcDbEntity
  8
0
  6
________________
 62
     7
370
     9
100
AcDbEllipse
 10
162.8381238786602
 20
-119.6809648246386
 30
0.0
 11
-4.42718872423572
 21
5.422176684690371
 31
0.0
210
0.0
220
0.0
230
-1.0
 40
0.8164965809277257
 41
0.0
 42
3.141592653589787
  0
ELLIPSE
  5
4708
330
A
100
AcDbEntity
  8
0
  6
________________
 62
     7
370
     9
100
AcDbEllipse
 10
159.2604151146604
 20
-122.6021517979995
 30
0.0
 11
-4.42718872423572
 21
5.422176684690371
 31
0.0
210
0.0
220
0.0
230
-1.0
 40
0.8164965809277257
 41
3.141592653589787
 42
4.818072094522679
  0
ELLIPSE
  5
4709
330
A
100
AcDbEntity
  8
0
  6
________________
 62
     7
370
     9
100
AcDbEllipse
 10
159.2604151146604
 20
-122.6021517979995
 30
0.0
 11
-4.42718872423572
 21
5.422176684690371
 31
0.0
210
0.0
220
0.0
230
-1.0
 40
0.8164965809277257
 41
0.0
 42
3.141592653589787
  0
ELLIPSE
  5
470A
330
A
100
AcDbEntity
  8
0
  6
________________
 62
     7
370
     9
100
AcDbEllipse
 10
159.2604151146604
 20
-122.6021517979995
 30
0.0
 11
4.047715405015527
 21
-4.957418683145498
 31
0.0
210
0.0
220
0.0
230
1.0
 40
0.8164965809277257
 41
0.0
 42
3.141592653589786
  0
ELLIPSE
  5
470B
330
A
100
AcDbEntity
  8
0
  6
________________
 62
     7
370
     9
100
AcDbEllipse
 10
159.1530838517406
 20
-122.6897874072004
 30
0.0
 11
4.047715405015524
 21
-4.957418683145494
 31
0.0
210
0.0
220
0.0
230
1.0
 40
0.8164965809277258
 41
3.141592653589783
 42
3.926990816987237
  0
ELLIPSE
  5
470C
330
A
100
AcDbEntity
  8
0
  6
________________
 62
     7
370
     9
100
AcDbEllipse
 10
159.1530838517406
 20
-122.6897874072004
 30
0.0
 11
4.047715405015524
 21
-4.957418683145494
 31
0.0
210
0.0
220
0.0
230
1.0
 40
0.8164965809277258
 41
0.0
 42
3.141592653589784
  0
ELLIPSE
  5
470D
330
A
100
AcDbEntity
  8
0
  6
________________
 62
     7
370
     9
100
AcDbEllipse
 10
159.1530838517406
 20
-122.6897874072004
 30
0.0
 11
4.047715405015524
 21
-4.957418683145494
 31
0.0
210
0.0
220
0.0
230
1.0
 40
0.8164965809277264
 41
3.926990816987238
 42
6.283185307179586
  0
LINE
  5
470E
330
A
100
AcDbEntity
  8
0
  6
________________
 62
     7
370
     9
100
AcDbLine
 10
162.7307926157401
 20
-123.0549357788705
 30
0.0
 11
162.7307926157401
 21
-121.9594906638601
 31
0.0
  0
LINE
  5
470F
330
A
100
AcDbEntity
  8
0
  6
________________
 62
     7
370
     9
100
AcDbLine
 10
161.6574799865402
 20
-122.8358467558684
 30
0.0
 11
162.7307926157401
 21
-123.0549357788705
 31
0.0
  0
LINE
  5
4710
330
A
100
AcDbEntity
  8
0
  6
________________
 62
     7
370
     9
100
AcDbLine
 10
160.2263964809405
 20
-121.8134313151921
 30
0.0
 11
161.6574799865405
 21
-122.8358467558684
 31
0.0
  0
LINE
  5
4711
330
A
100
AcDbEntity
  8
0
  6
________________
 62
     7
370
     9
100
AcDbLine
 10
159.1530838517406
 20
-121.59434229219
 30
0.0
 11
160.2263964809405
 21
-121.8134313151921
 31
0.0
  0
LINE
  5
4712
330
A
100
AcDbEntity
  8
0
  6
________________
 62
     7
370
     9
100
AcDbLine
 10
156.3908225500609
 20
-122.4401086328588
 30
0.0
 11
159.1530838517406
 21
-121.59434229219
 31
0.0
  0
LINE
  5
4713
330
A
100
AcDbEntity
  8
0
  6
________________
 62
     7
370
     9
100
AcDbLine
 10
154.1464929084281
 20
-120.8366820888494
 30
0.0
 11
156.3908225500609
 21
-122.4401086328588
 31
0.0
  0
LINE
  5
4714
330
A
100
AcDbEntity
  8
0
  6
________________
 62
     7
370
     9
100
AcDbLine
 10
156.3908225500609
 20
-123.5355537478691
 30
0.0
 11
154.1464929084281
 21
-120.8366820888494
 31
0.0
  0
LINE
  5
4715
330
A
100
AcDbEntity
  8
0
  6
________________
 62
     7
370
     9
100
AcDbLine
 10
159.1530838517406
 20
-122.6897874072004
 30
0.0
 11
156.3908225500609
 21
-123.5355537478691
 31
0.0
  0
LINE
  5
4716
330
A
100
AcDbEntity
  8
0
  6
________________
 62
     7
370
     9
100
AcDbLine
 10
160.0760737400761
 20
-122.8781919292146
 30
0.0
 11
159.1530838517406
 21
-122.6897874072004
 31
0.0
  0
LINE
  5
4717
330
A
100
AcDbEntity
  8
0
  6
________________
 62
     7
370
     9
100
AcDbLine
 10
161.5071572456759
 20
-123.9006073698909
 30
0.0
 11
160.076073740076
 21
-122.8781919292146
 31
0.0
  0
LINE
  5
4718
330
A
100
AcDbEntity
  8
0
  6
________________
 62
     7
370
     9
100
AcDbLine
 10
163.80410524494
 20
-124.3694699168829
 30
0.0
 11
161.5071572456759
 21
-123.9006073698909
 31
0.0
  0
LINE
  5
4719
330
A
100
AcDbEntity
  8
0
  6
________________
 62
     7
370
     9
100
AcDbLine
 10
163.80410524494
 20
-122.1785796868622
 30
0.0
 11
163.80410524494
 21
-124.3694699168829
 31
0.0
  0
LINE
  5
471A
330
A
100
AcDbEntity
  8
0
  6
________________
 62
     7
370
     9
100
AcDbLine
 10
162.7307926157401
 20
-121.9594906638602
 30
0.0
 11
163.80410524494
 21
-122.1785796868622
 31
0.0
  0
LINE
  5
471B
330
A
100
AcDbEntity
  8
0
  6
________________
 62
     7
370
     9
100
AcDbLine
 10
162.7307926157401
 20
-123.0549357788705
 30
0.0
 11
163.80410524494
 21
-122.1785796868622
 31
0.0
  0
LINE
  5
471C
330
A
100
AcDbEntity
  8
0
  6
________________
 62
     7
370
     9
100
AcDbLine
 10
161.5071572456759
 20
-123.9006073698909
 30
0.0
 11
162.5804698748758
 21
-123.0242512778826
 31
0.0
  0
LINE
  5
471D
330
A
100
AcDbEntity
  8
0
  6
________________
 62
     7
370
     9
100
AcDbLine
 10
163.55366563146
 20
-122.3830627749975
 30
0.0
 11
163.80410524494
 21
-122.4341835470313
 31
0.0
  0
LINE
  5
471E
330
A
100
AcDbEntity
  8
0
  6
________________
 62
     7
370
     9
100
AcDbLine
 10
160.0760737400761
 20
-122.8781919292146
 30
0.0
 11
160.8417230731642
 21
-122.2530418665586
 31
0.0
  0
LINE
  5
471F
330
A
100
AcDbEntity
  8
0
  6
________________
 62
     7
370
     9
100
AcDbLine
 10
159.1530838517406
 20
-122.6897874072004
 30
0.0
 11
160.2263964809404
 21
-121.8134313151921
 31
0.0
  0
LINE
  5
4720
330
A
100
AcDbEntity
  8
0
  6
________________
 62
     7
370
     9
100
AcDbLine
 10
156.3908225500609
 20
-123.5355537478691
 30
0.0
 11
158.2870081949807
 21
-121.9873246519878
 31
0.0
  0
LINE
  5
4721
330
A
100
AcDbEntity
  8
0
  6
________________
 62
     7
370
     9
100
AcDbLine
 10
158.2870081949807
 20
-121.9873246519878
 30
0.0
 11
159.4035234652204
 21
-121.6454630642238
 31
0.0
  0
LINE
  5
4722
330
A
100
AcDbEntity
  8
0
  6
________________
 62
   253
370
     9
100
AcDbLine
 10
148.5272888226616
 20
-112.7431457629065
 30
0.0
 11
144.9495800586619
 21
-115.6643327362674
 31
0.0
  0
LINE
  5
4723
330
A
100
AcDbEntity
  8
0
  6
________________
 62
     7
370
     9
100
AcDbLine
 10
148.5272888226616
 20
-112.7431457629065
 30
0.0
 11
157.9192260705884
 21
-114.6602669257115
 31
0.0
  0
LINE
  5
4724
330
A
100
AcDbEntity
  8
0
  6
________________
 62
     7
370
     9
100
AcDbLine
 10
158.2022990850032
 20
-121.8854594839046
 30
0.0
 11
158.2870081949807
 21
-121.9873246519878
 31
0.0
  0
ELLIPSE
  5
4725
330
A
100
AcDbEntity
  8
0
  6
________________
 62
     7
370
     9
100
AcDbEllipse
 10
148.5272888226616
 20
-116.7597778512778
 30
0.0
 11
-2.782804340948176
 21
3.40822534466253
 31
0.0
210
0.0
220
0.0
230
-1.0
 40
0.8164965809277259
 41
0.0
 42
0.7853981633974517
  0
ELLIPSE
  5
4726
330
A
100
AcDbEntity
  8
0
  6
________________
 62
     7
370
     9
100
AcDbEllipse
 10
144.9495800586619
 20
-119.6809648246386
 30
0.0
 11
-2.782804340948182
 21
3.408225344662538
 31
0.0
210
0.0
220
0.0
230
-1.0
 40
0.8164965809277259
 41
0.0
 42
0.7853981633974488
  0
LINE
  5
4727
330
A
100
AcDbEntity
  8
0
  6
________________
 62
     7
370
     9
100
AcDbLine
 10
150.5100407476353
 20
-100.1697844452342
 30
0.0
 11
152.6266417964871
 21
-98.4415869256587
 31
0.0
  0
ELLIPSE
  5
4728
330
A
100
AcDbEntity
  8
0
  6
________________
 62
     7
370
     9
100
AcDbEllipse
 10
151.9261121484612
 20
-99.3787153597805
 30
0.0
 11
2.400000000000013
 21
0.0
 31
0.0
210
0.0
220
0.0
230
-1.0
 40
0.4082482904638627
 41
5.008588510165823
 42
5.343484668605172
  0
LINE
  5
4729
330
A
100
AcDbEntity
  8
0
  6
________________
 62
     7
370
     9
100
AcDbLine
 10
153.342183549287
 20
-98.58764627432677
 30
0.0
 11
151.2255825004353
 21
-100.3158437939023
 31
0.0
  0
ELLIPSE
  5
472A
330
A
100
AcDbEntity
  8
0
  6
________________
 62
     7
370
     9
100
AcDbEllipse
 10
151.9261121484612
 20
-99.3787153597805
 30
0.0
 11
2.400000000000013
 21
0.0
 31
0.0
210
0.0
220
0.0
230
-1.0
 40
0.4082482904638627
 41
1.866995856576004
 42
2.201892015015352
  0
LINE
  5
472B
330
A
100
AcDbEntity
  8
0
  6
________________
 62
     7
370
     9
100
AcDbLine
 10
153.342183549287
 20
-98.95279464599682
 30
0.0
 11
153.342183549287
 21
-98.58764627432674
 31
0.0
  0
LINE
  5
472C
330
A
100
AcDbEntity
  8
0
  6
________________
 62
     7
370
     9
100
AcDbLine
 10
153.342183549287
 20
-98.95279464599682
 30
0.0
 11
151.6297250500072
 21
-100.3510111556394
 31
0.0
  0
ELLIPSE
  5
472D
330
A
100
AcDbEntity
  8
0
  6
________________
 62
     7
370
     9
100
AcDbEllipse
 10
206.3072853612557
 20
-110.4792258585516
 30
0.0
 11
3.36000000000003
 21
0.0
 31
0.0
210
0.0
220
0.0
230
-1.0
 40
0.4082482904638632
 41
3.60524026259061
 42
6.631706799956929
  0
ELLIPSE
  5
472E
330
A
100
AcDbEntity
  8
0
  6
________________
 62
     7
370
     9
100
AcDbEllipse
 10
137.6152770924625
 20
-96.45752838641957
 30
0.0
 11
3.36000000000003
 21
0.0
 31
0.0
210
0.0
220
0.0
230
-1.0
 40
0.4082482904638632
 41
3.605240262590596
 42
6.631706799956931
  0
LINE
  5
472F
330
A
100
AcDbEntity
  8
0
  6
________________
 62
     7
370
     9
100
AcDbLine
 10
140.4774441036623
 20
-94.12057880773091
 30
0.0
 11
177.0867924024951
 21
-101.5934307367282
 31
0.0
  0
LINE
  5
4730
330
A
100
AcDbEntity
  8
0
  6
________________
 62
     7
370
     9
100
AcDbLine
 10
181.7477118194955
 20
-102.5448369287183
 30
0.0
 11
209.1694523724556
 21
-108.142276279863
 31
0.0
  0
ELLIPSE
  5
4731
330
A
100
AcDbEntity
  8
0
  6
________________
 62
     7
370
     9
100
AcDbEllipse
 10
206.3072853612557
 20
-110.4792258585516
 30
0.0
 11
6.399999999999961
 21
0.0
 31
0.0
210
0.0
220
0.0
230
-1.0
 40
0.408248290463863
 41
5.176036589385504
 42
6.071701383243408
  0
ELLIPSE
  5
4732
330
A
100
AcDbEntity
  8
0
  6
________________
 62
     7
370
     9
100
AcDbEllipse
 10
206.3072853612557
 20
-110.4792258585516
 30
0.0
 11
6.399999999999961
 21
0.0
 31
0.0
210
0.0
220
0.0
230
-1.0
 40
0.4082482904638623
 41
6.071701383243407
 42
6.283185307179586
  0
LINE
  5
4733
330
A
100
AcDbEntity
  8
0
  6
________________
 62
     7
370
     9
100
AcDbLine
 10
203.4451183500561
 20
-112.8161754372404
 30
0.0
 11
134.7531100812628
 21
-98.79447796510831
 31
0.0
  0
ELLIPSE
  5
4734
330
A
100
AcDbEntity
  8
0
  6
________________
 62
     7
370
     9
100
AcDbEllipse
 10
137.6152770924625
 20
-96.45752838641957
 30
0.0
 11
6.399999999999961
 21
0.0
 31
0.0
210
0.0
220
0.0
230
-1.0
 40
0.408248290463863
 41
2.03444393579571
 42
2.930108729653582
  0
ELLIPSE
  5
4735
330
A
100
AcDbEntity
  8
0
  6
________________
 62
     7
370
     9
100
AcDbEllipse
 10
137.6152770924625
 20
-96.45752838641957
 30
0.0
 11
6.399999999999961
 21
0.0
 31
0.0
210
0.0
220
0.0
230
-1.0
 40
0.408248290463863
 41
2.930108729653581
 42
3.141592653589793
  0
ELLIPSE
  5
4736
330
A
100
AcDbEntity
  8
0
  6
________________
 62
     7
370
     9
100
AcDbEllipse
 10
151.9261121484612
 20
-99.3787153597805
 30
0.0
 11
-2.399999999999958
 21
0.0
 31
0.0
210
0.0
220
0.0
230
1.0
 40
0.4082482904638632
 41
2.677945044588983
 42
3.141592653589781
  0
ELLIPSE
  5
4737
330
A
100
AcDbEntity
  8
0
  6
________________
 62
     7
370
     9
100
AcDbEllipse
 10
206.3072853612557
 20
-110.4792258585516
 30
0.0
 11
6.399999999999961
 21
0.0
 31
0.0
210
0.0
220
0.0
230
-1.0
 40
0.4082482904638627
 41
0.0
 42
1.138779141937784
  0
ELLIPSE
  5
4738
330
A
100
AcDbEntity
  8
0
  6
________________
 62
     7
370
     9
100
AcDbEllipse
 10
206.3072853612557
 20
-110.4792258585516
 30
0.0
 11
6.399999999999961
 21
0.0
 31
0.0
210
0.0
220
0.0
230
-1.0
 40
0.4082482904638631
 41
1.138779141937785
 42
2.034443935795695
  0
LINE
  5
4739
330
A
100
AcDbEntity
  8
0
  6
________________
 62
   253
370
     9
100
AcDbLine
 10
203.4451183500561
 20
-112.9987496230756
 30
0.0
 11
203.4451183500561
 21
-112.8161754372404
 31
0.0
  0
LINE
  5
473A
330
A
100
AcDbEntity
  8
0
  6
________________
 62
   253
370
     9
100
AcDbLine
 10
134.7531100812629
 20
-98.97705215094334
 30
0.0
 11
134.7531100812629
 21
-98.79447796510829
 31
0.0
  0
ELLIPSE
  5
473B
330
A
100
AcDbEntity
  8
0
  6
________________
 62
     7
370
     9
100
AcDbEllipse
 10
206.3072853612557
 20
-112.4875419027373
 30
0.0
 11
-1.679999999999959
 21
0.0
 31
0.0
210
0.0
220
0.0
230
1.0
 40
0.4082482904638629
 41
4.400740139339497
 42
5.024037821429882
  0
ELLIPSE
  5
473C
330
A
100
AcDbEntity
  8
0
  6
________________
 62
     7
370
     9
100
AcDbEllipse
 10
206.3072853612557
 20
-110.4792258585516
 30
0.0
 11
3.36000000000003
 21
0.0
 31
0.0
210
0.0
220
0.0
230
-1.0
 40
0.408248290463863
 41
2.79307116081243
 42
3.60524026259061
  0
ELLIPSE
  5
473D
330
A
100
AcDbEntity
  8
0
  6
________________
 62
     7
370
     9
100
AcDbEllipse
 10
206.3072853612557
 20
-110.4792258585516
 30
0.0
 11
3.36000000000003
 21
0.0
 31
0.0
210
0.0
220
0.0
230
-1.0
 40
0.4082482904638634
 41
0.348521492777343
 42
2.793071160812432
  0
ELLIPSE
  5
473E
330
A
100
AcDbEntity
  8
0
  6
________________
 62
     7
370
     9
100
AcDbEllipse
 10
206.3072853612557
 20
-112.4875419027373
 30
0.0
 11
-1.59999999999999
 21
0.0
 31
0.0
210
0.0
220
0.0
230
1.0
 40
0.4082482904638629
 41
4.526389181547937
 42
4.898388778777639
  0
ELLIPSE
  5
473F
330
A
100
AcDbEntity
  8
0
  6
________________
 62
   253
370
     9
100
AcDbEllipse
 10
178.4011570020587
 20
-104.0526145171577
 30
0.0
 11
4.000000000000004
 21
0.0
 31
0.0
210
0.0
220
0.0
230
-1.0
 40
0.408248290463863
 41
6.283183988698712
 42
6.746832916180396
  0
ELLIPSE
  5
4740
330
A
100
AcDbEntity
  8
0
  6
________________
 62
   253
370
     9
100
AcDbEllipse
 10
178.4011570020587
 20
-102.5920210304773
 30
0.0
 11
-2.400000000000013
 21
0.0
 31
0.0
210
0.0
220
0.0
230
1.0
 40
0.4082482904638629
 41
0.0
 42
6.283185307179586
  0
ELLIPSE
  5
4741
330
A
100
AcDbEntity
  8
0
  6
________________
 62
   253
370
     9
100
AcDbEllipse
 10
178.4011570020587
 20
-104.0526145171577
 30
0.0
 11
4.000000000000004
 21
0.0
 31
0.0
210
0.0
220
0.0
230
-1.0
 40
0.4082482904638632
 41
0.46364760900081
 42
3.14159450966861
  0
ELLIPSE
  5
4742
330
A
100
AcDbEntity
  8
0
  6
________________
 62
     7
370
     9
100
AcDbEllipse
 10
178.4011570020587
 20
-104.782911260498
 30
0.0
 11
-4.000000000000004
 21
0.0
 31
0.0
210
0.0
220
0.0
230
1.0
 40
0.4082482904638631
 41
0.0
 42
3.141592653589793
  0
ELLIPSE
  5
4743
330
A
100
AcDbEntity
  8
0
  6
________________
 62
     7
370
     9
100
AcDbEllipse
 10
151.9261121484612
 20
-99.3787153597805
 30
0.0
 11
-2.399999999999958
 21
0.0
 31
0.0
210
0.0
220
0.0
230
1.0
 40
0.4082482904638627
 41
0.0
 42
0.939700638574417
  0
ELLIPSE
  5
4744
330
A
100
AcDbEntity
  8
0
  6
________________
 62
     7
370
     9
100
AcDbEllipse
 10
151.9261121484612
 20
-99.3787153597805
 30
0.0
 11
-2.399999999999958
 21
0.0
 31
0.0
210
0.0
220
0.0
230
1.0
 40
0.4082482904638627
 41
0.939700638574416
 42
1.274596797013809
  0
ELLIPSE
  5
4745
330
A
100
AcDbEntity
  8
0
  6
________________
 62
     7
370
     9
100
AcDbEllipse
 10
151.9261121484612
 20
-99.3787153597805
 30
0.0
 11
-2.399999999999958
 21
0.0
 31
0.0
210
0.0
220
0.0
230
1.0
 40
0.4082482904638629
 41
1.27459679701381
 42
2.677945044588981
  0
ELLIPSE
  5
4746
330
A
100
AcDbEntity
  8
0
  6
________________
 62
     7
370
     9
100
AcDbEllipse
 10
151.9261121484612
 20
-99.3787153597805
 30
0.0
 11
-2.399999999999958
 21
0.0
 31
0.0
210
0.0
220
0.0
230
1.0
 40
0.4082482904638627
 41
3.141592653589779
 42
4.081293292164148
  0
ELLIPSE
  5
4747
330
A
100
AcDbEntity
  8
0
  6
________________
 62
     7
370
     9
100
AcDbEllipse
 10
151.9261121484612
 20
-99.3787153597805
 30
0.0
 11
-2.399999999999958
 21
0.0
 31
0.0
210
0.0
220
0.0
230
1.0
 40
0.4082482904638627
 41
4.081293292164146
 42
4.416189450603571
  0
ELLIPSE
  5
4748
330
A
100
AcDbEntity
  8
0
  6
________________
 62
     7
370
     9
100
AcDbEllipse
 10
151.9261121484612
 20
-99.3787153597805
 30
0.0
 11
-2.399999999999958
 21
0.0
 31
0.0
210
0.0
220
0.0
230
1.0
 40
0.4082482904638629
 41
4.416189450603572
 42
6.283185307179586
  0
ELLIPSE
  5
4749
330
A
100
AcDbEntity
  8
0
  6
________________
 62
     7
370
     9
100
AcDbEllipse
 10
151.9261121484612
 20
-100.8393088464609
 30
0.0
 11
-2.399999999999958
 21
0.0
 31
0.0
210
0.0
220
0.0
230
1.0
 40
0.4082482904638625
 41
3.982661324160413
 42
4.588578280837995
  0
ELLIPSE
  5
474A
330
A
100
AcDbEntity
  8
0
  6
________________
 62
     7
370
     9
100
AcDbEllipse
 10
151.9261121484612
 20
-100.8393088464609
 30
0.0
 11
-2.399999999999958
 21
0.0
 31
0.0
210
0.0
220
0.0
230
1.0
 40
0.4082482904638632
 41
5.233852154721617
 42
5.442116636608932
  0
ELLIPSE
  5
474B
330
A
100
AcDbEntity
  8
0
  6
________________
 62
     7
370
     9
100
AcDbEllipse
 10
137.6152770924625
 20
-96.45752838641957
 30
0.0
 11
6.399999999999961
 21
0.0
 31
0.0
210
0.0
220
0.0
230
-1.0
 40
0.4082482904638627
 41
3.141592653589793
 42
4.280371795527618
  0
ELLIPSE
  5
474C
330
A
100
AcDbEntity
  8
0
  6
________________
 62
     7
370
     9
100
AcDbEllipse
 10
137.6152770924625
 20
-96.45752838641957
 30
0.0
 11
6.399999999999961
 21
0.0
 31
0.0
210
0.0
220
0.0
230
-1.0
 40
0.4082482904638636
 41
4.280371795527618
 42
5.176036589385488
  0
ELLIPSE
  5
474D
330
A
100
AcDbEntity
  8
0
  6
________________
 62
     7
370
     9
100
AcDbEllipse
 10
137.6152770924625
 20
-98.46584443060519
 30
0.0
 11
-1.680000000000015
 21
0.0
 31
0.0
210
0.0
220
0.0
230
1.0
 40
0.4082482904638632
 41
4.400740139339528
 42
5.024037821429844
  0
ELLIPSE
  5
474E
330
A
100
AcDbEntity
  8
0
  6
________________
 62
     7
370
     9
100
AcDbEllipse
 10
137.6152770924625
 20
-96.45752838641957
 30
0.0
 11
3.36000000000003
 21
0.0
 31
0.0
210
0.0
220
0.0
230
-1.0
 40
0.408248290463863
 41
2.793071160812448
 42
3.605240262590596
  0
ELLIPSE
  5
474F
330
A
100
AcDbEntity
  8
0
  6
________________
 62
     7
370
     9
100
AcDbEllipse
 10
137.6152770924625
 20
-96.45752838641957
 30
0.0
 11
3.36000000000003
 21
0.0
 31
0.0
210
0.0
220
0.0
230
-1.0
 40
0.4082482904638634
 41
0.3485214927773487
 42
2.79307116081245
  0
ELLIPSE
  5
4750
330
A
100
AcDbEntity
  8
0
  6
________________
 62
     7
370
     9
100
AcDbEllipse
 10
137.6152770924625
 20
-98.46584443060519
 30
0.0
 11
-1.600000000000046
 21
0.0
 31
0.0
210
0.0
220
0.0
230
1.0
 40
0.4082482904638631
 41
4.526389311176365
 42
4.898388649545635
  0
LINE
  5
4751
330
A
100
AcDbEntity
  8
0
  6
________________
 62
   253
370
     9
100
AcDbLine
 10
216.1459844622555
 20
-114.3132837610881
 30
0.0
 11
219.7236932262551
 21
-111.3920967877272
 31
0.0
  0
ELLIPSE
  5
4752
330
A
100
AcDbEntity
  8
0
  6
________________
 62
     7
370
     9
100
AcDbEllipse
 10
219.7236932262553
 20
-111.7572451593972
 30
0.0
 11
-0.2529822128134716
 21
0.309838667696596
 31
0.0
210
0.0
220
0.0
230
-1.0
 40
0.8164965809277257
 41
0.7853981633975505
 42
2.356194490192461
  0
LINE
  5
4753
330
A
100
AcDbEntity
  8
0
  6
________________
 62
   253
370
     9
100
AcDbLine
 10
220.0814641026552
 20
-111.8302748337312
 30
0.0
 11
216.6826407768554
 21
-114.6054024584242
 31
0.0
  0
ELLIPSE
  5
4754
330
A
100
AcDbEntity
  8
0
  6
________________
 62
     7
370
     9
100
AcDbEllipse
 10
216.1459844622555
 20
-114.6784321327581
 30
0.0
 11
0.2529822128135075
 21
-0.3098386676966398
 31
0.0
210
0.0
220
0.0
230
0.9999999999999998
 40
0.8164965809277273
 41
1.308996938995082
 42
2.356194490192179
  0
LINE
  5
4755
330
A
100
AcDbEntity
  8
0
  6
________________
 62
     7
370
     9
100
AcDbLine
 10
208.9869877932624
 20
-113.0345338711467
 30
0.0
 11
208.9869877932624
 21
-112.8519596853115
 31
0.0
  0
LINE
  5
4756
330
A
100
AcDbEntity
  8
0
  6
________________
 62
     7
370
     9
100
AcDbLine
 10
208.9869877932624
 20
-112.8519596853115
 30
0.0
 11
216.1459844622555
 21
-114.3132837610881
 31
0.0
  0
LINE
  5
4757
330
A
100
AcDbEntity
  8
0
  6
________________
 62
     7
370
     9
100
AcDbLine
 10
124.5566401038639
 20
-95.80026131741337
 30
0.0
 11
124.5566401038639
 21
-95.61768713157832
 31
0.0
  0
LINE
  5
4758
330
A
100
AcDbEntity
  8
0
  6
________________
 62
     7
370
     9
100
AcDbLine
 10
124.5566401038639
 20
-95.61768713157832
 30
0.0
 11
131.3578658964566
 21
-97.0059815330207
 31
0.0
  0
LINE
  5
4759
330
A
100
AcDbEntity
  8
0
  6
________________
 62
     7
370
     9
100
AcDbLine
 10
131.3578658964566
 20
-97.0059815330207
 30
0.0
 11
131.3578658964566
 21
-97.18855571885575
 31
0.0
  0
LINE
  5
475A
330
A
100
AcDbEntity
  8
0
  6
________________
 62
     7
370
     9
100
AcDbLine
 10
212.5646965572621
 20
-109.9307727119506
 30
0.0
 11
219.7236932262553
 21
-111.3920967877272
 31
0.0
  0
ELLIPSE
  5
475B
330
A
100
AcDbEntity
  8
0
  6
________________
 62
     7
370
     9
100
AcDbEllipse
 10
206.3072853612557
 20
-110.4792258585516
 30
0.0
 11
-6.399999999999961
 21
0.0
 31
0.0
210
0.0
220
0.0
230
1.0
 40
0.4082482904638626
 41
2.002813511652008
 42
3.141592653589796
  0
LINE
  5
475C
330
A
100
AcDbEntity
  8
0
  6
________________
 62
     7
370
     9
100
AcDbLine
 10
217.2192970914548
 20
-137.5367201993076
 30
0.0
 11
220.0814641026552
 21
-135.1997706206183
 31
0.0
  0
LINE
  5
475D
330
A
100
AcDbEntity
  8
0
  6
________________
 62
     7
370
     9
100
AcDbLine
 10
220.0814641026552
 20
-111.8302748337312
 30
0.0
 11
220.0814641026552
 21
-112.1954232054015
 31
0.0
  0
LINE
  5
475E
330
A
100
AcDbEntity
  8
0
  6
________________
 62
     7
370
     9
100
AcDbLine
 10
220.0814641026552
 20
-112.1954232054015
 30
0.0
 11
220.0814641026551
 21
-135.1997706206183
 31
0.0
  0
ELLIPSE
  5
475F
330
A
100
AcDbEntity
  8
0
  6
________________
 62
     7
370
     9
100
AcDbEllipse
 10
206.3072853612557
 20
-110.4792258585516
 30
0.0
 11
-6.399999999999961
 21
0.0
 31
0.0
210
0.0
220
0.0
230
1.0
 40
0.4082482904638631
 41
3.141592653589785
 42
3.353076577525964
  0
ELLIPSE
  5
4760
330
A
100
AcDbEntity
  8
0
  6
________________
 62
     7
370
     9
100
AcDbEllipse
 10
216.5037553386554
 20
-143.963331540701
 30
0.0
 11
1.517893276880837
 21
-1.859032006179581
 31
0.0
210
0.0
220
0.0
230
1.0
 40
0.8164965809277261
 41
5.837624053235919
 42
6.283185307179586
  0
LINE
  5
4761
330
A
100
AcDbEntity
  8
0
  6
________________
 62
     7
370
     9
100
AcDbLine
 10
114.1812846882648
 20
-93.49982657589169
 30
0.0
 11
114.1812846882648
 21
-93.68240076172674
 31
0.0
  0
ELLIPSE
  5
4762
330
A
100
AcDbEntity
  8
0
  6
________________
 62
     7
370
     9
100
AcDbEllipse
 10
116.3279099466646
 20
-93.93800462189583
 30
0.0
 11
1.517893276880786
 21
-1.859032006179523
 31
0.0
210
0.0
220
0.0
230
1.0
 40
0.8164965809277258
 41
2.356194490192377
 42
3.141592653589828
  0
LINE
  5
4763
330
A
100
AcDbEntity
  8
0
  6
________________
 62
     7
370
     9
100
AcDbLine
 10
126.7032653622638
 20
-93.86497494756168
 30
0.0
 11
116.3279099466646
 21
-91.74711439187513
 31
0.0
  0
LINE
  5
4764
330
A
100
AcDbEntity
  8
0
  6
________________
 62
     7
370
     9
100
AcDbLine
 10
218.6503805970553
 20
-144.4015095867051
 30
0.0
 11
218.6503805970555
 21
-136.3682454099626
 31
0.0
  0
LINE
  5
4765
330
A
100
AcDbEntity
  8
0
  6
________________
 62
   253
370
     9
100
AcDbLine
 10
220.0814641026551
 20
-143.2330347973607
 30
0.0
 11
218.6503805970553
 21
-144.4015095867051
 31
0.0
  0
ELLIPSE
  5
4766
330
A
100
AcDbEntity
  8
0
  6
________________
 62
     7
370
     9
100
AcDbEllipse
 10
216.5037553386554
 20
-143.963331540701
 30
0.0
 11
1.517893276880838
 21
-1.85903200617958
 31
0.0
210
0.0
220
0.0
230
1.0
 40
0.8164965809277251
 41
0.0
 42
0.7853981633974487
  0
ELLIPSE
  5
4767
330
A
100
AcDbEntity
  8
0
  6
________________
 62
     7
370
     9
100
AcDbEllipse
 10
137.6152770924625
 20
-96.45752838641957
 30
0.0
 11
6.399999999999961
 21
0.0
 31
0.0
210
0.0
220
0.0
230
-1.0
 40
0.4082482904638623
 41
3.141592653589793
 42
4.280371795527619
  0
ELLIPSE
  5
4768
330
A
100
AcDbEntity
  8
0
  6
________________
 62
     7
370
     9
100
AcDbEllipse
 10
137.6152770924625
 20
-96.45752838641957
 30
0.0
 11
6.399999999999961
 21
0.0
 31
0.0
210
0.0
220
0.0
230
-1.0
 40
0.4082482904638623
 41
2.930108729653582
 42
3.141592653589793
  0
LINE
  5
4769
330
A
100
AcDbEntity
  8
0
  6
________________
 62
     7
370
     9
100
AcDbLine
 10
124.5566401038639
 20
-95.61768713157832
 30
0.0
 11
128.1343488678635
 21
-92.69650015821742
 31
0.0
  0
LINE
  5
476A
330
A
100
AcDbEntity
  8
0
  6
________________
 62
     7
370
     9
100
AcDbLine
 10
128.1343488678635
 20
-92.69650015821745
 30
0.0
 11
134.9355746604563
 21
-94.08479455965985
 31
0.0
  0
LINE
  5
476B
330
A
100
AcDbEntity
  8
0
  6
________________
 62
   253
370
     9
100
AcDbLine
 10
117.0434516994645
 20
-91.162876997203
 30
0.0
 11
116.3279099466646
 21
-91.74711439187516
 31
0.0
  0
ELLIPSE
  5
476C
330
A
100
AcDbEntity
  8
0
  6
________________
 62
     7
370
     9
100
AcDbEllipse
 10
116.3279099466646
 20
-93.93800462189583
 30
0.0
 11
1.51789327688079
 21
-1.859032006179521
 31
0.0
210
0.0
220
0.0
230
1.0
 40
0.8164965809277251
 41
3.141592653589831
 42
3.926990816987275
  0
LINE
  5
476D
330
A
100
AcDbEntity
  8
0
  6
________________
 62
     7
370
     9
100
AcDbLine
 10
114.1812846882648
 20
-90.57863960253076
 30
0.0
 11
114.1812846882648
 21
-93.49982657589169
 31
0.0
  0
LINE
  5
476E
330
A
100
AcDbEntity
  8
0
  6
________________
 62
     7
370
     9
100
AcDbLine
 10
114.1812846882648
 20
-93.49982657589169
 30
0.0
 11
114.1812846882648
 21
-93.68240076172674
 31
0.0
  0
LINE
  5
476F
330
A
100
AcDbEntity
  8
0
  6
________________
 62
     7
370
     9
100
AcDbLine
 10
217.2192970914548
 20
-146.6654294910597
 30
0.0
 11
220.0814641026552
 21
-147.249666885732
 31
0.0
  0
LINE
  5
4770
330
A
100
AcDbEntity
  8
0
  6
________________
 62
     7
370
     9
100
AcDbLine
 10
220.0814641026551
 20
-147.249666885732
 30
0.0
 11
220.0814641026551
 21
-135.1997706206183
 31
0.0
  0
LINE
  5
4771
330
A
100
AcDbEntity
  8
0
  6
________________
 62
     7
370
     9
100
AcDbLine
 10
220.0814641026551
 20
-135.1997706206183
 30
0.0
 11
220.0814641026551
 21
-112.1954232054015
 31
0.0
  0
LINE
  5
4772
330
A
100
AcDbEntity
  8
0
  6
________________
 62
     7
370
     9
100
AcDbLine
 10
220.7970058554552
 20
-111.611185810729
 30
0.0
 11
219.7236932262553
 21
-111.392096787727
 31
0.0
  0
LINE
  5
4773
330
A
100
AcDbEntity
  8
0
  6
________________
 62
     7
370
     9
100
AcDbLine
 10
219.7236932262554
 20
-111.392096787727
 30
0.0
 11
212.5646965572622
 21
-109.9307727119505
 31
0.0
  0
LINE
  5
4774
330
A
100
AcDbEntity
  8
0
  6
________________
 62
     7
370
     9
100
AcDbLine
 10
220.7970058554552
 20
-148.1260229777402
 30
0.0
 11
220.7970058554552
 21
-111.611185810729
 31
0.0
  0
LINE
  5
4775
330
A
100
AcDbEntity
  8
0
  6
________________
 62
     7
370
     9
100
AcDbLine
 10
217.2192970914548
 20
-147.3957262343999
 30
0.0
 11
220.7970058554552
 21
-148.1260229777402
 31
0.0
  0
LINE
  5
4776
330
A
100
AcDbEntity
  8
0
  6
________________
 62
     7
370
     9
100
AcDbLine
 10
113.465742935465
 20
-89.7022835105225
 30
0.0
 11
113.465742935465
 21
-93.53634141305866
 31
0.0
  0
LINE
  5
4777
330
A
100
AcDbEntity
  8
0
  6
________________
 62
     7
370
     9
100
AcDbLine
 10
134.9355746604563
 20
-94.08479455965968
 30
0.0
 11
128.1343488678635
 21
-92.69650015821725
 31
0.0
  0
LINE
  5
4778
330
A
100
AcDbEntity
  8
0
  6
________________
 62
     7
370
     9
100
AcDbLine
 10
128.1343488678635
 20
-92.69650015821719
 30
0.0
 11
113.465742935465
 21
-89.7022835105225
 31
0.0
  0
LINE
  5
4779
330
A
100
AcDbEntity
  8
0
  6
________________
 62
     7
370
     9
100
AcDbLine
 10
127.4188071150636
 20
-93.28073755288963
 30
0.0
 11
114.1812846882648
 21
-90.57863960253076
 31
0.0
  0
LINE
  5
477A
330
A
100
AcDbEntity
  8
0
  6
________________
 62
     7
370
     9
100
AcDbLine
 10
116.3279099466646
 20
-87.36533393183382
 30
0.0
 11
113.465742935465
 21
-89.70228351052253
 31
0.0
  0
LINE
  5
477B
330
A
100
AcDbEntity
  8
0
  6
________________
 62
     7
370
     9
100
AcDbLine
 10
223.6591728666549
 20
-109.2742362320403
 30
0.0
 11
116.3279099466646
 21
-87.36533393183382
 31
0.0
  0
LINE
  5
477C
330
A
100
AcDbEntity
  8
0
  6
________________
 62
     7
370
     9
100
AcDbLine
 10
223.6591728666549
 20
-109.2742362320403
 30
0.0
 11
220.7970058554552
 21
-111.611185810729
 31
0.0
  0
ELLIPSE
  5
477D
330
A
100
AcDbEntity
  8
0
  6
________________
 62
     7
370
     9
100
AcDbEllipse
 10
206.3072853612557
 20
-110.4792258585515
 30
0.0
 11
-6.399999999999961
 21
0.0
 31
0.0
210
0.0
220
0.0
230
1.0
 40
0.4082482904638625
 41
3.353076577525971
 42
4.248741371383877
  0
LINE
  5
477E
330
A
100
AcDbEntity
  8
0
  6
________________
 62
     7
370
     9
100
AcDbLine
 10
209.1694523724556
 20
-108.1422762798628
 30
0.0
 11
181.7477118194953
 21
-102.544836928718
 31
0.0
  0
LINE
  5
477F
330
A
100
AcDbEntity
  8
0
  6
________________
 62
     7
370
     9
100
AcDbLine
 10
177.0867924024955
 20
-101.593430736728
 30
0.0
 11
140.4774441036623
 21
-94.12057880773074
 31
0.0
  0
ELLIPSE
  5
4780
330
A
100
AcDbEntity
  8
0
  6
________________
 62
     7
370
     9
100
AcDbEllipse
 10
137.6152770924625
 20
-96.45752838641943
 30
0.0
 11
-6.400000000000016
 21
0.0
 31
0.0
210
0.0
220
0.0
230
1.0
 40
0.4082482904638629
 41
4.248741371383893
 42
5.144406165241765
  0
LINE
  5
4781
330
A
100
AcDbEntity
  8
0
  6
________________
 62
     7
370
     9
100
AcDbLine
 10
223.6591728666548
 20
-145.7890733990515
 30
0.0
 11
223.6591728666548
 21
-109.2742362320403
 31
0.0
  0
LINE
  5
4782
330
A
100
AcDbEntity
  8
0
  6
________________
 62
     7
370
     9
100
AcDbLine
 10
223.6591728666548
 20
-145.7890733990515
 30
0.0
 11
220.7970058554552
 21
-148.1260229777402
 31
0.0
  0
LINE
  5
4783
330
A
100
AcDbEntity
  8
0
  6
________________
 62
     7
370
     9
100
AcDbLine
 10
219.718427330617
 20
-144.4369495274262
 30
0.0
 11
220.0814641026551
 21
-144.5110540982062
 31
0.0
  0
LINE
  5
4784
330
A
100
AcDbEntity
  8
0
  6
________________
 62
     7
370
     9
100
AcDbLine
 10
214.357130080255
 20
-153.5667337156248
 30
0.0
 11
217.2192970914547
 21
-151.2297841369361
 31
0.0
  0
LINE
  5
4785
330
A
100
AcDbEntity
  8
0
  6
________________
 62
     7
370
     9
100
AcDbLine
 10
214.357130080255
 20
-153.5667337156248
 30
0.0
 11
214.3571300802552
 21
-117.0518965486138
 31
0.0
  0
LINE
  5
4786
330
A
100
AcDbEntity
  8
0
  6
________________
 62
     7
370
     9
100
AcDbLine
 10
214.3571300802552
 20
-117.0518965486138
 30
0.0
 11
217.2192970914548
 21
-114.7149469699251
 31
0.0
  0
LINE
  5
4787
330
A
100
AcDbEntity
  8
0
  6
________________
 62
     7
370
     9
100
AcDbLine
 10
217.2192970914547
 20
-151.2297841369361
 30
0.0
 11
217.2192970914548
 21
-114.7149469699251
 31
0.0
  0
ELLIPSE
  5
4788
330
A
100
AcDbEntity
  8
0
  6
________________
 62
     7
370
     9
100
AcDbEllipse
 10
206.3072853612557
 20
-110.6618000443868
 30
0.0
 11
6.399999999999961
 21
0.0
 31
0.0
210
0.0
220
0.0
230
-1.0
 40
0.408248290463863
 41
1.138779141937785
 42
2.034443935795694
  0
LINE
  5
4789
330
A
100
AcDbEntity
  8
0
  6
________________
 62
     7
370
     9
100
AcDbLine
 10
217.2192970914548
 20
-114.7149469699251
 30
0.0
 11
208.9869877932625
 21
-113.0345338711467
 31
0.0
  0
LINE
  5
478A
330
A
100
AcDbEntity
  8
0
  6
________________
 62
     7
370
     9
100
AcDbLine
 10
214.3571300802552
 20
-117.0518965486138
 30
0.0
 11
107.0258671602655
 21
-95.14299424840715
 31
0.0
  0
LINE
  5
478B
330
A
100
AcDbEntity
  8
0
  6
________________
 62
     7
370
     9
100
AcDbLine
 10
107.0258671602655
 20
-95.14299424840718
 30
0.0
 11
109.8880341714653
 21
-92.80604466971849
 31
0.0
  0
LINE
  5
478C
330
A
100
AcDbEntity
  8
0
  6
________________
 62
     7
370
     9
100
AcDbLine
 10
131.3578658964566
 20
-97.18855571885575
 30
0.0
 11
124.5566401038639
 21
-95.8002613174134
 31
0.0
  0
LINE
  5
478D
330
A
100
AcDbEntity
  8
0
  6
________________
 62
     7
370
     9
100
AcDbLine
 10
124.5566401038639
 20
-95.80026131741337
 30
0.0
 11
109.8880341714653
 21
-92.80604466971846
 31
0.0
  0
ELLIPSE
  5
478E
330
A
100
AcDbEntity
  8
0
  6
________________
 62
     7
370
     9
100
AcDbEllipse
 10
137.6152770924625
 20
-96.64010257225465
 30
0.0
 11
6.399999999999961
 21
0.0
 31
0.0
210
0.0
220
0.0
230
-1.0
 40
0.408248290463863
 41
2.03444393579571
 42
2.930108729653578
  0
LINE
  5
478F
330
A
100
AcDbEntity
  8
0
  6
________________
 62
     7
370
     9
100
AcDbLine
 10
203.4451183500561
 20
-112.9987496230756
 30
0.0
 11
134.7531100812628
 21
-98.97705215094334
 31
0.0
  0
LINE
  5
4790
330
A
100
AcDbEntity
  8
0
  6
________________
 62
     7
370
     9
100
AcDbLine
 10
107.0258671602654
 20
-131.6578314154183
 30
0.0
 11
214.357130080255
 21
-153.5667337156248
 31
0.0
  0
LINE
  5
4791
330
A
100
AcDbEntity
  8
0
  6
________________
 62
     7
370
     9
100
AcDbLine
 10
107.0258671602655
 20
-95.14299424840718
 30
0.0
 11
107.0258671602654
 21
-131.6578314154183
 31
0.0
  0
LINE
  5
4792
330
A
100
AcDbEntity
  8
0
  6
________________
 62
     7
370
     9
100
AcDbLine
 10
163.6876038388962
 20
-128.0243284826899
 30
0.0
 11
167.265312602896
 21
-125.103141509329
 31
0.0
  0
LINE
  5
4793
330
A
100
AcDbEntity
  8
0
  6
________________
 62
     7
370
     9
100
AcDbLine
 10
158.4109351544245
 20
-114.2587881399483
 30
0.0
 11
154.8332263904248
 21
-117.1799751133092
 31
0.0
  0
LINE
  5
4794
330
A
100
AcDbEntity
  8
0
  6
________________
 62
     7
370
     9
100
AcDbLine
 10
155.212699709645
 20
-117.644733114854
 30
0.0
 11
155.105368446725
 21
-117.7323687240549
 31
0.0
  0
LINE
  5
4795
330
A
100
AcDbEntity
  8
0
  6
________________
 62
     7
370
     9
100
AcDbLine
 10
163.2007992567561
 20
-127.6472060903459
 30
0.0
 11
163.3081305196761
 21
-127.559570481145
 31
0.0
  0
LINE
  5
4796
330
A
100
AcDbEntity
  8
0
  6
________________
 62
     7
370
     9
100
AcDbLine
 10
145.7444844817134
 20
-113.3515525066152
 30
0.0
 11
142.1667757177137
 21
-116.2727394799761
 31
0.0
  0
LWPOLYLINE
  5
4797
330
A
100
AcDbEntity
  8
0
  6
________________
 62
     7
370
     9
100
AcDbPolyline
 90
        4
 70
     0
 43
0.0
 10
182.4011570019589
 20
-104.0525945482024
 42
0.3921655202961476
 10
179.5193792519336
 20
-101.5588305921364
 42
0.2959150418373467
 10
174.6247005386791
 20
-103.1289369219232
 42
0.1183549478977722
 10
174.401157002065
 20
-104.0526194897874
  0
LINE
  5
4798
330
A
100
AcDbEntity
  8
0
  6
________________
 62
     7
370
     9
100
AcDbLine
 10
182.4011570020587
 20
-104.782911260498
 30
0.0
 11
182.4011570020587
 21
-104.0526145171577
 31
0.0
  0
LINE
  5
4799
330
A
100
AcDbEntity
  8
0
  6
________________
 62
     7
370
     9
100
AcDbLine
 10
174.4011570020587
 20
-104.0526145171577
 30
0.0
 11
174.4011570020587
 21
-104.782911260498
 31
0.0
  0
LINE
  5
479A
330
A
100
AcDbEntity
  8
0
  6
________________
 62
     7
370
     9
100
AcDbLine
 10
218.0216486155364
 20
-145.8223635468805
 30
0.0
 11
220.0814641026551
 21
-144.140531244306
 31
0.0
  0
LINE
  5
479B
330
A
100
AcDbEntity
  8
0
  6
________________
 62
     7
370
     9
100
AcDbLine
 10
116.1542904041027
 20
-90.98137770781389
 30
0.0
 11
114.8100166697837
 21
-92.07897261571625
 31
0.0
  0
LINE
  5
479D
330
A
100
AcDbEntity
  8
0
  6
Continuous
370
     0
100
AcDbLine
 10
-0.0449999999999591
 20
0.0
 30
0.0
 11
0.0449999999999591
 21
0.0
 31
0.0
  0
LINE
  5
479E
330
A
100
AcDbEntity
  8
0
  6
Continuous
370
     0
100
AcDbLine
 10
0.0
 20
-0.0450000000000017
 30
0.0
 11
0.0
 21
0.0450000000000017
 31
0.0
  0
LINE
  5
47A0
330
A
100
AcDbEntity
  8
0
  6
CENTER
 62
     1
100
AcDbLine
 10
-60.00000000000045
 20
18.00000000000003
 30
0.0
 11
-60.00000000000045
 21
-8.999999999999972
 31
0.0
  0
LINE
  5
47A1
330
A
100
AcDbEntity
  8
0
  6
CENTER
 62
     1
100
AcDbLine
 10
-51.00000000000045
 20
-17.99999999999997
 30
0.0
 11
71.99999999999955
 21
-17.99999999999997
 31
0.0
  0
ARC
  5
47A2
330
A
100
AcDbEntity
  8
0
  6
CENTER
 62
     1
100
AcDbCircle
 10
-51.00000000000045
 20
-8.999999999999972
 30
0.0
 40
8.999999999999998
100
AcDbArc
 50
180.0
 51
270.0
  0
ENDSEC
  0
SECTION
  2
OBJECTS
  0
DICTIONARY
  5
19
330
0
100
AcDbDictionary
281
     1
  3
ACAD_GROUP
350
1A
  3
ACAD_IMAGE_VARS
350
44C9
  3
ACAD_LAYOUT
350
1E
  3
ACAD_MLINESTYLE
350
1B
  3
ACAD_PLOTSETTINGS
350
22
  3
ACAD_PLOTSTYLENAME
350
1F
  3
ACAD_SCALELIST
350
2312
  3
ACAD_WIPEOUT_VARS
350
23
  3
ACDB_RECOMPOSE_DATA
350
444C
  3
AcDbVariableDictionary
350
4443
  3
APPDATA
350
44C8
  3
ASE_INDEX_DICTIONARY
350
443E
  3
DWGPROPS
350
47A4
  0
DICTIONARY
  5
4441
330
14
100
AcDbDictionary
280
     1
281
     1
  3
ADSK_XREC_LAYER_RECONCILED
360
4442
  0
DICTIONARY
  5
233E
330
A
100
AcDbDictionary
280
     1
281
     1
  3
ACAD_SORTENTS
360
233F
  0
DICTIONARY
  5
1A
102
{ACAD_REACTORS
330
19
102
}
330
19
100
AcDbDictionary
281
     1
  0
RASTERVARIABLES
  5
44C9
102
{ACAD_REACTORS
330
19
102
}
330
19
100
AcDbRasterVariables
 90
        0
 70
     1
 71
     1
 72
     0
  0
DICTIONARY
  5
1E
102
{ACAD_REACTORS
330
19
102
}
330
19
100
AcDbDictionary
281
     1
  3
Layout1
350
21
  3
Model
350
20
  0
DICTIONARY
  5
1B
102
{ACAD_REACTORS
330
19
102
}
330
19
100
AcDbDictionary
281
     1
  3
Standard
350
1C
  0
DICTIONARY
  5
22
102
{ACAD_REACTORS
330
19
102
}
330
19
100
AcDbDictionary
281
     1
  0
ACDBDICTIONARYWDFLT
  5
1F
102
{ACAD_REACTORS
330
19
102
}
330
19
100
AcDbDictionary
281
     1
  3
Normal
350
1D
100
AcDbDictionaryWithDefault
340
1D
  0
DICTIONARY
  5
2312
102
{ACAD_REACTORS
330
19
102
}
330
19
100
AcDbDictionary
281
     1
  3
A0
350
2313
  3
A1
350
2314
  3
A2
350
2315
  3
A3
350
2316
  3
A4
350
2317
  3
A5
350
2318
  3
A6
350
2319
  3
A7
350
231A
  3
A8
350
231B
  3
A9
350
231C
  3
B0
350
231D
  3
B1
350
231E
  3
B2
350
231F
  3
B3
350
2320
  3
B4
350
2321
  3
B5
350
2322
  3
B6
350
2323
  3
B7
350
2324
  3
B8
350
2325
  3
B9
350
2326
  3
C0
350
2327
  3
C1
350
2328
  3
C2
350
2329
  3
C3
350
232A
  3
C4
350
232B
  3
C5
350
232C
  3
C6
350
232D
  3
C7
350
232E
  3
C8
350
232F
  3
C9
350
2330
  3
D0
350
2331
  3
D1
350
2332
  3
D2
350
2333
  0
WIPEOUTVARIABLES
  5
23
330
19
100
AcDbWipeoutVariables
 70
     1
  0
XRECORD
  5
444C
102
{ACAD_REACTORS
330
19
102
}
330
19
100
AcDbXrecord
280
     1
 90
        1
330
0
  0
DICTIONARY
  5
4443
102
{ACAD_REACTORS
330
19
102
}
330
19
100
AcDbDictionary
281
     1
  3
CANNOSCALE
350
47A5
  3
DIMASSOC
350
4449
  3
INDEXCTL
350
4448
  3
SORTENTS
350
4447
  0
DICTIONARY
  5
44C8
102
{ACAD_REACTORS
330
19
102
}
330
19
100
AcDbDictionary
281
     1
  0
DICTIONARY
  5
443E
102
{ACAD_REACTORS
330
19
102
}
330
19
100
AcDbDictionary
281
     1
  3
ASEBlockHierarchyIndexRecord
350
4440
1001
DCO15
1040
1686558972.246
  0
XRECORD
  5
47A4
102
{ACAD_REACTORS
330
19
102
}
330
19
100
AcDbXrecord
280
     1
  1
DWGPROPS COOKIE
  2

  3

  4

  6

  7

  8
renzo.ceresoli
  9

300
=
301
=
302
=
303
=
304
=
305
=
306
=
307
=
308
=
309
=
 40
0.0
 41
2455323.486527315
 42
2455324.532472234
  1

 90
        0
  0
XRECORD
  5
4442
102
{ACAD_REACTORS
330
4441
102
}
330
4441
100
AcDbXrecord
280
     1
290
     1
  0
SORTENTSTABLE
  5
233F
102
{ACAD_REACTORS
330
233E
102
}
330
233E
100
AcDbSortentsTable
330
A
331
0
  5
3520
331
2FB3
  5
3549
  0
LAYOUT
  5
21
102
{ACAD_REACTORS
330
1E
102
}
330
1E
100
AcDbPlotSettings
  1

  2

  4

  6

 40
0.0
 41
0.0
 42
0.0
 43
0.0
 44
0.0
 45
0.0
 46
0.0
 47
0.0
 48
0.0
 49
0.0
140
0.0
141
0.0
142
1.0
143
1.0
 70
     0
 72
     0
 73
     0
 74
     0
  7

 75
     0
147
1.0
148
0.0
149
0.0
100
AcDbLayout
  1
Layout1
 70
     0
 71
     1
 10
0.0
 20
0.0
 11
12.0
 21
9.0
 12
0.0
 22
0.0
 32
0.0
 14
1.000000000000000E+20
 24
1.000000000000000E+20
 34
1.000000000000000E+20
 15
-1.000000000000000E+20
 25
-1.000000000000000E+20
 35
-1.000000000000000E+20
146
0.0
 13
0.0
 23
0.0
 33
0.0
 16
1.0
 26
0.0
 36
0.0
 17
0.0
 27
1.0
 37
0.0
 76
     0
330
B
  0
LAYOUT
  5
20
102
{ACAD_REACTORS
330
1E
102
}
330
1E
100
AcDbPlotSettings
  1

  2

  4

  6

 40
0.0
 41
0.0
 42
0.0
 43
0.0
 44
0.0
 45
0.0
 46
0.0
 47
0.0
 48
0.0
 49
0.0
140
0.0
141
0.0
142
1.0
143
1.0
 70
  1024
 72
     0
 73
     0
 74
     0
  7

 75
     0
147
1.0
148
0.0
149
0.0
100
AcDbLayout
  1
Model
 70
     0
 71
     0
 10
0.0
 20
0.0
 11
0.0
 21
0.0
 12
0.0
 22
0.0
 32
0.0
 14
0.0
 24
0.0
 34
0.0
 15
0.0
 25
0.0
 35
0.0
146
0.0
 13
0.0
 23
0.0
 33
0.0
 16
0.0
 26
0.0
 36
0.0
 17
0.0
 27
0.0
 37
0.0
 76
     0
330
A
331
15
  0
MLINESTYLE
  5
1C
102
{ACAD_REACTORS
330
1B
102
}
330
1B
100
AcDbMlineStyle
  2
STANDARD
 70
     0
  3

 62
     0
 51
90.0
 52
90.0
 71
     2
 49
0.5
 62
   256
  6
BYLAYER
 49
-0.5
 62
   256
  6
BYLAYER
  0
ACDBPLACEHOLDER
  5
1D
102
{ACAD_REACTORS
330
1F
102
}
330
1F
  0
SCALE
  5
2313
102
{ACAD_REACTORS
330
2312
102
}
330
2312
100
AcDbScale
 70
     0
300
1:1
140
1.0
141
1.0
290
     1
  0
SCALE
  5
2314
102
{ACAD_REACTORS
330
2312
102
}
330
2312
100
AcDbScale
 70
     0
300
1:2
140
1.0
141
2.0
290
     0
  0
SCALE
  5
2315
102
{ACAD_REACTORS
330
2312
102
}
330
2312
100
AcDbScale
 70
     0
300
1:4
140
1.0
141
4.0
290
     0
  0
SCALE
  5
2316
102
{ACAD_REACTORS
330
2312
102
}
330
2312
100
AcDbScale
 70
     0
300
1:5
140
1.0
141
5.0
290
     0
  0
SCALE
  5
2317
102
{ACAD_REACTORS
330
2312
102
}
330
2312
100
AcDbScale
 70
     0
300
1:8
140
1.0
141
8.0
290
     0
  0
SCALE
  5
2318
102
{ACAD_REACTORS
330
2312
102
}
330
2312
100
AcDbScale
 70
     0
300
1:10
140
1.0
141
10.0
290
     0
  0
SCALE
  5
2319
102
{ACAD_REACTORS
330
2312
102
}
330
2312
100
AcDbScale
 70
     0
300
1:16
140
1.0
141
16.0
290
     0
  0
SCALE
  5
231A
102
{ACAD_REACTORS
330
2312
102
}
330
2312
100
AcDbScale
 70
     0
300
1:20
140
1.0
141
20.0
290
     0
  0
SCALE
  5
231B
102
{ACAD_REACTORS
330
2312
102
}
330
2312
100
AcDbScale
 70
     0
300
1:30
140
1.0
141
30.0
290
     0
  0
SCALE
  5
231C
102
{ACAD_REACTORS
330
2312
102
}
330
2312
100
AcDbScale
 70
     0
300
1:40
140
1.0
141
40.0
290
     0
  0
SCALE
  5
231D
102
{ACAD_REACTORS
330
2312
102
}
330
2312
100
AcDbScale
 70
     0
300
1:50
140
1.0
141
50.0
290
     0
  0
SCALE
  5
231E
102
{ACAD_REACTORS
330
2312
102
}
330
2312
100
AcDbScale
 70
     0
300
1:100
140
1.0
141
100.0
290
     0
  0
SCALE
  5
231F
102
{ACAD_REACTORS
330
2312
102
}
330
2312
100
AcDbScale
 70
     0
300
2:1
140
2.0
141
1.0
290
     0
  0
SCALE
  5
2320
102
{ACAD_REACTORS
330
2312
102
}
330
2312
100
AcDbScale
 70
     0
300
4:1
140
4.0
141
1.0
290
     0
  0
SCALE
  5
2321
102
{ACAD_REACTORS
330
2312
102
}
330
2312
100
AcDbScale
 70
     0
300
8:1
140
8.0
141
1.0
290
     0
  0
SCALE
  5
2322
102
{ACAD_REACTORS
330
2312
102
}
330
2312
100
AcDbScale
 70
     0
300
10:1
140
10.0
141
1.0
290
     0
  0
SCALE
  5
2323
102
{ACAD_REACTORS
330
2312
102
}
330
2312
100
AcDbScale
 70
     0
300
100:1
140
100.0
141
1.0
290
     0
  0
SCALE
  5
2324
102
{ACAD_REACTORS
330
2312
102
}
330
2312
100
AcDbScale
 70
     0
300
1/128" = 1'-0"
140
0.0078125
141
12.0
290
     0
  0
SCALE
  5
2325
102
{ACAD_REACTORS
330
2312
102
}
330
2312
100
AcDbScale
 70
     0
300
1/64" = 1'-0"
140
0.015625
141
12.0
290
     0
  0
SCALE
  5
2326
102
{ACAD_REACTORS
330
2312
102
}
330
2312
100
AcDbScale
 70
     0
300
1/32" = 1'-0"
140
0.03125
141
12.0
290
     0
  0
SCALE
  5
2327
102
{ACAD_REACTORS
330
2312
102
}
330
2312
100
AcDbScale
 70
     0
300
1/16" = 1'-0"
140
0.0625
141
12.0
290
     0
  0
SCALE
  5
2328
102
{ACAD_REACTORS
330
2312
102
}
330
2312
100
AcDbScale
 70
     0
300
3/32" = 1'-0"
140
0.09375
141
12.0
290
     0
  0
SCALE
  5
2329
102
{ACAD_REACTORS
330
2312
102
}
330
2312
100
AcDbScale
 70
     0
300
1/8" = 1'-0"
140
0.125
141
12.0
290
     0
  0
SCALE
  5
232A
102
{ACAD_REACTORS
330
2312
102
}
330
2312
100
AcDbScale
 70
     0
300
3/16" = 1'-0"
140
0.1875
141
12.0
290
     0
  0
SCALE
  5
232B
102
{ACAD_REACTORS
330
2312
102
}
330
2312
100
AcDbScale
 70
     0
300
1/4" = 1'-0"
140
0.25
141
12.0
290
     0
  0
SCALE
  5
232C
102
{ACAD_REACTORS
330
2312
102
}
330
2312
100
AcDbScale
 70
     0
300
3/8" = 1'-0"
140
0.375
141
12.0
290
     0
  0
SCALE
  5
232D
102
{ACAD_REACTORS
330
2312
102
}
330
2312
100
AcDbScale
 70
     0
300
1/2" = 1'-0"
140
0.5
141
12.0
290
     0
  0
SCALE
  5
232E
102
{ACAD_REACTORS
330
2312
102
}
330
2312
100
AcDbScale
 70
     0
300
3/4" = 1'-0"
140
0.75
141
12.0
290
     0
  0
SCALE
  5
232F
102
{ACAD_REACTORS
330
2312
102
}
330
2312
100
AcDbScale
 70
     0
300
1" = 1'-0"
140
1.0
141
12.0
290
     0
  0
SCALE
  5
2330
102
{ACAD_REACTORS
330
2312
102
}
330
2312
100
AcDbScale
 70
     0
300
1-1/2" = 1'-0"
140
1.5
141
12.0
290
     0
  0
SCALE
  5
2331
102
{ACAD_REACTORS
330
2312
102
}
330
2312
100
AcDbScale
 70
     0
300
3" = 1'-0"
140
3.0
141
12.0
290
     0
  0
SCALE
  5
2332
102
{ACAD_REACTORS
330
2312
102
}
330
2312
100
AcDbScale
 70
     0
300
6" = 1'-0"
140
6.0
141
12.0
290
     0
  0
SCALE
  5
2333
102
{ACAD_REACTORS
330
2312
102
}
330
2312
100
AcDbScale
 70
     0
300
1'-0" = 1'-0"
140
12.0
141
12.0
290
     0
  0
DICTIONARYVAR
  5
47A5
102
{ACAD_REACTORS
330
4443
102
}
330
4443
100
DictionaryVariables
280
     0
  1
1:1
  0
DICTIONARYVAR
  5
4449
102
{ACAD_REACTORS
330
4443
102
}
330
4443
100
DictionaryVariables
280
     0
  1
1
  0
DICTIONARYVAR
  5
4448
102
{ACAD_REACTORS
330
4443
102
}
330
4443
100
DictionaryVariables
280
     0
  1
0
  0
DICTIONARYVAR
  5
4447
102
{ACAD_REACTORS
330
4443
102
}
330
4443
100
DictionaryVariables
280
     0
  1
127
  0
XRECORD
  5
4440
102
{ACAD_REACTORS
330
443E
102
}
330
443E
100
AcDbXrecord
280
     1
  0
ENDSEC
  0
EOF
