  0
SECTION
  2
HEADER
  9
$ACADVER
  1
AC1015
  9
$ACADMAINTVER
 70
     6
  9
$DWGCODEPAGE
  3
ANSI_1252
  9
$INSBASE
 10
0.0
 20
0.0
 30
0.0
  9
$EXTMIN
 10
-56.69963263968426
 20
13.23338869759999
 30
0.0
  9
$EXTMAX
 10
463.1479247972152
 20
274.2748828607
 30
0.0
  9
$LIMMIN
 10
0.0
 20
0.0
  9
$LIMMAX
 10
420.0
 20
297.0
  9
$ORTHOMODE
 70
     1
  9
$REGENMODE
 70
     1
  9
$FILLMODE
 70
     1
  9
$QTEXTMODE
 70
     0
  9
$MIRRTEXT
 70
     1
  9
$LTSCALE
 40
0.5
  9
$ATTMODE
 70
     1
  9
$TEXTSIZE
 40
1.4
  9
$TRACEWID
 40
1.0
  9
$TEXTSTYLE
  7
STANDARD
  9
$CLAYER
  8
0
  9
$CELTYPE
  6
BYLAYER
  9
$CECOLOR
 62
   256
  9
$CELTSCALE
 40
1.0
  9
$DISPSILH
 70
     0
  9
$DIMSCALE
 40
1.0
  9
$DIMASZ
 40
1.6
  9
$DIMEXO
 40
0.05
  9
$DIMDLI
 40
3.75
  9
$DIMRND
 40
0.0
  9
$DIMDLE
 40
0.0
  9
$DIMEXE
 40
0.5
  9
$DIMTP
 40
0.0
  9
$DIMTM
 40
0.0
  9
$DIMTXT
 40
1.6
  9
$DIMCEN
 40
2.5
  9
$DIMTSZ
 40
0.0
  9
$DIMTOL
 70
     0
  9
$DIMLIM
 70
     0
  9
$DIMTIH
 70
     1
  9
$DIMTOH
 70
     1
  9
$DIMSE1
 70
     0
  9
$DIMSE2
 70
     0
  9
$DIMTAD
 70
     1
  9
$DIMZIN
 70
     0
  9
$DIMBLK
  1

  9
$DIMASO
 70
     1
  9
$DIMSHO
 70
     1
  9
$DIMPOST
  1

  9
$DIMAPOST
  1

  9
$DIMALT
 70
     0
  9
$DIMALTD
 70
     3
  9
$DIMALTF
 40
0.0393700787
  9
$DIMLFAC
 40
1.0
  9
$DIMTOFL
 70
     1
  9
$DIMTVP
 40
0.0
  9
$DIMTIX
 70
     0
  9
$DIMSOXD
 70
     0
  9
$DIMSAH
 70
     0
  9
$DIMBLK1
  1

  9
$DIMBLK2
  1

  9
$DIMSTYLE
  2
ISO-25
  9
$DIMCLRD
 70
     0
  9
$DIMCLRE
 70
     0
  9
$DIMCLRT
 70
     0
  9
$DIMTFAC
 40
1.0
  9
$DIMGAP
 40
1.0
  9
$DIMJUST
 70
     0
  9
$DIMSD1
 70
     0
  9
$DIMSD2
 70
     0
  9
$DIMTOLJ
 70
     0
  9
$DIMTZIN
 70
     0
  9
$DIMALTZ
 70
     0
  9
$DIMALTTZ
 70
     0
  9
$DIMUPT
 70
     0
  9
$DIMDEC
 70
     2
  9
$DIMTDEC
 70
     2
  9
$DIMALTU
 70
     2
  9
$DIMALTTD
 70
     3
  9
$DIMTXSTY
  7
STANDARD
  9
$DIMAUNIT
 70
     0
  9
$DIMADEC
 70
     0
  9
$DIMALTRND
 40
0.0
  9
$DIMAZIN
 70
     0
  9
$DIMDSEP
 70
    46
  9
$DIMATFIT
 70
     3
  9
$DIMFRAC
 70
     0
  9
$DIMLDRBLK
  1

  9
$DIMLUNIT
 70
     2
  9
$DIMLWD
 70
    -2
  9
$DIMLWE
 70
    -2
  9
$DIMTMOVE
 70
     2
  9
$LUNITS
 70
     2
  9
$LUPREC
 70
     2
  9
$SKETCHINC
 40
1.0
  9
$FILLETRAD
 40
10.0
  9
$AUNITS
 70
     0
  9
$AUPREC
 70
     2
  9
$MENU
  1
.
  9
$ELEVATION
 40
0.0
  9
$PELEVATION
 40
0.0
  9
$THICKNESS
 40
0.0
  9
$LIMCHECK
 70
     0
  9
$CHAMFERA
 40
10.0
  9
$CHAMFERB
 40
10.0
  9
$CHAMFERC
 40
20.0
  9
$CHAMFERD
 40
0.0
  9
$SKPOLY
 70
     0
  9
$TDCREATE
 40
2456568.504567766
  9
$TDUCREATE
 40
2456568.421234433
  9
$TDUPDATE
 40
2456582.571802384
  9
$TDUUPDATE
 40
2456582.488469051
  9
$TDINDWG
 40
0.0148821875
  9
$TDUSRTIMER
 40
2456582.487909213
  9
$USRTIMER
 70
     1
  9
$ANGBASE
 50
0.0
  9
$ANGDIR
 70
     0
  9
$PDMODE
 70
     0
  9
$PDSIZE
 40
-1.0
  9
$PLINEWID
 40
0.0
  9
$SPLFRAME
 70
     0
  9
$SPLINETYPE
 70
     6
  9
$SPLINESEGS
 70
     8
  9
$HANDSEED
  5
EE5
  9
$SURFTAB1
 70
     6
  9
$SURFTAB2
 70
     6
  9
$SURFTYPE
 70
     6
  9
$SURFU
 70
     6
  9
$SURFV
 70
     6
  9
$UCSBASE
  2

  9
$UCSNAME
  2

  9
$UCSORG
 10
0.0
 20
0.0
 30
0.0
  9
$UCSXDIR
 10
1.0
 20
0.0
 30
0.0
  9
$UCSYDIR
 10
0.0
 20
1.0
 30
0.0
  9
$UCSORTHOREF
  2

  9
$UCSORTHOVIEW
 70
     0
  9
$UCSORGTOP
 10
0.0
 20
0.0
 30
0.0
  9
$UCSORGBOTTOM
 10
0.0
 20
0.0
 30
0.0
  9
$UCSORGLEFT
 10
0.0
 20
0.0
 30
0.0
  9
$UCSORGRIGHT
 10
0.0
 20
0.0
 30
0.0
  9
$UCSORGFRONT
 10
0.0
 20
0.0
 30
0.0
  9
$UCSORGBACK
 10
0.0
 20
0.0
 30
0.0
  9
$PUCSBASE
  2

  9
$PUCSNAME
  2

  9
$PUCSORG
 10
0.0
 20
0.0
 30
0.0
  9
$PUCSXDIR
 10
1.0
 20
0.0
 30
0.0
  9
$PUCSYDIR
 10
0.0
 20
1.0
 30
0.0
  9
$PUCSORTHOREF
  2

  9
$PUCSORTHOVIEW
 70
     0
  9
$PUCSORGTOP
 10
0.0
 20
0.0
 30
0.0
  9
$PUCSORGBOTTOM
 10
0.0
 20
0.0
 30
0.0
  9
$PUCSORGLEFT
 10
0.0
 20
0.0
 30
0.0
  9
$PUCSORGRIGHT
 10
0.0
 20
0.0
 30
0.0
  9
$PUCSORGFRONT
 10
0.0
 20
0.0
 30
0.0
  9
$PUCSORGBACK
 10
0.0
 20
0.0
 30
0.0
  9
$USERI1
 70
     0
  9
$USERI2
 70
     0
  9
$USERI3
 70
     0
  9
$USERI4
 70
     0
  9
$USERI5
 70
     0
  9
$USERR1
 40
0.0
  9
$USERR2
 40
0.0
  9
$USERR3
 40
0.0
  9
$USERR4
 40
0.0
  9
$USERR5
 40
0.0
  9
$WORLDVIEW
 70
     1
  9
$SHADEDGE
 70
     3
  9
$SHADEDIF
 70
    70
  9
$TILEMODE
 70
     1
  9
$MAXACTVP
 70
    64
  9
$PINSBASE
 10
0.0
 20
0.0
 30
0.0
  9
$PLIMCHECK
 70
     0
  9
$PEXTMIN
 10
1.000000000000000E+20
 20
1.000000000000000E+20
 30
1.000000000000000E+20
  9
$PEXTMAX
 10
-1.000000000000000E+20
 20
-1.000000000000000E+20
 30
-1.000000000000000E+20
  9
$PLIMMIN
 10
0.0
 20
0.0
  9
$PLIMMAX
 10
0.0
 20
0.0
  9
$UNITMODE
 70
     0
  9
$VISRETAIN
 70
     1
  9
$PLINEGEN
 70
     0
  9
$PSLTSCALE
 70
     1
  9
$TREEDEPTH
 70
  3020
  9
$CMLSTYLE
  2
STANDARD
  9
$CMLJUST
 70
     0
  9
$CMLSCALE
 40
20.0
  9
$PROXYGRAPHICS
 70
     1
  9
$MEASUREMENT
 70
     1
  9
$CELWEIGHT
370
    -1
  9
$ENDCAPS
280
     0
  9
$JOINSTYLE
280
     0
  9
$LWDISPLAY
290
     0
  9
$INSUNITS
 70
     0
  9
$HYPERLINKBASE
  1

  9
$STYLESHEET
  1

  9
$XEDIT
290
     1
  9
$CEPSNTYPE
380
     0
  9
$PSTYLEMODE
290
     1
  9
$FINGERPRINTGUID
  2
{EFC784CA-23DF-476F-81A7-EB9579CDBAD8}
  9
$VERSIONGUID
  2
{FAEB1C32-E019-11D5-929B-00C0DF256EC4}
  9
$EXTNAMES
290
     1
  9
$PSVPSCALE
 40
0.0
  9
$OLESTARTUP
290
     0
  0
ENDSEC
  0
SECTION
  2
CLASSES
  0
CLASS
  1
ACDBDICTIONARYWDFLT
  2
AcDbDictionaryWithDefault
  3
ObjectDBX Classes
 90
        0
280
     0
281
     0
  0
CLASS
  1
VISUALSTYLE
  2
AcDbVisualStyle
  3
ObjectDBX Classes
 90
     4095
280
     0
281
     0
  0
CLASS
  1
MATERIAL
  2
AcDbMaterial
  3
ObjectDBX Classes
 90
     1153
280
     0
281
     0
  0
CLASS
  1
XRECORD
  2
AcDbXrecord
  3
ObjectDBX Classes
 90
        0
280
     0
281
     0
  0
CLASS
  1
LWPOLYLINE
  2
AcDbPolyline
  3
ObjectDBX Classes
 90
        0
280
     0
281
     1
  0
CLASS
  1
HATCH
  2
AcDbHatch
  3
ObjectDBX Classes
 90
        0
280
     0
281
     1
  0
CLASS
  1
SCALE
  2
AcDbScale
  3
ObjectDBX Classes
 90
     1153
280
     0
281
     0
  0
CLASS
  1
TABLESTYLE
  2
AcDbTableStyle
  3
ObjectDBX Classes
 90
     4095
280
     0
281
     0
  0
CLASS
  1
RASTERVARIABLES
  2
AcDbRasterVariables
  3
ISM
 90
        0
280
     0
281
     0
  0
CLASS
  1
DICTIONARYVAR
  2
AcDbDictionaryVar
  3
ObjectDBX Classes
 90
        0
280
     0
281
     0
  0
CLASS
  1
CELLSTYLEMAP
  2
AcDbCellStyleMap
  3
ObjectDBX Classes
 90
     1152
280
     0
281
     0
  0
CLASS
  1
ACDBPLACEHOLDER
  2
AcDbPlaceHolder
  3
ObjectDBX Classes
 90
        0
280
     0
281
     0
  0
CLASS
  1
LAYOUT
  2
AcDbLayout
  3
ObjectDBX Classes
 90
        0
280
     0
281
     0
  0
CLASS
  1
SUN
  2
AcDbSun
  3
SCENEOE
 90
     1153
280
     0
281
     0
  0
ENDSEC
  0
SECTION
  2
TABLES
  0
TABLE
  2
VPORT
  5
8
330
0
100
AcDbSymbolTable
 70
     1
  0
VPORT
  5
29
330
8
100
AcDbSymbolTableRecord
100
AcDbViewportTableRecord
  2
*ACTIVE
 70
     0
 10
0.0
 20
0.0
 11
1.0
 21
1.0
 12
203.2241460787655
 22
143.75413577915
 13
0.0
 23
0.0
 14
10.0
 24
10.0
 15
10.0
 25
10.0
 16
0.0
 26
0.0
 36
1.0
 17
0.0
 27
0.0
 37
0.0
 40
330.8586424672287
 41
1.602631578947368
 42
50.0
 43
0.0
 44
0.0
 50
0.0
 51
0.0
 71
    16
 72
  2000
 73
     1
 74
     3
 75
     0
 76
     0
 77
     0
 78
     0
281
     0
 65
     1
110
0.0
120
0.0
130
0.0
111
1.0
121
0.0
131
0.0
112
0.0
122
1.0
132
0.0
 79
     0
146
0.0
  0
ENDTAB
  0
TABLE
  2
LTYPE
  5
5
330
0
100
AcDbSymbolTable
 70
     6
  0
LTYPE
  5
14
330
5
100
AcDbSymbolTableRecord
100
AcDbLinetypeTableRecord
  2
BYBLOCK
 70
     0
  3

 72
    65
 73
     0
 40
0.0
  0
LTYPE
  5
15
330
5
100
AcDbSymbolTableRecord
100
AcDbLinetypeTableRecord
  2
BYLAYER
 70
     0
  3

 72
    65
 73
     0
 40
0.0
  0
LTYPE
  5
16
330
5
100
AcDbSymbolTableRecord
100
AcDbLinetypeTableRecord
  2
CONTINUOUS
 70
     0
  3
Solid line
 72
    65
 73
     0
 40
0.0
  0
LTYPE
  5
3F
330
5
100
AcDbSymbolTableRecord
100
AcDbLinetypeTableRecord
  2
HIDDEN
 70
     0
  3
Hidden __ __ __ __ __ __ __ __ __ __ __ __ __ __
 72
    65
 73
     2
 40
1.905
 49
1.27
 74
     0
 49
-0.635
 74
     0
  0
LTYPE
  5
40
330
5
100
AcDbSymbolTableRecord
100
AcDbLinetypeTableRecord
  2
PHANTOM
 70
     0
  3
Phantom ______  __  __  ______  __  __  ______
 72
    65
 73
     6
 40
12.7
 49
6.35
 74
     0
 49
-1.27
 74
     0
 49
1.27
 74
     0
 49
-1.27
 74
     0
 49
1.27
 74
     0
 49
-1.27
 74
     0
  0
LTYPE
  5
41
330
5
100
AcDbSymbolTableRecord
100
AcDbLinetypeTableRecord
  2
CENTER
 70
     0
  3
Center ____ _ ____ _ ____ _ ____ _ ____ _ ____
 72
    65
 73
     4
 40
10.16
 49
6.35
 74
     0
 49
-1.27
 74
     0
 49
1.27
 74
     0
 49
-1.27
 74
     0
  0
LTYPE
  5
42
330
5
100
AcDbSymbolTableRecord
100
AcDbLinetypeTableRecord
  2
CENTERX2
 70
     0
  3
Center (2x) ________  __  ________  __  _____
 72
    65
 73
     4
 40
20.32
 49
12.7
 74
     0
 49
-2.54
 74
     0
 49
2.54
 74
     0
 49
-2.54
 74
     0
  0
LTYPE
  5
43
330
5
100
AcDbSymbolTableRecord
100
AcDbLinetypeTableRecord
  2
DOT2
 70
     0
  3
Dot (.5x) ........................................
 72
    65
 73
     2
 40
0.635
 49
0.0
 74
     0
 49
-0.635
 74
     0
  0
ENDTAB
  0
TABLE
  2
LAYER
  5
2
330
0
100
AcDbSymbolTable
 70
     3
  0
LAYER
  5
10
330
2
100
AcDbSymbolTableRecord
100
AcDbLayerTableRecord
  2
0
 70
     0
 62
     7
  6
CONTINUOUS
370
    -3
390
2A1
  0
LAYER
  5
44
330
2
100
AcDbSymbolTableRecord
100
AcDbLayerTableRecord
  2
FORMAT
 70
     0
 62
     7
  6
CONTINUOUS
370
    -3
390
2A1
  0
LAYER
  5
29D
330
2
100
AcDbSymbolTableRecord
100
AcDbLayerTableRecord
  2
Defpoints
 70
     0
 62
     7
  6
CONTINUOUS
290
     0
370
    -3
390
2A1
  0
ENDTAB
  0
TABLE
  2
STYLE
  5
3
330
0
100
AcDbSymbolTable
 70
     9
  0
STYLE
  5
11
330
3
100
AcDbSymbolTableRecord
100
AcDbTextStyleTableRecord
  2
STANDARD
 70
     0
 40
0.0
 41
1.0
 50
0.0
 71
     0
 42
1.4
  3
txt
  4

  0
STYLE
  5
3D6
330
3
100
AcDbSymbolTableRecord
100
AcDbTextStyleTableRecord
  2
SLDTEXTSTYLE4
 70
     0
 40
0.0
 41
0.75
 50
0.0
 71
     0
 42
1.4
  3
TXT
  4

  0
STYLE
  5
3D9
330
3
100
AcDbSymbolTableRecord
100
AcDbTextStyleTableRecord
  2
SLDTEXTSTYLE0
 70
     0
 40
0.0
 41
0.605
 50
0.0
 71
     0
 42
1.4
  3
TXT
  4

  0
STYLE
  5
3DA
330
3
100
AcDbSymbolTableRecord
100
AcDbTextStyleTableRecord
  2
SLDTEXTSTYLE1
 70
     0
 40
0.0
 41
0.609090909090909
 50
0.0
 71
     0
 42
1.4
  3
TXT
  4

  0
STYLE
  5
3DB
330
3
100
AcDbSymbolTableRecord
100
AcDbTextStyleTableRecord
  2
SLDTEXTSTYLE2
 70
     0
 40
0.0
 41
0.7
 50
0.0
 71
     0
 42
1.4
  3
TXT
  4

  0
STYLE
  5
3DC
330
3
100
AcDbSymbolTableRecord
100
AcDbTextStyleTableRecord
  2
SLDTEXTSTYLE3
 70
     0
 40
0.0
 41
0.57
 50
0.0
 71
     0
 42
1.4
  3
TXT
  4

  0
STYLE
  5
3DD
330
3
100
AcDbSymbolTableRecord
100
AcDbTextStyleTableRecord
  2
SLDTEXTSTYLE5
 70
     0
 40
0.0
 41
0.7
 50
0.0
 71
     0
 42
1.4
  3
TXT
  4
bigfont
  0
STYLE
  5
A22
330
3
100
AcDbSymbolTableRecord
100
AcDbTextStyleTableRecord
  2
SLDTEXTSTYLE6
 70
     0
 40
0.0
 41
0.7
 50
0.0
 71
     0
 42
1.4
  3
TXT
  4
bigfont
  0
STYLE
  5
A23
330
3
100
AcDbSymbolTableRecord
100
AcDbTextStyleTableRecord
  2
SLDTEXTSTYLE7
 70
     0
 40
0.0
 41
1.186505703334004
 50
0.0
 71
     0
 42
1.4
  3
TXT
  4

  0
ENDTAB
  0
TABLE
  2
VIEW
  5
6
330
0
100
AcDbSymbolTable
 70
     0
  0
ENDTAB
  0
TABLE
  2
UCS
  5
7
330
0
100
AcDbSymbolTable
 70
     0
  0
ENDTAB
  0
TABLE
  2
APPID
  5
9
330
0
100
AcDbSymbolTable
 70
     1
  0
APPID
  5
12
330
9
100
AcDbSymbolTableRecord
100
AcDbRegAppTableRecord
  2
ACAD
 70
     0
  0
ENDTAB
  0
TABLE
  2
DIMSTYLE
  5
A
330
0
100
AcDbSymbolTable
 70
     4
100
AcDbDimStyleTable
  0
DIMSTYLE
105
27
330
A
100
AcDbSymbolTableRecord
100
AcDbDimStyleTableRecord
  2
ISO-25
 70
     0
 41
2.5
 42
0.625
 43
3.75
 44
1.25
 73
     0
 74
     0
 77
     1
 78
     8
140
2.5
141
2.5
143
0.0393700787
147
0.625
171
     3
172
     1
178
     0
271
     2
272
     2
274
     3
283
     0
284
     8
340
11
  0
DIMSTYLE
105
3D5
330
A
100
AcDbSymbolTableRecord
100
AcDbDimStyleTableRecord
  2
SLDDIMSTYLE0
 70
     0
 41
3.2
 44
0.0
 45
0.000000001
 73
     0
 74
     0
 77
     1
 78
    12
 79
     3
140
3.2
147
0.8
173
     1
178
     0
271
     2
272
     2
276
     2
284
    12
340
3D6
  0
DIMSTYLE
105
3D7
330
A
100
AcDbSymbolTableRecord
100
AcDbDimStyleTableRecord
  2
SLDDIMSTYLE1
 70
     0
 41
3.2
 44
0.0
 45
0.000000001
 73
     0
 74
     0
 77
     1
 78
    12
 79
     3
140
3.2
147
0.8
172
     1
173
     1
178
     0
271
     2
272
     2
276
     2
284
    12
289
     0
340
3D6
  0
DIMSTYLE
105
3D8
330
A
100
AcDbSymbolTableRecord
100
AcDbDimStyleTableRecord
  2
SLDDIMSTYLE2
 70
     0
 41
3.2
 44
0.0
 45
0.000000001
 78
    12
 79
     3
140
3.2
141
0.0
147
0.8
173
     1
178
     0
271
     2
272
     2
276
     2
284
    12
340
3D6
  0
ENDTAB
  0
TABLE
  2
BLOCK_RECORD
  5
1
330
0
100
AcDbSymbolTable
 70
    34
  0
BLOCK_RECORD
  5
1F
330
1
100
AcDbSymbolTableRecord
100
AcDbBlockTableRecord
  2
*MODEL_SPACE
340
260
  0
BLOCK_RECORD
  5
1B
330
1
100
AcDbSymbolTableRecord
100
AcDbBlockTableRecord
  2
*PAPER_SPACE
340
261
  0
BLOCK_RECORD
  5
23
330
1
100
AcDbSymbolTableRecord
100
AcDbBlockTableRecord
  2
*PAPER_SPACE0
340
0
  0
BLOCK_RECORD
  5
484
330
1
100
AcDbSymbolTableRecord
100
AcDbBlockTableRecord
  2
SW_NOTE_0
340
0
  0
BLOCK_RECORD
  5
490
330
1
100
AcDbSymbolTableRecord
100
AcDbBlockTableRecord
  2
SW_NOTE_1
340
0
  0
BLOCK_RECORD
  5
4AB
330
1
100
AcDbSymbolTableRecord
100
AcDbBlockTableRecord
  2
SW_NOTE_2
340
0
  0
BLOCK_RECORD
  5
4B6
330
1
100
AcDbSymbolTableRecord
100
AcDbBlockTableRecord
  2
SW_NOTE_3
340
0
  0
BLOCK_RECORD
  5
4BE
330
1
100
AcDbSymbolTableRecord
100
AcDbBlockTableRecord
  2
SW_NOTE_4
340
0
  0
BLOCK_RECORD
  5
4C5
330
1
100
AcDbSymbolTableRecord
100
AcDbBlockTableRecord
  2
SW_NOTE_5
340
0
  0
BLOCK_RECORD
  5
503
330
1
100
AcDbSymbolTableRecord
100
AcDbBlockTableRecord
  2
_D
340
0
  0
BLOCK_RECORD
  5
50D
330
1
100
AcDbSymbolTableRecord
100
AcDbBlockTableRecord
  2
_D_1
340
0
  0
BLOCK_RECORD
  5
519
330
1
100
AcDbSymbolTableRecord
100
AcDbBlockTableRecord
  2
_D_2
340
0
  0
BLOCK_RECORD
  5
523
330
1
100
AcDbSymbolTableRecord
100
AcDbBlockTableRecord
  2
_D_3
340
0
  0
BLOCK_RECORD
  5
52F
330
1
100
AcDbSymbolTableRecord
100
AcDbBlockTableRecord
  2
_D_4
340
0
  0
BLOCK_RECORD
  5
53B
330
1
100
AcDbSymbolTableRecord
100
AcDbBlockTableRecord
  2
_D_5
340
0
  0
BLOCK_RECORD
  5
547
330
1
100
AcDbSymbolTableRecord
100
AcDbBlockTableRecord
  2
_D_6
340
0
  0
BLOCK_RECORD
  5
551
330
1
100
AcDbSymbolTableRecord
100
AcDbBlockTableRecord
  2
_D_7
340
0
  0
BLOCK_RECORD
  5
55D
330
1
100
AcDbSymbolTableRecord
100
AcDbBlockTableRecord
  2
_D_8
340
0
  0
BLOCK_RECORD
  5
567
330
1
100
AcDbSymbolTableRecord
100
AcDbBlockTableRecord
  2
_D_9
340
0
  0
BLOCK_RECORD
  5
571
330
1
100
AcDbSymbolTableRecord
100
AcDbBlockTableRecord
  2
_D_10
340
0
  0
BLOCK_RECORD
  5
57D
330
1
100
AcDbSymbolTableRecord
100
AcDbBlockTableRecord
  2
_D_11
340
0
  0
BLOCK_RECORD
  5
587
330
1
100
AcDbSymbolTableRecord
100
AcDbBlockTableRecord
  2
_D_12
340
0
  0
BLOCK_RECORD
  5
5C1
330
1
100
AcDbSymbolTableRecord
100
AcDbBlockTableRecord
  2
_D_13
340
0
  0
BLOCK_RECORD
  5
5CD
330
1
100
AcDbSymbolTableRecord
100
AcDbBlockTableRecord
  2
_D_14
340
0
  0
BLOCK_RECORD
  5
5D9
330
1
100
AcDbSymbolTableRecord
100
AcDbBlockTableRecord
  2
_D_15
340
0
  0
BLOCK_RECORD
  5
609
330
1
100
AcDbSymbolTableRecord
100
AcDbBlockTableRecord
  2
_D_16
340
0
  0
BLOCK_RECORD
  5
613
330
1
100
AcDbSymbolTableRecord
100
AcDbBlockTableRecord
  2
_D_17
340
0
  0
BLOCK_RECORD
  5
61D
330
1
100
AcDbSymbolTableRecord
100
AcDbBlockTableRecord
  2
_D_18
340
0
  0
BLOCK_RECORD
  5
627
330
1
100
AcDbSymbolTableRecord
100
AcDbBlockTableRecord
  2
_D_19
340
0
  0
BLOCK_RECORD
  5
631
330
1
100
AcDbSymbolTableRecord
100
AcDbBlockTableRecord
  2
SW_CENTERMARKSYMBOL_0
340
0
  0
BLOCK_RECORD
  5
63D
330
1
100
AcDbSymbolTableRecord
100
AcDbBlockTableRecord
  2
SW_CENTERMARKSYMBOL_1
340
0
  0
BLOCK_RECORD
  5
670
330
1
100
AcDbSymbolTableRecord
100
AcDbBlockTableRecord
  2
_D_20
340
0
  0
BLOCK_RECORD
  5
67D
330
1
100
AcDbSymbolTableRecord
100
AcDbBlockTableRecord
  2
SW_CENTERMARKSYMBOL_2
340
0
  0
BLOCK_RECORD
  5
DBD
330
1
100
AcDbSymbolTableRecord
100
AcDbBlockTableRecord
  2
SW_CENTERMARKSYMBOL_3
340
0
  0
ENDTAB
  0
ENDSEC
  0
SECTION
  2
BLOCKS
  0
BLOCK
  5
20
330
1F
100
AcDbEntity
  8
0
100
AcDbBlockBegin
  2
*MODEL_SPACE
 70
     0
 10
0.0
 20
0.0
 30
0.0
  3
*MODEL_SPACE
  1
*MODEL_SPACE
  0
ENDBLK
  5
21
330
1F
100
AcDbEntity
  8
0
100
AcDbBlockEnd
  0
BLOCK
  5
1C
330
1B
100
AcDbEntity
 67
     1
  8
0
100
AcDbBlockBegin
  2
*PAPER_SPACE
 70
     0
 10
0.0
 20
0.0
 30
0.0
  3
*PAPER_SPACE
  1
*PAPER_SPACE
  0
ENDBLK
  5
1D
330
1B
100
AcDbEntity
 67
     1
  8
0
100
AcDbBlockEnd
  0
BLOCK
  5
24
330
23
100
AcDbEntity
  8
0
100
AcDbBlockBegin
  2
*PAPER_SPACE0
 70
     0
 10
0.0
 20
0.0
 30
0.0
  3
*PAPER_SPACE0
  1
*PAPER_SPACE0
  0
ENDBLK
  5
25
330
23
100
AcDbEntity
  8
0
100
AcDbBlockEnd
  0
BLOCK
  5
485
330
484
100
AcDbEntity
  8
0
100
AcDbBlockBegin
  2
SW_NOTE_0
 70
     0
 10
0.0
 20
0.0
 30
0.0
  3
SW_NOTE_0
  1
SW_NOTE_0
  0
MTEXT
  5
486
330
484
100
AcDbEntity
  8
0
  6
Continuous
 62
     0
370
     0
100
AcDbMText
 10
0.0
 20
2.387460876369325
 30
0.0
 40
1.852083333333333
 41
0.0
 71
     1
 72
     1
  1
FINITURA
  7
SLDTEXTSTYLE0
 73
     1
 44
1.0
  0
MTEXT
  5
487
330
484
100
AcDbEntity
  8
0
  6
Continuous
 62
     0
370
     0
100
AcDbMText
 10
0.0
 20
-0.0819835382314046
 30
0.0
 40
1.852083333333333
 41
0.0
 71
     1
 72
     1
  1
SPECIFICA:
  7
SLDTEXTSTYLE0
 73
     1
 44
1.0
  0
ENDBLK
  5
488
330
484
100
AcDbEntity
  8
0
100
AcDbBlockEnd
  0
BLOCK
  5
491
330
490
100
AcDbEntity
  8
0
100
AcDbBlockBegin
  2
SW_NOTE_1
 70
     0
 10
0.0
 20
0.0
 30
0.0
  3
SW_NOTE_1
  1
SW_NOTE_1
  0
MTEXT
  5
492
330
490
100
AcDbEntity
  8
0
  6
Continuous
 62
     0
370
     0
100
AcDbMText
 10
0.0
 20
2.387460876369325
 30
0.0
 40
1.852083333333333
 41
0.0
 71
     1
 72
     1
  1
CROMATURA
  7
SLDTEXTSTYLE0
 73
     1
 44
1.0
  0
MTEXT
  5
493
330
490
100
AcDbEntity
  8
0
  6
Continuous
 62
     0
370
     0
100
AcDbMText
 10
0.0
 20
-0.0819835382314046
 30
0.0
 40
1.852083333333333
 41
0.0
 71
     1
 72
     1
  1
A KANBAN
  7
SLDTEXTSTYLE0
 73
     1
 44
1.0
  0
ENDBLK
  5
494
330
490
100
AcDbEntity
  8
0
100
AcDbBlockEnd
  0
BLOCK
  5
4AC
330
4AB
100
AcDbEntity
  8
0
100
AcDbBlockBegin
  2
SW_NOTE_2
 70
     0
 10
0.0
 20
0.0
 30
0.0
  3
SW_NOTE_2
  1
SW_NOTE_2
  0
LINE
  5
4AD
330
4AB
100
AcDbEntity
  8
0
  6
Continuous
 62
     0
370
     0
100
AcDbLine
 10
-3.068231992879367
 20
-19.11086222480873
 30
0.0
 11
-3.068231992879367
 21
3.670594728833632
 31
0.0
  0
LINE
  5
4AE
330
4AB
100
AcDbEntity
  8
0
  6
Continuous
 62
     0
370
     0
100
AcDbLine
 10
-3.068231992879367
 20
3.670594728833632
 30
0.0
 11
25.5410395302994
 21
3.670594728833632
 31
0.0
  0
LINE
  5
4AF
330
4AB
100
AcDbEntity
  8
0
  6
Continuous
 62
     0
370
     0
100
AcDbLine
 10
25.5410395302994
 20
3.670594728833632
 30
0.0
 11
25.5410395302994
 21
-19.11086222480873
 31
0.0
  0
LINE
  5
4B0
330
4AB
100
AcDbEntity
  8
0
  6
Continuous
 62
     0
370
     0
100
AcDbLine
 10
25.5410395302994
 20
-19.11086222480873
 30
0.0
 11
-3.068231992879367
 21
-19.11086222480873
 31
0.0
  0
MTEXT
  5
4B1
330
4AB
100
AcDbEntity
  8
0
  6
Continuous
 62
     0
370
     0
100
AcDbMText
 10
10.54374999999999
 20
3.609389671361485
 30
0.0
 40
2.8
 41
0.0
 71
     2
 72
     1
  1
VALIDO PER
  7
SLDTEXTSTYLE4
 73
     1
 44
1.0
  0
ENDBLK
  5
4B2
330
4AB
100
AcDbEntity
  8
0
100
AcDbBlockEnd
  0
BLOCK
  5
4B7
330
4B6
100
AcDbEntity
  8
0
100
AcDbBlockBegin
  2
SW_NOTE_3
 70
     0
 10
0.0
 20
0.0
 30
0.0
  3
SW_NOTE_3
  1
SW_NOTE_3
  0
MTEXT
  5
4B8
330
4B6
100
AcDbEntity
  8
0
  6
Continuous
 62
     0
370
     0
100
AcDbMText
 10
0.0
 20
2.728526715850658
 30
0.0
 40
2.116666666666666
 41
0.0
 71
     1
 72
     1
  1
Approvato:
  7
SLDTEXTSTYLE0
 73
     1
 44
1.0
  0
MTEXT
  5
4B9
330
4B6
100
AcDbEntity
  8
0
  6
Continuous
 62
     0
370
     0
100
AcDbMText
 10
15.84560198038817
 20
2.728526715850658
 30
0.0
 40
2.116666666666666
 41
0.0
 71
     1
 72
     1
  1
A. Biasotti
  7
SLDTEXTSTYLE0
 73
     1
 44
1.0
  0
ENDBLK
  5
4BA
330
4B6
100
AcDbEntity
  8
0
100
AcDbBlockEnd
  0
BLOCK
  5
4BF
330
4BE
100
AcDbEntity
  8
0
100
AcDbBlockBegin
  2
SW_NOTE_4
 70
     0
 10
0.0
 20
0.0
 30
0.0
  3
SW_NOTE_4
  1
SW_NOTE_4
  0
MTEXT
  5
4C0
330
4BE
100
AcDbEntity
  8
0
  6
Continuous
 62
     0
370
     0
100
AcDbMText
 10
0.0
 20
2.449228705566728
 30
0.0
 40
1.9
 41
0.0
 71
     1
 72
     1
  1
Dimensioni in mm   -
  7
SLDTEXTSTYLE0
 73
     1
 44
1.0
  0
MTEXT
  5
4C1
330
4BE
100
AcDbEntity
  8
0
  6
Continuous
 62
     0
370
     0
100
AcDbMText
 10
25.96666663885117
 20
2.449228705566728
 30
0.0
 40
1.9
 41
0.0
 71
     1
 72
     1
  1
NB
  7
SLDTEXTSTYLE0
 73
     1
 44
1.0
  0
MTEXT
  5
4C2
330
4BE
100
AcDbEntity
  8
0
  6
Continuous
 62
     0
370
     0
100
AcDbMText
 10
29.73500080406666
 20
2.449228705566728
 30
0.0
 40
1.9
 41
0.0
 71
     1
 72
     1
  1
:  LE QUOTE INDICATE A DISEGNO SI RIFERISCONO ALLA LAVORAZIONE MECCANICA. - PRIMA DEI TRATTAMENTI SUPERFICIALI
  7
SLDTEXTSTYLE0
 73
     1
 44
1.0
  0
ENDBLK
  5
4C3
330
4BE
100
AcDbEntity
  8
0
100
AcDbBlockEnd
  0
BLOCK
  5
4C6
330
4C5
100
AcDbEntity
  8
0
100
AcDbBlockBegin
  2
SW_NOTE_5
 70
     0
 10
0.0
 20
0.0
 30
0.0
  3
SW_NOTE_5
  1
SW_NOTE_5
  0
MTEXT
  5
4C7
330
4C5
100
AcDbEntity
  8
0
  6
Continuous
 62
     0
370
     0
100
AcDbMText
 10
0.0
 20
6.139185110663983
 30
0.0
 40
4.762499999999999
 41
0.0
 71
     1
 72
     1
  1
Lo studio di fattibilità fa riferimento alla sola possibilità da parte di Colcom
  7
SLDTEXTSTYLE2
 73
     1
 44
1.0
  0
MTEXT
  5
4C8
330
4C5
100
AcDbEntity
  8
0
  6
Continuous
 62
     0
370
     0
100
AcDbMText
 10
0.0
 20
-0.2108148125950365
 30
0.0
 40
4.762499999999999
 41
0.0
 71
     1
 72
     1
  1
per quanto riguarda la realizzazione.
  7
SLDTEXTSTYLE2
 73
     1
 44
1.0
  0
MTEXT
  5
4C9
330
4C5
100
AcDbEntity
  8
0
  6
Continuous
 62
     0
370
     0
100
AcDbMText
 10
0.0
 20
-6.560814735854057
 30
0.0
 40
4.762499999999999
 41
0.0
 71
     1
 72
     1
  1
Non è stata considerata nello studio la struttura portante e l\M+18166 applicazione in
  7
SLDTEXTSTYLE5
 73
     1
 44
1.0
  0
MTEXT
  5
4CA
330
4C5
100
AcDbEntity
  8
0
  6
Continuous
 62
     0
370
     0
100
AcDbMText
 10
0.0
 20
-12.91081465911308
 30
0.0
 40
4.762499999999999
 41
0.0
 71
     1
 72
     1
  1
cui viene impiegato il prodotto, che resta a carico del cliente.
  7
SLDTEXTSTYLE2
 73
     1
 44
1.0
  0
ENDBLK
  5
4CB
330
4C5
100
AcDbEntity
  8
0
100
AcDbBlockEnd
  0
BLOCK
  5
504
330
503
100
AcDbEntity
  8
0
100
AcDbBlockBegin
  2
_D
 70
     0
 10
0.0
 20
0.0
 30
0.0
  3
_D
  1
_D
  0
LINE
  5
505
330
503
100
AcDbEntity
  8
0
  6
Continuous
 62
     0
370
    -2
100
AcDbLine
 10
83.25194444444442
 20
199.601111111111
 30
0.0
 11
34.11444444444436
 21
199.6011111111109
 31
0.0
  0
LINE
  5
506
330
503
100
AcDbEntity
  8
0
  6
Continuous
 62
     0
370
    -2
100
AcDbLine
 10
66.05194444444442
 20
177.601111111111
 30
0.0
 11
34.11444444444444
 21
177.6011111111109
 31
0.0
  0
LINE
  5
507
330
503
100
AcDbEntity
  8
0
  6
Continuous
 62
     0
370
    -2
100
AcDbLine
 10
34.11444444444437
 20
196.4011111111109
 30
0.0
 11
34.11444444444442
 21
180.8011111111109
 31
0.0
  0
SOLID
  5
508
330
503
100
AcDbEntity
  8
0
 62
     0
100
AcDbTrace
 10
34.6477777777777
 20
196.4011111111109
 30
0.0
 11
33.58111111111104
 21
196.4011111111109
 31
0.0
 12
34.11444444444436
 22
199.6011111111109
 32
0.0
 13
34.11444444444436
 23
199.6011111111109
 33
0.0
  0
SOLID
  5
509
330
503
100
AcDbEntity
  8
0
 62
     0
100
AcDbTrace
 10
33.58111111111109
 20
180.8011111111109
 30
0.0
 11
34.64777777777775
 21
180.8011111111109
 31
0.0
 12
34.11444444444444
 22
177.6011111111109
 32
0.0
 13
34.11444444444444
 23
177.6011111111109
 33
0.0
  0
MTEXT
  5
50A
330
503
100
AcDbEntity
  8
0
 62
     0
370
     0
100
AcDbMText
 10
30.1144444444444
 20
189.4446869792085
 30
0.0
 40
3.2
 41
0.0
 71
     2
 72
     1
  1
\A1;22
  7
SLDTEXTSTYLE4
 11
-3.552713678800506E-15
 21
1.0
 31
0.0
 73
     1
 44
1.0
  0
POINT
  5
6EC
330
503
100
AcDbEntity
  8
Defpoints
 62
     0
100
AcDbPoint
 10
83.31444444444442
 20
199.601111111111
 30
0.0
  0
POINT
  5
6ED
330
503
100
AcDbEntity
  8
Defpoints
 62
     0
100
AcDbPoint
 10
66.11444444444442
 20
177.601111111111
 30
0.0
  0
POINT
  5
6EE
330
503
100
AcDbEntity
  8
Defpoints
 62
     0
100
AcDbPoint
 10
34.11444444444439
 20
177.6011111111109
 30
0.0
  0
ENDBLK
  5
50B
330
503
100
AcDbEntity
  8
0
100
AcDbBlockEnd
  0
BLOCK
  5
50E
330
50D
100
AcDbEntity
  8
0
100
AcDbBlockBegin
  2
_D_1
 70
     0
 10
0.0
 20
0.0
 30
0.0
  3
_D_1
  1
_D_1
  0
LINE
  5
50F
330
50D
100
AcDbEntity
  8
0
  6
Continuous
 62
     0
370
    -2
100
AcDbLine
 10
62.0519444444444
 20
184.601111111111
 30
0.0
 11
41.3322854054413
 21
184.6011111111109
 31
0.0
  0
LINE
  5
510
330
50D
100
AcDbEntity
  8
0
  6
Continuous
 62
     0
370
    -2
100
AcDbLine
 10
66.05194444444442
 20
177.601111111111
 30
0.0
 11
41.33228540544132
 21
177.6011111111109
 31
0.0
  0
LINE
  5
511
330
50D
100
AcDbEntity
  8
0
  6
Continuous
 62
     0
370
    -2
100
AcDbLine
 10
41.3322854054413
 20
181.4011111111109
 30
0.0
 11
41.33228540544131
 21
180.8011111111109
 31
0.0
  0
SOLID
  5
512
330
50D
100
AcDbEntity
  8
0
 62
     0
100
AcDbTrace
 10
41.86561873877464
 20
181.4011111111109
 30
0.0
 11
40.79895207210797
 21
181.4011111111109
 31
0.0
 12
41.3322854054413
 22
184.6011111111109
 32
0.0
 13
41.3322854054413
 23
184.6011111111109
 33
0.0
  0
SOLID
  5
513
330
50D
100
AcDbEntity
  8
0
 62
     0
100
AcDbTrace
 10
40.79895207210798
 20
180.8011111111109
 30
0.0
 11
41.86561873877464
 21
180.8011111111109
 31
0.0
 12
41.33228540544132
 22
177.6011111111109
 32
0.0
 13
41.33228540544132
 23
177.6011111111109
 33
0.0
  0
MTEXT
  5
514
330
50D
100
AcDbEntity
  8
0
 62
     0
370
     0
100
AcDbMText
 10
37.33228540544131
 20
181.86588141276
 30
0.0
 40
3.2
 41
0.0
 71
     2
 72
     1
  1
\A1;7
  7
SLDTEXTSTYLE4
 11
-3.045183153257572E-15
 21
1.0
 31
0.0
 73
     1
 44
1.0
  0
POINT
  5
515
330
50D
100
AcDbEntity
  8
Defpoints
 62
     0
100
AcDbPoint
 10
62.1144444444444
 20
184.601111111111
 30
0.0
  0
POINT
  5
516
330
50D
100
AcDbEntity
  8
Defpoints
 62
     0
100
AcDbPoint
 10
66.11444444444442
 20
177.601111111111
 30
0.0
  0
POINT
  5
6EF
330
50D
100
AcDbEntity
  8
Defpoints
 62
     0
100
AcDbPoint
 10
41.3322854054413
 20
177.6011111111109
 30
0.0
  0
ENDBLK
  5
517
330
50D
100
AcDbEntity
  8
0
100
AcDbBlockEnd
  0
BLOCK
  5
51A
330
519
100
AcDbEntity
  8
0
100
AcDbBlockBegin
  2
_D_2
 70
     0
 10
0.0
 20
0.0
 30
0.0
  3
_D_2
  1
_D_2
  0
LINE
  5
51B
330
519
100
AcDbEntity
  8
0
  6
Continuous
 62
     0
370
    -2
100
AcDbLine
 10
62.0519444444444
 20
184.601111111111
 30
0.0
 11
41.33228540544132
 21
184.6011111111109
 31
0.0
  0
LINE
  5
51C
330
519
100
AcDbEntity
  8
0
  6
Continuous
 62
     0
370
    -2
100
AcDbLine
 10
79.2519444444444
 20
192.601111111111
 30
0.0
 11
41.33228540544129
 21
192.6011111111109
 31
0.0
  0
LINE
  5
51D
330
519
100
AcDbEntity
  8
0
  6
Continuous
 62
     0
370
    -2
100
AcDbLine
 10
41.33228540544133
 20
181.4011111111109
 30
0.0
 11
41.33228540544135
 21
178.2011111111109
 31
0.0
  0
LINE
  5
51E
330
519
100
AcDbEntity
  8
0
  6
Continuous
 62
     0
370
    -2
100
AcDbLine
 10
41.33228540544128
 20
195.8011111111109
 30
0.0
 11
41.33228540544126
 21
199.0011111111109
 31
0.0
  0
SOLID
  5
51F
330
519
100
AcDbEntity
  8
0
 62
     0
100
AcDbTrace
 10
41.86561873877466
 20
181.4011111111109
 30
0.0
 11
40.798952072108
 21
181.4011111111109
 31
0.0
 12
41.33228540544132
 22
184.6011111111109
 32
0.0
 13
41.33228540544132
 23
184.6011111111109
 33
0.0
  0
SOLID
  5
520
330
519
100
AcDbEntity
  8
0
 62
     0
100
AcDbTrace
 10
40.79895207210794
 20
195.8011111111109
 30
0.0
 11
41.86561873877461
 21
195.8011111111109
 31
0.0
 12
41.33228540544129
 22
192.6011111111109
 32
0.0
 13
41.33228540544129
 23
192.6011111111109
 33
0.0
  0
MTEXT
  5
6F0
330
519
100
AcDbEntity
  8
0
 62
     0
370
     0
100
AcDbMText
 10
37.33228540544131
 20
188.2402295786181
 30
0.0
 40
3.2
 41
0.0
 71
     2
 72
     1
  1
\A1;8
  7
SLDTEXTSTYLE4
 11
-3.552713678800514E-15
 21
1.0
 31
0.0
 73
     1
 44
1.0
  0
POINT
  5
6F1
330
519
100
AcDbEntity
  8
Defpoints
 62
     0
100
AcDbPoint
 10
62.1144444444444
 20
184.601111111111
 30
0.0
  0
POINT
  5
6F2
330
519
100
AcDbEntity
  8
Defpoints
 62
     0
100
AcDbPoint
 10
79.3144444444444
 20
192.601111111111
 30
0.0
  0
POINT
  5
6F3
330
519
100
AcDbEntity
  8
Defpoints
 62
     0
100
AcDbPoint
 10
41.3322854054413
 20
192.6011111111109
 30
0.0
  0
ENDBLK
  5
521
330
519
100
AcDbEntity
  8
0
100
AcDbBlockEnd
  0
BLOCK
  5
524
330
523
100
AcDbEntity
  8
0
100
AcDbBlockBegin
  2
_D_3
 70
     0
 10
0.0
 20
0.0
 30
0.0
  3
_D_3
  1
_D_3
  0
LINE
  5
525
330
523
100
AcDbEntity
  8
0
  6
Continuous
 62
     0
370
    -2
100
AcDbLine
 10
79.2519444444444
 20
192.601111111111
 30
0.0
 11
41.33228540544133
 21
192.6011111111109
 31
0.0
  0
LINE
  5
526
330
523
100
AcDbEntity
  8
0
  6
Continuous
 62
     0
370
    -2
100
AcDbLine
 10
83.25194444444442
 20
199.601111111111
 30
0.0
 11
41.33228540544131
 21
199.6011111111109
 31
0.0
  0
LINE
  5
527
330
523
100
AcDbEntity
  8
0
  6
Continuous
 62
     0
370
    -2
100
AcDbLine
 10
41.33228540544133
 20
195.8011111111109
 30
0.0
 11
41.33228540544132
 21
196.4011111111109
 31
0.0
  0
SOLID
  5
528
330
523
100
AcDbEntity
  8
0
 62
     0
100
AcDbTrace
 10
40.79895207210799
 20
195.8011111111109
 30
0.0
 11
41.86561873877466
 21
195.8011111111109
 31
0.0
 12
41.33228540544133
 22
192.6011111111109
 32
0.0
 13
41.33228540544133
 23
192.6011111111109
 33
0.0
  0
SOLID
  5
529
330
523
100
AcDbEntity
  8
0
 62
     0
100
AcDbTrace
 10
41.86561873877465
 20
196.4011111111109
 30
0.0
 11
40.79895207210799
 21
196.4011111111109
 31
0.0
 12
41.33228540544131
 22
199.6011111111109
 32
0.0
 13
41.33228540544131
 23
199.6011111111109
 33
0.0
  0
MTEXT
  5
52A
330
523
100
AcDbEntity
  8
0
 62
     0
370
     0
100
AcDbMText
 10
37.33228540544133
 20
197.0712238033691
 30
0.0
 40
3.2
 41
0.0
 71
     2
 72
     1
  1
\A1;7
  7
SLDTEXTSTYLE4
 11
-3.045183153257585E-15
 21
1.0
 31
0.0
 73
     1
 44
1.0
  0
POINT
  5
52B
330
523
100
AcDbEntity
  8
Defpoints
 62
     0
100
AcDbPoint
 10
79.3144444444444
 20
192.601111111111
 30
0.0
  0
POINT
  5
52C
330
523
100
AcDbEntity
  8
Defpoints
 62
     0
100
AcDbPoint
 10
83.31444444444442
 20
199.601111111111
 30
0.0
  0
POINT
  5
6F4
330
523
100
AcDbEntity
  8
Defpoints
 62
     0
100
AcDbPoint
 10
41.33228540544132
 20
199.6011111111109
 30
0.0
  0
ENDBLK
  5
52D
330
523
100
AcDbEntity
  8
0
100
AcDbBlockEnd
  0
BLOCK
  5
530
330
52F
100
AcDbEntity
  8
0
100
AcDbBlockBegin
  2
_D_4
 70
     0
 10
0.0
 20
0.0
 30
0.0
  3
_D_4
  1
_D_4
  0
LINE
  5
531
330
52F
100
AcDbEntity
  8
0
  6
Continuous
 62
     0
370
    -2
100
AcDbLine
 10
130.3144444444444
 20
199.663611111111
 30
0.0
 11
130.3144444444444
 21
206.4376979119887
 31
0.0
  0
LINE
  5
532
330
52F
100
AcDbEntity
  8
0
  6
Continuous
 62
     0
370
    -2
100
AcDbLine
 10
136.3144444444444
 20
199.663611111111
 30
0.0
 11
136.3144444444444
 21
206.4376979119887
 31
0.0
  0
LINE
  5
533
330
52F
100
AcDbEntity
  8
0
  6
Continuous
 62
     0
370
    -2
100
AcDbLine
 10
136.3144444444444
 20
206.4376979119887
 30
0.0
 11
168.3144444444444
 21
206.4376979119887
 31
0.0
  0
LINE
  5
534
330
52F
100
AcDbEntity
  8
0
  6
Continuous
 62
     0
370
    -2
100
AcDbLine
 10
130.3144444444444
 20
206.4376979119887
 30
0.0
 11
136.3144444444444
 21
206.4376979119887
 31
0.0
  0
LINE
  5
535
330
52F
100
AcDbEntity
  8
0
  6
Continuous
 62
     0
370
    -2
100
AcDbLine
 10
127.1144444444444
 20
206.4376979119887
 30
0.0
 11
123.9144444444444
 21
206.4376979119887
 31
0.0
  0
LINE
  5
536
330
52F
100
AcDbEntity
  8
0
  6
Continuous
 62
     0
370
    -2
100
AcDbLine
 10
139.5144444444444
 20
206.4376979119887
 30
0.0
 11
142.7144444444444
 21
206.4376979119887
 31
0.0
  0
SOLID
  5
537
330
52F
100
AcDbEntity
  8
0
 62
     0
100
AcDbTrace
 10
127.1144444444444
 20
205.9043645786554
 30
0.0
 11
127.1144444444444
 21
206.971031245322
 31
0.0
 12
130.3144444444444
 22
206.4376979119887
 32
0.0
 13
130.3144444444444
 23
206.4376979119887
 33
0.0
  0
SOLID
  5
538
330
52F
100
AcDbEntity
  8
0
 62
     0
100
AcDbTrace
 10
139.5144444444444
 20
206.971031245322
 30
0.0
 11
139.5144444444444
 21
205.9043645786554
 31
0.0
 12
136.3144444444444
 22
206.4376979119887
 32
0.0
 13
136.3144444444444
 23
206.4376979119887
 33
0.0
  0
MTEXT
  5
6F5
330
52F
100
AcDbEntity
  8
0
 62
     0
370
     0
100
AcDbMText
 10
155.5144444444444
 20
210.4376979119887
 30
0.0
 40
3.2
 41
0.0
 71
     2
 72
     1
  1
\A1;M6 N°2 FORI
  7
SLDTEXTSTYLE4
 73
     1
 44
1.0
  0
POINT
  5
6F6
330
52F
100
AcDbEntity
  8
Defpoints
 62
     0
100
AcDbPoint
 10
130.3144444444444
 20
199.601111111111
 30
0.0
  0
POINT
  5
6F7
330
52F
100
AcDbEntity
  8
Defpoints
 62
     0
100
AcDbPoint
 10
136.3144444444444
 20
199.601111111111
 30
0.0
  0
POINT
  5
6F8
330
52F
100
AcDbEntity
  8
Defpoints
 62
     0
100
AcDbPoint
 10
136.3144444444444
 20
206.4376979119887
 30
0.0
  0
ENDBLK
  5
539
330
52F
100
AcDbEntity
  8
0
100
AcDbBlockEnd
  0
BLOCK
  5
53C
330
53B
100
AcDbEntity
  8
0
100
AcDbBlockBegin
  2
_D_5
 70
     0
 10
0.0
 20
0.0
 30
0.0
  3
_D_5
  1
_D_5
  0
LINE
  5
53D
330
53B
100
AcDbEntity
  8
0
  6
Continuous
 62
     0
370
    -2
100
AcDbLine
 10
123.6144444444444
 20
192.663611111111
 30
0.0
 11
123.6144444444444
 21
212.4658381089669
 31
0.0
  0
LINE
  5
53E
330
53B
100
AcDbEntity
  8
0
  6
Continuous
 62
     0
370
    -2
100
AcDbLine
 10
133.3144444444444
 20
201.663611111111
 30
0.0
 11
133.3144444444444
 21
212.4658381089669
 31
0.0
  0
LINE
  5
53F
330
53B
100
AcDbEntity
  8
0
  6
Continuous
 62
     0
370
    -2
100
AcDbLine
 10
126.8144444444444
 20
212.4658381089669
 30
0.0
 11
130.1144444444444
 21
212.4658381089669
 31
0.0
  0
SOLID
  5
540
330
53B
100
AcDbEntity
  8
0
 62
     0
100
AcDbTrace
 10
126.8144444444444
 20
212.9991714423002
 30
0.0
 11
126.8144444444444
 21
211.9325047756335
 31
0.0
 12
123.6144444444444
 22
212.4658381089669
 32
0.0
 13
123.6144444444444
 23
212.4658381089669
 33
0.0
  0
SOLID
  5
541
330
53B
100
AcDbEntity
  8
0
 62
     0
100
AcDbTrace
 10
130.1144444444444
 20
211.9325047756335
 30
0.0
 11
130.1144444444444
 21
212.9991714423002
 31
0.0
 12
133.3144444444444
 22
212.4658381089669
 32
0.0
 13
133.3144444444444
 23
212.4658381089669
 33
0.0
  0
MTEXT
  5
542
330
53B
100
AcDbEntity
  8
0
 62
     0
370
     0
100
AcDbMText
 10
128.5619250613116
 20
216.4658381089669
 30
0.0
 40
3.2
 41
0.0
 71
     2
 72
     1
  1
\A1;9.7
  7
SLDTEXTSTYLE4
 73
     1
 44
1.0
  0
POINT
  5
543
330
53B
100
AcDbEntity
  8
Defpoints
 62
     0
100
AcDbPoint
 10
123.6144444444444
 20
192.601111111111
 30
0.0
  0
POINT
  5
544
330
53B
100
AcDbEntity
  8
Defpoints
 62
     0
100
AcDbPoint
 10
133.3144444444444
 20
201.601111111111
 30
0.0
  0
POINT
  5
6F9
330
53B
100
AcDbEntity
  8
Defpoints
 62
     0
100
AcDbPoint
 10
133.3144444444444
 20
212.4658381089669
 30
0.0
  0
ENDBLK
  5
545
330
53B
100
AcDbEntity
  8
0
100
AcDbBlockEnd
  0
BLOCK
  5
548
330
547
100
AcDbEntity
  8
0
100
AcDbBlockBegin
  2
_D_6
 70
     0
 10
0.0
 20
0.0
 30
0.0
  3
_D_6
  1
_D_6
  0
LINE
  5
549
330
547
100
AcDbEntity
  8
0
  6
Continuous
 62
     0
370
    -2
100
AcDbLine
 10
133.3144444444444
 20
190.538611111111
 30
0.0
 11
133.3144444444444
 21
161.601111111111
 31
0.0
  0
LINE
  5
54A
330
547
100
AcDbEntity
  8
0
  6
Continuous
 62
     0
370
    -2
100
AcDbLine
 10
72.1144444444444
 20
175.538611111111
 30
0.0
 11
72.1144444444444
 21
161.601111111111
 31
0.0
  0
LINE
  5
54B
330
547
100
AcDbEntity
  8
0
  6
Continuous
 62
     0
370
    -2
100
AcDbLine
 10
130.1144444444444
 20
161.601111111111
 30
0.0
 11
75.3144444444444
 21
161.601111111111
 31
0.0
  0
SOLID
  5
54C
330
547
100
AcDbEntity
  8
0
 62
     0
100
AcDbTrace
 10
130.1144444444444
 20
161.0677777777776
 30
0.0
 11
130.1144444444444
 21
162.1344444444443
 31
0.0
 12
133.3144444444444
 22
161.601111111111
 32
0.0
 13
133.3144444444444
 23
161.601111111111
 33
0.0
  0
SOLID
  5
54D
330
547
100
AcDbEntity
  8
0
 62
     0
100
AcDbTrace
 10
75.3144444444444
 20
162.1344444444443
 30
0.0
 11
75.3144444444444
 21
161.0677777777776
 31
0.0
 12
72.1144444444444
 22
161.601111111111
 32
0.0
 13
72.1144444444444
 23
161.601111111111
 33
0.0
  0
MTEXT
  5
54E
330
547
100
AcDbEntity
  8
0
 62
     0
370
     0
100
AcDbMText
 10
103.3760387670549
 20
165.601111111111
 30
0.0
 40
3.2
 41
0.0
 71
     2
 72
     1
  1
\A1;61.2
  7
SLDTEXTSTYLE4
 73
     1
 44
1.0
  0
POINT
  5
6FA
330
547
100
AcDbEntity
  8
Defpoints
 62
     0
100
AcDbPoint
 10
133.3144444444444
 20
190.601111111111
 30
0.0
  0
POINT
  5
6FB
330
547
100
AcDbEntity
  8
Defpoints
 62
     0
100
AcDbPoint
 10
72.1144444444444
 20
175.601111111111
 30
0.0
  0
POINT
  5
6FC
330
547
100
AcDbEntity
  8
Defpoints
 62
     0
100
AcDbPoint
 10
72.1144444444444
 20
161.601111111111
 30
0.0
  0
ENDBLK
  5
54F
330
547
100
AcDbEntity
  8
0
100
AcDbBlockEnd
  0
BLOCK
  5
552
330
551
100
AcDbEntity
  8
0
100
AcDbBlockBegin
  2
_D_7
 70
     0
 10
0.0
 20
0.0
 30
0.0
  3
_D_7
  1
_D_7
  0
LINE
  5
553
330
551
100
AcDbEntity
  8
0
  6
Continuous
 62
     0
370
    -2
100
AcDbLine
 10
81.8144444444444
 20
184.538611111111
 30
0.0
 11
81.8144444444444
 21
168.8129222400706
 31
0.0
  0
LINE
  5
554
330
551
100
AcDbEntity
  8
0
  6
Continuous
 62
     0
370
    -2
100
AcDbLine
 10
72.1144444444444
 20
184.013611111111
 30
0.0
 11
72.1144444444444
 21
168.8129222400706
 31
0.0
  0
LINE
  5
555
330
551
100
AcDbEntity
  8
0
  6
Continuous
 62
     0
370
    -2
100
AcDbLine
 10
78.6144444444444
 20
168.8129222400706
 30
0.0
 11
75.3144444444444
 21
168.8129222400706
 31
0.0
  0
SOLID
  5
556
330
551
100
AcDbEntity
  8
0
 62
     0
100
AcDbTrace
 10
78.6144444444444
 20
168.2795889067372
 30
0.0
 11
78.6144444444444
 21
169.3462555734039
 31
0.0
 12
81.8144444444444
 22
168.8129222400706
 32
0.0
 13
81.8144444444444
 23
168.8129222400706
 33
0.0
  0
SOLID
  5
557
330
551
100
AcDbEntity
  8
0
 62
     0
100
AcDbTrace
 10
75.3144444444444
 20
169.3462555734039
 30
0.0
 11
75.3144444444444
 21
168.2795889067372
 31
0.0
 12
72.1144444444444
 22
168.8129222400706
 32
0.0
 13
72.1144444444444
 23
168.8129222400706
 33
0.0
  0
MTEXT
  5
558
330
551
100
AcDbEntity
  8
0
 62
     0
370
     0
100
AcDbMText
 10
77.11764643441151
 20
172.8129222400706
 30
0.0
 40
3.2
 41
0.0
 71
     2
 72
     1
  1
\A1;9.7
  7
SLDTEXTSTYLE4
 73
     1
 44
1.0
  0
POINT
  5
559
330
551
100
AcDbEntity
  8
Defpoints
 62
     0
100
AcDbPoint
 10
81.8144444444444
 20
184.601111111111
 30
0.0
  0
POINT
  5
55A
330
551
100
AcDbEntity
  8
Defpoints
 62
     0
100
AcDbPoint
 10
72.1144444444444
 20
184.076111111111
 30
0.0
  0
POINT
  5
6FD
330
551
100
AcDbEntity
  8
Defpoints
 62
     0
100
AcDbPoint
 10
72.1144444444444
 20
168.8129222400706
 30
0.0
  0
ENDBLK
  5
55B
330
551
100
AcDbEntity
  8
0
100
AcDbBlockEnd
  0
BLOCK
  5
55E
330
55D
100
AcDbEntity
  8
0
100
AcDbBlockBegin
  2
_D_8
 70
     0
 10
0.0
 20
0.0
 30
0.0
  3
_D_8
  1
_D_8
  0
LINE
  5
55F
330
55D
100
AcDbEntity
  8
0
  6
Continuous
 62
     0
370
    -2
100
AcDbLine
 10
81.8144444444444
 20
184.538611111111
 30
0.0
 11
81.8144444444444
 21
168.8129222400706
 31
0.0
  0
LINE
  5
560
330
55D
100
AcDbEntity
  8
0
  6
Continuous
 62
     0
370
    -2
100
AcDbLine
 10
123.6144444444444
 20
184.538611111111
 30
0.0
 11
123.6144444444444
 21
168.8129222400706
 31
0.0
  0
LINE
  5
561
330
55D
100
AcDbEntity
  8
0
  6
Continuous
 62
     0
370
    -2
100
AcDbLine
 10
85.01444444444441
 20
168.8129222400706
 30
0.0
 11
120.4144444444444
 21
168.8129222400706
 31
0.0
  0
SOLID
  5
562
330
55D
100
AcDbEntity
  8
0
 62
     0
100
AcDbTrace
 10
85.01444444444441
 20
169.3462555734039
 30
0.0
 11
85.01444444444441
 21
168.2795889067373
 31
0.0
 12
81.8144444444444
 22
168.8129222400706
 32
0.0
 13
81.8144444444444
 23
168.8129222400706
 33
0.0
  0
SOLID
  5
563
330
55D
100
AcDbEntity
  8
0
 62
     0
100
AcDbTrace
 10
120.4144444444444
 20
168.2795889067373
 30
0.0
 11
120.4144444444444
 21
169.3462555734039
 31
0.0
 12
123.6144444444444
 22
168.8129222400706
 32
0.0
 13
123.6144444444444
 23
168.8129222400706
 33
0.0
  0
MTEXT
  5
564
330
55D
100
AcDbEntity
  8
0
 62
     0
370
     0
100
AcDbMText
 10
103.3760387670549
 20
172.8129222400706
 30
0.0
 40
3.2
 41
0.0
 71
     2
 72
     1
  1
\A1;41.8
  7
SLDTEXTSTYLE4
 73
     1
 44
1.0
  0
POINT
  5
6FE
330
55D
100
AcDbEntity
  8
Defpoints
 62
     0
100
AcDbPoint
 10
81.8144444444444
 20
184.601111111111
 30
0.0
  0
POINT
  5
6FF
330
55D
100
AcDbEntity
  8
Defpoints
 62
     0
100
AcDbPoint
 10
123.6144444444444
 20
184.601111111111
 30
0.0
  0
POINT
  5
700
330
55D
100
AcDbEntity
  8
Defpoints
 62
     0
100
AcDbPoint
 10
123.6144444444444
 20
168.8129222400706
 30
0.0
  0
ENDBLK
  5
565
330
55D
100
AcDbEntity
  8
0
100
AcDbBlockEnd
  0
BLOCK
  5
568
330
567
100
AcDbEntity
  8
0
100
AcDbBlockBegin
  2
_D_9
 70
     0
 10
0.0
 20
0.0
 30
0.0
  3
_D_9
  1
_D_9
  0
LINE
  5
569
330
567
100
AcDbEntity
  8
0
  6
Continuous
 62
     0
370
    -2
100
AcDbLine
 10
87.31444444444439
 20
188.663611111111
 30
0.0
 11
87.31444444444439
 21
219.6169414111202
 31
0.0
  0
LINE
  5
56A
330
567
100
AcDbEntity
  8
0
  6
Continuous
 62
     0
370
    -2
100
AcDbLine
 10
108.3144444444444
 20
188.663611111111
 30
0.0
 11
108.3144444444444
 21
219.6169414111202
 31
0.0
  0
LINE
  5
56B
330
567
100
AcDbEntity
  8
0
  6
Continuous
 62
     0
370
    -2
100
AcDbLine
 10
90.5144444444444
 20
219.6169414111202
 30
0.0
 11
105.1144444444444
 21
219.6169414111202
 31
0.0
  0
SOLID
  5
56C
330
567
100
AcDbEntity
  8
0
 62
     0
100
AcDbTrace
 10
90.5144444444444
 20
220.1502747444535
 30
0.0
 11
90.5144444444444
 21
219.0836080777869
 31
0.0
 12
87.31444444444439
 22
219.6169414111202
 32
0.0
 13
87.31444444444439
 23
219.6169414111202
 33
0.0
  0
SOLID
  5
56D
330
567
100
AcDbEntity
  8
0
 62
     0
100
AcDbTrace
 10
105.1144444444444
 20
219.0836080777869
 30
0.0
 11
105.1144444444444
 21
220.1502747444535
 31
0.0
 12
108.3144444444444
 22
219.6169414111202
 32
0.0
 13
108.3144444444444
 23
219.6169414111202
 33
0.0
  0
MTEXT
  5
56E
330
567
100
AcDbEntity
  8
0
 62
     0
370
     0
100
AcDbMText
 10
98.50408806752273
 20
223.6169414111202
 30
0.0
 40
3.2
 41
0.0
 71
     2
 72
     1
  1
\A1;21
  7
SLDTEXTSTYLE4
 73
     1
 44
1.0
  0
POINT
  5
701
330
567
100
AcDbEntity
  8
Defpoints
 62
     0
100
AcDbPoint
 10
87.31444444444439
 20
188.601111111111
 30
0.0
  0
POINT
  5
702
330
567
100
AcDbEntity
  8
Defpoints
 62
     0
100
AcDbPoint
 10
108.3144444444444
 20
188.601111111111
 30
0.0
  0
POINT
  5
703
330
567
100
AcDbEntity
  8
Defpoints
 62
     0
100
AcDbPoint
 10
108.3144444444444
 20
219.6169414111202
 30
0.0
  0
ENDBLK
  5
56F
330
567
100
AcDbEntity
  8
0
100
AcDbBlockEnd
  0
BLOCK
  5
572
330
571
100
AcDbEntity
  8
0
100
AcDbBlockBegin
  2
_D_10
 70
     0
 10
0.0
 20
0.0
 30
0.0
  3
_D_10
  1
_D_10
  0
LINE
  5
573
330
571
100
AcDbEntity
  8
0
  6
Continuous
 62
     0
370
    -2
100
AcDbLine
 10
89.4144444444444
 20
188.663611111111
 30
0.0
 11
89.4144444444444
 21
203.6170314502493
 31
0.0
  0
LINE
  5
574
330
571
100
AcDbEntity
  8
0
  6
Continuous
 62
     0
370
    -2
100
AcDbLine
 10
106.2144444444444
 20
188.663611111111
 30
0.0
 11
106.2144444444444
 21
203.6170314502493
 31
0.0
  0
LINE
  5
575
330
571
100
AcDbEntity
  8
0
  6
Continuous
 62
     0
370
    -2
100
AcDbLine
 10
92.6144444444444
 20
203.6170314502493
 30
0.0
 11
103.0144444444444
 21
203.6170314502493
 31
0.0
  0
SOLID
  5
576
330
571
100
AcDbEntity
  8
0
 62
     0
100
AcDbTrace
 10
92.6144444444444
 20
204.1503647835827
 30
0.0
 11
92.6144444444444
 21
203.083698116916
 31
0.0
 12
89.4144444444444
 22
203.6170314502493
 32
0.0
 13
89.4144444444444
 23
203.6170314502493
 33
0.0
  0
SOLID
  5
577
330
571
100
AcDbEntity
  8
0
 62
     0
100
AcDbTrace
 10
103.0144444444444
 20
203.083698116916
 30
0.0
 11
103.0144444444444
 21
204.1503647835827
 31
0.0
 12
106.2144444444444
 22
203.6170314502493
 32
0.0
 13
106.2144444444444
 23
203.6170314502493
 33
0.0
  0
MTEXT
  5
578
330
571
100
AcDbEntity
  8
0
 62
     0
370
     0
100
AcDbMText
 10
98.50408806752273
 20
207.6170314502493
 30
0.0
 40
3.2
 41
0.0
 71
     2
 72
     1
  1
\A1;16.8
  7
SLDTEXTSTYLE4
 73
     1
 44
1.0
  0
POINT
  5
579
330
571
100
AcDbEntity
  8
Defpoints
 62
     0
100
AcDbPoint
 10
89.4144444444444
 20
188.601111111111
 30
0.0
  0
POINT
  5
57A
330
571
100
AcDbEntity
  8
Defpoints
 62
     0
100
AcDbPoint
 10
106.2144444444444
 20
188.601111111111
 30
0.0
  0
POINT
  5
704
330
571
100
AcDbEntity
  8
Defpoints
 62
     0
100
AcDbPoint
 10
106.2144444444444
 20
203.6170314502493
 30
0.0
  0
ENDBLK
  5
57B
330
571
100
AcDbEntity
  8
0
100
AcDbBlockEnd
  0
BLOCK
  5
57E
330
57D
100
AcDbEntity
  8
0
100
AcDbBlockBegin
  2
_D_11
 70
     0
 10
0.0
 20
0.0
 30
0.0
  3
_D_11
  1
_D_11
  0
LINE
  5
57F
330
57D
100
AcDbEntity
  8
0
  6
Continuous
 62
     0
370
    -2
100
AcDbLine
 10
117.8276525022166
 20
176.7181816532713
 30
0.0
 11
111.7023739022839
 21
176.7181816532713
 31
0.0
  0
LINE
  5
580
330
57D
100
AcDbEntity
  8
0
  6
Continuous
 62
     0
370
    -2
100
AcDbLine
 10
111.7023739022839
 20
176.7181816532713
 30
0.0
 11
109.4396322024869
 21
178.9809233530682
 31
0.0
  0
MTEXT
  5
581
330
57D
100
AcDbEntity
  8
0
 62
     0
370
     0
100
AcDbMText
 10
118.6276525022166
 20
178.3181816532713
 30
0.0
 40
3.2
 41
0.0
 71
     1
 72
     1
  1
\A1;R10.41
  7
SLDTEXTSTYLE4
 73
     1
 44
1.0
  0
SOLID
  5
582
330
57D
100
AcDbEntity
  8
0
 62
     0
100
AcDbTrace
 10
109.8167558191197
 20
179.3580469697011
 30
0.0
 11
109.0625085858541
 21
178.6037997364354
 31
0.0
 12
107.17689050269
 22
181.2436650528652
 32
0.0
 13
107.17689050269
 23
181.2436650528652
 33
0.0
  0
POINT
  5
583
330
57D
100
AcDbEntity
  8
Defpoints
 62
     0
100
AcDbPoint
 10
107.17689050269
 20
181.2436650528652
 30
0.0
  0
POINT
  5
584
330
57D
100
AcDbEntity
  8
Defpoints
 62
     0
100
AcDbPoint
 10
99.81944444444414
 20
188.601111111111
 30
0.0
  0
ENDBLK
  5
585
330
57D
100
AcDbEntity
  8
0
100
AcDbBlockEnd
  0
BLOCK
  5
588
330
587
100
AcDbEntity
  8
0
100
AcDbBlockBegin
  2
_D_12
 70
     0
 10
0.0
 20
0.0
 30
0.0
  3
_D_12
  1
_D_12
  0
LINE
  5
589
330
587
100
AcDbEntity
  8
0
  6
Continuous
 62
     0
370
    -2
100
AcDbLine
 10
110.9793095463143
 20
192.665864214446
 30
0.0
 11
119.2166645157044
 21
194.8730568262626
 31
0.0
  0
MTEXT
  5
58A
330
587
100
AcDbEntity
  8
0
 62
     0
370
     0
100
AcDbMText
 10
120.0166645157044
 20
196.4730568262626
 30
0.0
 40
3.2
 41
0.0
 71
     1
 72
     1
  1
\A1;R12.51
  7
SLDTEXTSTYLE4
 73
     1
 44
1.0
  0
SOLID
  5
58B
330
587
100
AcDbEntity
  8
0
 62
     0
100
AcDbTrace
 10
110.8412727222596
 20
193.1810246551335
 30
0.0
 11
111.1173463703689
 21
192.1507037737585
 31
0.0
 12
107.8883469021892
 22
191.837643270118
 32
0.0
 13
107.8883469021892
 23
191.837643270118
 33
0.0
  0
POINT
  5
58C
330
587
100
AcDbEntity
  8
Defpoints
 62
     0
100
AcDbPoint
 10
107.8883469021892
 20
191.837643270118
 30
0.0
  0
POINT
  5
58D
330
587
100
AcDbEntity
  8
Defpoints
 62
     0
100
AcDbPoint
 10
95.8094444444447
 20
188.601111111111
 30
0.0
  0
ENDBLK
  5
58E
330
587
100
AcDbEntity
  8
0
100
AcDbBlockEnd
  0
BLOCK
  5
5C2
330
5C1
100
AcDbEntity
  8
0
100
AcDbBlockBegin
  2
_D_13
 70
     0
 10
0.0
 20
0.0
 30
0.0
  3
_D_13
  1
_D_13
  0
LINE
  5
5C3
330
5C1
100
AcDbEntity
  8
0
  6
Continuous
 62
     0
370
    -2
100
AcDbLine
 10
180.1551201671876
 20
193.501111111111
 30
0.0
 11
192.9612597143071
 21
193.5011111111111
 31
0.0
  0
LINE
  5
5C4
330
5C1
100
AcDbEntity
  8
0
  6
Continuous
 62
     0
370
    -2
100
AcDbLine
 10
180.1551201671876
 20
183.701111111111
 30
0.0
 11
192.9612597143071
 21
183.7011111111111
 31
0.0
  0
LINE
  5
5C5
330
5C1
100
AcDbEntity
  8
0
  6
Continuous
 62
     0
370
    -2
100
AcDbLine
 10
192.9612597143071
 20
190.3011111111111
 30
0.0
 11
192.9612597143071
 21
186.9011111111111
 31
0.0
  0
SOLID
  5
5C6
330
5C1
100
AcDbEntity
  8
0
 62
     0
100
AcDbTrace
 10
193.4945930476404
 20
190.3011111111111
 30
0.0
 11
192.4279263809737
 21
190.3011111111111
 31
0.0
 12
192.9612597143071
 22
193.5011111111111
 32
0.0
 13
192.9612597143071
 23
193.5011111111111
 33
0.0
  0
SOLID
  5
5C7
330
5C1
100
AcDbEntity
  8
0
 62
     0
100
AcDbTrace
 10
192.4279263809738
 20
186.9011111111111
 30
0.0
 11
193.4945930476404
 21
186.9011111111111
 31
0.0
 12
192.9612597143071
 22
183.7011111111111
 32
0.0
 13
192.9612597143071
 23
183.7011111111111
 33
0.0
  0
MTEXT
  5
5C8
330
5C1
100
AcDbEntity
  8
0
 62
     0
370
     0
100
AcDbMText
 10
188.9612597143071
 20
188.6159410665055
 30
0.0
 40
3.2
 41
0.0
 71
     2
 72
     1
  1
\A1;9.8
  7
SLDTEXTSTYLE4
 11
-2.900174431673884E-15
 21
1.0
 31
0.0
 73
     1
 44
1.0
  0
POINT
  5
5C9
330
5C1
100
AcDbEntity
  8
Defpoints
 62
     0
100
AcDbPoint
 10
180.0926201671876
 20
193.501111111111
 30
0.0
  0
POINT
  5
5CA
330
5C1
100
AcDbEntity
  8
Defpoints
 62
     0
100
AcDbPoint
 10
180.0926201671876
 20
183.701111111111
 30
0.0
  0
POINT
  5
705
330
5C1
100
AcDbEntity
  8
Defpoints
 62
     0
100
AcDbPoint
 10
192.9612597143071
 20
183.7011111111111
 30
0.0
  0
ENDBLK
  5
5CB
330
5C1
100
AcDbEntity
  8
0
100
AcDbBlockEnd
  0
BLOCK
  5
5CE
330
5CD
100
AcDbEntity
  8
0
100
AcDbBlockBegin
  2
_D_14
 70
     0
 10
0.0
 20
0.0
 30
0.0
  3
_D_14
  1
_D_14
  0
LINE
  5
5CF
330
5CD
100
AcDbEntity
  8
0
  6
Continuous
 62
     0
370
    -2
100
AcDbLine
 10
176.1551201671876
 20
191.226467339477
 30
0.0
 11
185.5913538540892
 21
191.226467339477
 31
0.0
  0
LINE
  5
5D0
330
5CD
100
AcDbEntity
  8
0
  6
Continuous
 62
     0
370
    -2
100
AcDbLine
 10
176.1551201671876
 20
185.9757548827451
 30
0.0
 11
185.5913538540892
 21
185.9757548827451
 31
0.0
  0
LINE
  5
5D1
330
5CD
100
AcDbEntity
  8
0
  6
Continuous
 62
     0
370
    -2
100
AcDbLine
 10
185.5913538540892
 20
191.226467339477
 30
0.0
 11
185.5913538540891
 21
206.426467339477
 31
0.0
  0
LINE
  5
5D2
330
5CD
100
AcDbEntity
  8
0
  6
Continuous
 62
     0
370
    -2
100
AcDbLine
 10
185.5913538540892
 20
191.226467339477
 30
0.0
 11
185.5913538540892
 21
185.9757548827451
 31
0.0
  0
LINE
  5
5D3
330
5CD
100
AcDbEntity
  8
0
  6
Continuous
 62
     0
370
    -2
100
AcDbLine
 10
185.5913538540892
 20
194.426467339477
 30
0.0
 11
185.5913538540891
 21
197.626467339477
 31
0.0
  0
LINE
  5
5D4
330
5CD
100
AcDbEntity
  8
0
  6
Continuous
 62
     0
370
    -2
100
AcDbLine
 10
185.5913538540892
 20
182.7757548827451
 30
0.0
 11
185.5913538540893
 21
179.5757548827451
 31
0.0
  0
SOLID
  5
5D5
330
5CD
100
AcDbEntity
  8
0
 62
     0
100
AcDbTrace
 10
185.0580205207558
 20
194.426467339477
 30
0.0
 11
186.1246871874225
 21
194.426467339477
 31
0.0
 12
185.5913538540892
 22
191.226467339477
 32
0.0
 13
185.5913538540892
 23
191.226467339477
 33
0.0
  0
SOLID
  5
5D6
330
5CD
100
AcDbEntity
  8
0
 62
     0
100
AcDbTrace
 10
186.1246871874226
 20
182.7757548827451
 30
0.0
 11
185.0580205207559
 21
182.7757548827451
 31
0.0
 12
185.5913538540892
 22
185.9757548827451
 32
0.0
 13
185.5913538540892
 23
185.9757548827451
 33
0.0
  0
MTEXT
  5
706
330
5CD
100
AcDbEntity
  8
0
 62
     0
370
     0
100
AcDbMText
 10
181.5913538540891
 20
202.026467339477
 30
0.0
 40
3.2
 41
0.0
 71
     2
 72
     1
  1
\A1;5.25
  7
SLDTEXTSTYLE4
 11
-5.412924372570553E-15
 21
1.0
 31
0.0
 73
     1
 44
1.0
  0
POINT
  5
707
330
5CD
100
AcDbEntity
  8
Defpoints
 62
     0
100
AcDbPoint
 10
176.0926201671876
 20
191.226467339477
 30
0.0
  0
POINT
  5
708
330
5CD
100
AcDbEntity
  8
Defpoints
 62
     0
100
AcDbPoint
 10
176.0926201671876
 20
185.9757548827451
 30
0.0
  0
POINT
  5
709
330
5CD
100
AcDbEntity
  8
Defpoints
 62
     0
100
AcDbPoint
 10
185.5913538540891
 20
185.9757548827451
 30
0.0
  0
ENDBLK
  5
5D7
330
5CD
100
AcDbEntity
  8
0
100
AcDbBlockEnd
  0
BLOCK
  5
5DA
330
5D9
100
AcDbEntity
  8
0
100
AcDbBlockBegin
  2
_D_15
 70
     0
 10
0.0
 20
0.0
 30
0.0
  3
_D_15
  1
_D_15
  0
LINE
  5
5DB
330
5D9
100
AcDbEntity
  8
0
  6
Continuous
 62
     0
370
    -2
100
AcDbLine
 10
159.0301201671876
 20
185.0848226349334
 30
0.0
 11
154.0971238986713
 21
185.0848226349333
 31
0.0
  0
LINE
  5
5DC
330
5D9
100
AcDbEntity
  8
0
  6
Continuous
 62
     0
370
    -2
100
AcDbLine
 10
159.0301201671876
 20
192.1173995872887
 30
0.0
 11
154.0971238986713
 21
192.1173995872886
 31
0.0
  0
LINE
  5
5DD
330
5D9
100
AcDbEntity
  8
0
  6
Continuous
 62
     0
370
    -2
100
AcDbLine
 10
154.0971238986713
 20
192.1173995872886
 30
0.0
 11
154.0971238986712
 21
206.9173995872887
 31
0.0
  0
LINE
  5
5DE
330
5D9
100
AcDbEntity
  8
0
  6
Continuous
 62
     0
370
    -2
100
AcDbLine
 10
154.0971238986713
 20
185.0848226349333
 30
0.0
 11
154.0971238986713
 21
192.1173995872886
 31
0.0
  0
LINE
  5
5DF
330
5D9
100
AcDbEntity
  8
0
  6
Continuous
 62
     0
370
    -2
100
AcDbLine
 10
154.0971238986713
 20
181.8848226349334
 30
0.0
 11
154.0971238986713
 21
178.6848226349334
 31
0.0
  0
LINE
  5
5E0
330
5D9
100
AcDbEntity
  8
0
  6
Continuous
 62
     0
370
    -2
100
AcDbLine
 10
154.0971238986713
 20
195.3173995872886
 30
0.0
 11
154.0971238986713
 21
198.5173995872886
 31
0.0
  0
SOLID
  5
5E1
330
5D9
100
AcDbEntity
  8
0
 62
     0
100
AcDbTrace
 10
154.6304572320046
 20
181.8848226349334
 30
0.0
 11
153.563790565338
 21
181.8848226349334
 31
0.0
 12
154.0971238986713
 22
185.0848226349333
 32
0.0
 13
154.0971238986713
 23
185.0848226349333
 33
0.0
  0
SOLID
  5
5E2
330
5D9
100
AcDbEntity
  8
0
 62
     0
100
AcDbTrace
 10
153.5637905653379
 20
195.3173995872886
 30
0.0
 11
154.6304572320046
 21
195.3173995872886
 31
0.0
 12
154.0971238986713
 22
192.1173995872886
 32
0.0
 13
154.0971238986713
 23
192.1173995872886
 33
0.0
  0
MTEXT
  5
70A
330
5D9
100
AcDbEntity
  8
0
 62
     0
370
     0
100
AcDbMText
 10
150.0971238986712
 20
202.7173995872887
 30
0.0
 40
3.2
 41
0.0
 71
     2
 72
     1
  1
\A1;7.03
  7
SLDTEXTSTYLE4
 11
-4.041435966212245E-15
 21
1.0
 31
0.0
 73
     1
 44
1.0
  0
POINT
  5
70B
330
5D9
100
AcDbEntity
  8
Defpoints
 62
     0
100
AcDbPoint
 10
159.0926201671876
 20
185.0848226349334
 30
0.0
  0
POINT
  5
70C
330
5D9
100
AcDbEntity
  8
Defpoints
 62
     0
100
AcDbPoint
 10
159.0926201671876
 20
192.1173995872887
 30
0.0
  0
POINT
  5
70D
330
5D9
100
AcDbEntity
  8
Defpoints
 62
     0
100
AcDbPoint
 10
154.0971238986712
 20
192.1173995872886
 30
0.0
  0
ENDBLK
  5
5E3
330
5D9
100
AcDbEntity
  8
0
100
AcDbBlockEnd
  0
BLOCK
  5
60A
330
609
100
AcDbEntity
  8
0
100
AcDbBlockBegin
  2
_D_16
 70
     0
 10
0.0
 20
0.0
 30
0.0
  3
_D_16
  1
_D_16
  0
LINE
  5
60B
330
609
100
AcDbEntity
  8
0
  6
Continuous
 62
     0
370
    -2
100
AcDbLine
 10
62.0519444444444
 20
148.4187098689682
 30
0.0
 11
46.11444444444438
 21
148.4187098689681
 31
0.0
  0
LINE
  5
60C
330
609
100
AcDbEntity
  8
0
  6
Continuous
 62
     0
370
    -2
100
AcDbLine
 10
62.0519444444444
 20
127.4187098689682
 30
0.0
 11
46.11444444444445
 21
127.4187098689681
 31
0.0
  0
LINE
  5
60D
330
609
100
AcDbEntity
  8
0
  6
Continuous
 62
     0
370
    -2
100
AcDbLine
 10
46.11444444444439
 20
145.2187098689681
 30
0.0
 11
46.11444444444444
 21
130.6187098689681
 31
0.0
  0
SOLID
  5
60E
330
609
100
AcDbEntity
  8
0
 62
     0
100
AcDbTrace
 10
46.64777777777773
 20
145.2187098689681
 30
0.0
 11
45.58111111111106
 21
145.2187098689681
 31
0.0
 12
46.11444444444438
 22
148.4187098689681
 32
0.0
 13
46.11444444444438
 23
148.4187098689681
 33
0.0
  0
SOLID
  5
60F
330
609
100
AcDbEntity
  8
0
 62
     0
100
AcDbTrace
 10
45.58111111111111
 20
130.6187098689681
 30
0.0
 11
46.64777777777777
 21
130.6187098689681
 31
0.0
 12
46.11444444444445
 22
127.4187098689681
 32
0.0
 13
46.11444444444445
 23
127.4187098689681
 33
0.0
  0
MTEXT
  5
610
330
609
100
AcDbEntity
  8
0
 62
     0
370
     0
100
AcDbMText
 10
42.11444444444442
 20
137.463289116202
 30
0.0
 40
3.2
 41
0.0
 71
     2
 72
     1
  1
\A1;21
  7
SLDTEXTSTYLE4
 11
-3.383536836952858E-15
 21
1.0
 31
0.0
 73
     1
 44
1.0
  0
POINT
  5
70E
330
609
100
AcDbEntity
  8
Defpoints
 62
     0
100
AcDbPoint
 10
62.1144444444444
 20
148.4187098689682
 30
0.0
  0
POINT
  5
70F
330
609
100
AcDbEntity
  8
Defpoints
 62
     0
100
AcDbPoint
 10
62.1144444444444
 20
127.4187098689682
 30
0.0
  0
POINT
  5
710
330
609
100
AcDbEntity
  8
Defpoints
 62
     0
100
AcDbPoint
 10
46.11444444444442
 20
127.4187098689681
 30
0.0
  0
ENDBLK
  5
611
330
609
100
AcDbEntity
  8
0
100
AcDbBlockEnd
  0
BLOCK
  5
614
330
613
100
AcDbEntity
  8
0
100
AcDbBlockBegin
  2
_D_17
 70
     0
 10
0.0
 20
0.0
 30
0.0
  3
_D_17
  1
_D_17
  0
LINE
  5
615
330
613
100
AcDbEntity
  8
0
  6
Continuous
 62
     0
370
    -2
100
AcDbLine
 10
62.0519444444444
 20
148.4187098689682
 30
0.0
 11
54.36335337986243
 21
148.4187098689682
 31
0.0
  0
LINE
  5
616
330
613
100
AcDbEntity
  8
0
  6
Continuous
 62
     0
370
    -2
100
AcDbLine
 10
67.0519444444444
 20
137.9187098689682
 30
0.0
 11
54.36335337986247
 21
137.9187098689681
 31
0.0
  0
LINE
  5
617
330
613
100
AcDbEntity
  8
0
  6
Continuous
 62
     0
370
    -2
100
AcDbLine
 10
54.36335337986245
 20
145.2187098689682
 30
0.0
 11
54.36335337986245
 21
141.1187098689681
 31
0.0
  0
SOLID
  5
618
330
613
100
AcDbEntity
  8
0
 62
     0
100
AcDbTrace
 10
54.89668671319578
 20
145.2187098689682
 30
0.0
 11
53.83002004652911
 21
145.2187098689682
 31
0.0
 12
54.36335337986243
 22
148.4187098689682
 32
0.0
 13
54.36335337986243
 23
148.4187098689682
 33
0.0
  0
SOLID
  5
619
330
613
100
AcDbEntity
  8
0
 62
     0
100
AcDbTrace
 10
53.83002004652912
 20
141.1187098689681
 30
0.0
 11
54.89668671319578
 21
141.1187098689681
 31
0.0
 12
54.36335337986247
 22
137.9187098689681
 32
0.0
 13
54.36335337986247
 23
137.9187098689681
 33
0.0
  0
MTEXT
  5
61A
330
613
100
AcDbEntity
  8
0
 62
     0
370
     0
100
AcDbMText
 10
50.36335337986246
 20
142.6789019827512
 30
0.0
 40
3.2
 41
0.0
 71
     2
 72
     1
  1
\A1;=
  7
SLDTEXTSTYLE4
 11
-3.383536836952849E-15
 21
1.0
 31
0.0
 73
     1
 44
1.0
  0
POINT
  5
711
330
613
100
AcDbEntity
  8
Defpoints
 62
     0
100
AcDbPoint
 10
62.1144444444444
 20
148.4187098689682
 30
0.0
  0
POINT
  5
712
330
613
100
AcDbEntity
  8
Defpoints
 62
     0
100
AcDbPoint
 10
67.1144444444444
 20
137.9187098689682
 30
0.0
  0
POINT
  5
713
330
613
100
AcDbEntity
  8
Defpoints
 62
     0
100
AcDbPoint
 10
54.36335337986245
 20
137.9187098689681
 30
0.0
  0
ENDBLK
  5
61B
330
613
100
AcDbEntity
  8
0
100
AcDbBlockEnd
  0
BLOCK
  5
61E
330
61D
100
AcDbEntity
  8
0
100
AcDbBlockBegin
  2
_D_18
 70
     0
 10
0.0
 20
0.0
 30
0.0
  3
_D_18
  1
_D_18
  0
LINE
  5
61F
330
61D
100
AcDbEntity
  8
0
  6
Continuous
 62
     0
370
    -2
100
AcDbLine
 10
67.0519444444444
 20
137.9187098689682
 30
0.0
 11
54.36335337986243
 21
137.9187098689681
 31
0.0
  0
LINE
  5
620
330
61D
100
AcDbEntity
  8
0
  6
Continuous
 62
     0
370
    -2
100
AcDbLine
 10
62.0519444444444
 20
127.4187098689682
 30
0.0
 11
54.36335337986247
 21
127.4187098689682
 31
0.0
  0
LINE
  5
621
330
61D
100
AcDbEntity
  8
0
  6
Continuous
 62
     0
370
    -2
100
AcDbLine
 10
54.36335337986245
 20
134.7187098689681
 30
0.0
 11
54.36335337986245
 21
130.6187098689682
 31
0.0
  0
SOLID
  5
622
330
61D
100
AcDbEntity
  8
0
 62
     0
100
AcDbTrace
 10
54.89668671319578
 20
134.7187098689681
 30
0.0
 11
53.83002004652911
 21
134.7187098689681
 31
0.0
 12
54.36335337986243
 22
137.9187098689681
 32
0.0
 13
54.36335337986243
 23
137.9187098689681
 33
0.0
  0
SOLID
  5
623
330
61D
100
AcDbEntity
  8
0
 62
     0
100
AcDbTrace
 10
53.83002004652912
 20
130.6187098689682
 30
0.0
 11
54.89668671319578
 21
130.6187098689682
 31
0.0
 12
54.36335337986247
 22
127.4187098689682
 32
0.0
 13
54.36335337986247
 23
127.4187098689682
 33
0.0
  0
MTEXT
  5
624
330
61D
100
AcDbEntity
  8
0
 62
     0
370
     0
100
AcDbMText
 10
50.36335337986246
 20
132.1053338061203
 30
0.0
 40
3.2
 41
0.0
 71
     2
 72
     1
  1
\A1;=
  7
SLDTEXTSTYLE4
 11
-3.383536836952867E-15
 21
1.0
 31
0.0
 73
     1
 44
1.0
  0
POINT
  5
714
330
61D
100
AcDbEntity
  8
Defpoints
 62
     0
100
AcDbPoint
 10
67.1144444444444
 20
137.9187098689682
 30
0.0
  0
POINT
  5
715
330
61D
100
AcDbEntity
  8
Defpoints
 62
     0
100
AcDbPoint
 10
62.1144444444444
 20
127.4187098689682
 30
0.0
  0
POINT
  5
716
330
61D
100
AcDbEntity
  8
Defpoints
 62
     0
100
AcDbPoint
 10
54.36335337986245
 20
127.4187098689682
 30
0.0
  0
ENDBLK
  5
625
330
61D
100
AcDbEntity
  8
0
100
AcDbBlockEnd
  0
BLOCK
  5
628
330
627
100
AcDbEntity
  8
0
100
AcDbBlockBegin
  2
_D_19
 70
     0
 10
0.0
 20
0.0
 30
0.0
  3
_D_19
  1
_D_19
  0
LINE
  5
629
330
627
100
AcDbEntity
  8
0
  6
Continuous
 62
     0
370
    -2
100
AcDbLine
 10
143.3144444444444
 20
127.3562098689682
 30
0.0
 11
143.3144444444444
 21
114.1093926967726
 31
0.0
  0
LINE
  5
62A
330
627
100
AcDbEntity
  8
0
  6
Continuous
 62
     0
370
    -2
100
AcDbLine
 10
62.1144444444444
 20
127.3562098689682
 30
0.0
 11
62.1144444444444
 21
114.1093926967726
 31
0.0
  0
LINE
  5
62B
330
627
100
AcDbEntity
  8
0
  6
Continuous
 62
     0
370
    -2
100
AcDbLine
 10
140.1144444444444
 20
114.1093926967726
 30
0.0
 11
65.3144444444444
 21
114.1093926967726
 31
0.0
  0
SOLID
  5
62C
330
627
100
AcDbEntity
  8
0
 62
     0
100
AcDbTrace
 10
140.1144444444444
 20
113.5760593634392
 30
0.0
 11
140.1144444444444
 21
114.6427260301059
 31
0.0
 12
143.3144444444444
 22
114.1093926967726
 32
0.0
 13
143.3144444444444
 23
114.1093926967726
 33
0.0
  0
SOLID
  5
62D
330
627
100
AcDbEntity
  8
0
 62
     0
100
AcDbTrace
 10
65.3144444444444
 20
114.6427260301059
 30
0.0
 11
65.3144444444444
 21
113.5760593634392
 31
0.0
 12
62.1144444444444
 22
114.1093926967726
 32
0.0
 13
62.1144444444444
 23
114.1093926967726
 33
0.0
  0
MTEXT
  5
62E
330
627
100
AcDbEntity
  8
0
 62
     0
370
     0
100
AcDbMText
 10
102.0541858590684
 20
118.1093926967725
 30
0.0
 40
3.2
 41
0.0
 71
     2
 72
     1
  1
\A1;81.2
  7
SLDTEXTSTYLE4
 73
     1
 44
1.0
  0
POINT
  5
717
330
627
100
AcDbEntity
  8
Defpoints
 62
     0
100
AcDbPoint
 10
143.3144444444444
 20
127.4187098689682
 30
0.0
  0
POINT
  5
718
330
627
100
AcDbEntity
  8
Defpoints
 62
     0
100
AcDbPoint
 10
62.1144444444444
 20
127.4187098689682
 30
0.0
  0
POINT
  5
719
330
627
100
AcDbEntity
  8
Defpoints
 62
     0
100
AcDbPoint
 10
62.1144444444444
 20
114.1093926967726
 30
0.0
  0
ENDBLK
  5
62F
330
627
100
AcDbEntity
  8
0
100
AcDbBlockEnd
  0
BLOCK
  5
632
330
631
100
AcDbEntity
  8
0
100
AcDbBlockBegin
  2
SW_CENTERMARKSYMBOL_0
 70
     0
 10
0.0
 20
0.0
 30
0.0
  3
SW_CENTERMARKSYMBOL_0
  1
SW_CENTERMARKSYMBOL_0
  0
LINE
  5
633
330
631
100
AcDbEntity
  8
0
  6
Continuous
 62
     0
370
     0
100
AcDbLine
 10
0.0
 20
0.0
 30
0.0
 11
0.0
 21
2.500000000000002
 31
0.0
  0
LINE
  5
634
330
631
100
AcDbEntity
  8
0
  6
Continuous
 62
     0
370
     0
100
AcDbLine
 10
0.0
 20
0.0
 30
0.0
 11
-2.500000000000002
 21
0.0
 31
0.0
  0
LINE
  5
635
330
631
100
AcDbEntity
  8
0
  6
Continuous
 62
     0
370
     0
100
AcDbLine
 10
0.0
 20
0.0
 30
0.0
 11
0.0
 21
-2.500000000000002
 31
0.0
  0
LINE
  5
636
330
631
100
AcDbEntity
  8
0
  6
Continuous
 62
     0
370
     0
100
AcDbLine
 10
0.0
 20
0.0
 30
0.0
 11
2.500000000000002
 21
0.0
 31
0.0
  0
LINE
  5
637
330
631
100
AcDbEntity
  8
0
  6
Continuous
 62
     0
370
     0
100
AcDbLine
 10
0.0
 20
2.500000000000002
 30
0.0
 11
0.0
 21
5.000000000000004
 31
0.0
  0
LINE
  5
638
330
631
100
AcDbEntity
  8
0
  6
Continuous
 62
     0
370
     0
100
AcDbLine
 10
-2.500000000000002
 20
0.0
 30
0.0
 11
-4.99999999999999
 21
0.0
 31
0.0
  0
LINE
  5
639
330
631
100
AcDbEntity
  8
0
  6
Continuous
 62
     0
370
     0
100
AcDbLine
 10
0.0
 20
-2.500000000000002
 30
0.0
 11
0.0
 21
-5.000000000000004
 31
0.0
  0
LINE
  5
63A
330
631
100
AcDbEntity
  8
0
  6
Continuous
 62
     0
370
     0
100
AcDbLine
 10
2.500000000000002
 20
0.0
 30
0.0
 11
5.000000000000004
 21
0.0
 31
0.0
  0
ENDBLK
  5
63B
330
631
100
AcDbEntity
  8
0
100
AcDbBlockEnd
  0
BLOCK
  5
63E
330
63D
100
AcDbEntity
  8
0
100
AcDbBlockBegin
  2
SW_CENTERMARKSYMBOL_1
 70
     0
 10
0.0
 20
0.0
 30
0.0
  3
SW_CENTERMARKSYMBOL_1
  1
SW_CENTERMARKSYMBOL_1
  0
LINE
  5
63F
330
63D
100
AcDbEntity
  8
0
  6
Continuous
 62
     0
370
     0
100
AcDbLine
 10
0.0
 20
0.0
 30
0.0
 11
0.0
 21
2.500000000000002
 31
0.0
  0
LINE
  5
640
330
63D
100
AcDbEntity
  8
0
  6
Continuous
 62
     0
370
     0
100
AcDbLine
 10
0.0
 20
0.0
 30
0.0
 11
-2.499999999999974
 21
0.0
 31
0.0
  0
LINE
  5
641
330
63D
100
AcDbEntity
  8
0
  6
Continuous
 62
     0
370
     0
100
AcDbLine
 10
0.0
 20
0.0
 30
0.0
 11
0.0
 21
-2.500000000000002
 31
0.0
  0
LINE
  5
642
330
63D
100
AcDbEntity
  8
0
  6
Continuous
 62
     0
370
     0
100
AcDbLine
 10
0.0
 20
0.0
 30
0.0
 11
2.500000000000002
 21
0.0
 31
0.0
  0
LINE
  5
643
330
63D
100
AcDbEntity
  8
0
  6
Continuous
 62
     0
370
     0
100
AcDbLine
 10
0.0
 20
2.500000000000002
 30
0.0
 11
0.0
 21
5.000000000000004
 31
0.0
  0
LINE
  5
644
330
63D
100
AcDbEntity
  8
0
  6
Continuous
 62
     0
370
     0
100
AcDbLine
 10
-2.499999999999974
 20
0.0
 30
0.0
 11
-4.999999999999977
 21
0.0
 31
0.0
  0
LINE
  5
645
330
63D
100
AcDbEntity
  8
0
  6
Continuous
 62
     0
370
     0
100
AcDbLine
 10
0.0
 20
-2.500000000000002
 30
0.0
 11
0.0
 21
-5.000000000000004
 31
0.0
  0
LINE
  5
646
330
63D
100
AcDbEntity
  8
0
  6
Continuous
 62
     0
370
     0
100
AcDbLine
 10
2.500000000000002
 20
0.0
 30
0.0
 11
5.000000000000004
 21
0.0
 31
0.0
  0
ENDBLK
  5
647
330
63D
100
AcDbEntity
  8
0
100
AcDbBlockEnd
  0
BLOCK
  5
671
330
670
100
AcDbEntity
  8
0
100
AcDbBlockBegin
  2
_D_20
 70
     0
 10
0.0
 20
0.0
 30
0.0
  3
_D_20
  1
_D_20
  0
LINE
  5
672
330
670
100
AcDbEntity
  8
0
  6
Continuous
 62
     0
370
    -2
100
AcDbLine
 10
87.25194444444439
 20
244.3098871571278
 30
0.0
 11
73.26705701992607
 21
244.3098871571277
 31
0.0
  0
LINE
  5
673
330
670
100
AcDbEntity
  8
0
  6
Continuous
 62
     0
370
    -2
100
AcDbLine
 10
79.2519444444444
 20
248.3098871571278
 30
0.0
 11
73.26705701992606
 21
248.3098871571278
 31
0.0
  0
LINE
  5
674
330
670
100
AcDbEntity
  8
0
  6
Continuous
 62
     0
370
    -2
100
AcDbLine
 10
73.26705701992606
 20
248.3098871571278
 30
0.0
 11
73.26705701992604
 21
257.9098871571277
 31
0.0
  0
LINE
  5
675
330
670
100
AcDbEntity
  8
0
  6
Continuous
 62
     0
370
    -2
100
AcDbLine
 10
73.26705701992607
 20
244.3098871571277
 30
0.0
 11
73.26705701992606
 21
248.3098871571278
 31
0.0
  0
LINE
  5
676
330
670
100
AcDbEntity
  8
0
  6
Continuous
 62
     0
370
    -2
100
AcDbLine
 10
73.26705701992609
 20
241.1098871571277
 30
0.0
 11
73.2670570199261
 21
237.9098871571277
 31
0.0
  0
LINE
  5
677
330
670
100
AcDbEntity
  8
0
  6
Continuous
 62
     0
370
    -2
100
AcDbLine
 10
73.26705701992604
 20
251.5098871571278
 30
0.0
 11
73.26705701992603
 21
254.7098871571278
 31
0.0
  0
SOLID
  5
678
330
670
100
AcDbEntity
  8
0
 62
     0
100
AcDbTrace
 10
73.80039035325942
 20
241.1098871571277
 30
0.0
 11
72.73372368659275
 21
241.1098871571277
 31
0.0
 12
73.26705701992607
 22
244.3098871571277
 32
0.0
 13
73.26705701992607
 23
244.3098871571277
 33
0.0
  0
SOLID
  5
679
330
670
100
AcDbEntity
  8
0
 62
     0
100
AcDbTrace
 10
72.73372368659271
 20
251.5098871571278
 30
0.0
 11
73.80039035325937
 21
251.5098871571278
 31
0.0
 12
73.26705701992606
 22
248.3098871571278
 32
0.0
 13
73.26705701992606
 23
248.3098871571278
 33
0.0
  0
MTEXT
  5
71A
330
670
100
AcDbEntity
  8
0
 62
     0
370
     0
100
AcDbMText
 10
69.26705701992606
 20
256.3098871571278
 30
0.0
 40
3.2
 41
0.0
 71
     2
 72
     1
  1
\A1;4
  7
SLDTEXTSTYLE4
 11
-3.552713678800450E-15
 21
1.0
 31
0.0
 73
     1
 44
1.0
  0
POINT
  5
71B
330
670
100
AcDbEntity
  8
Defpoints
 62
     0
100
AcDbPoint
 10
87.31444444444439
 20
244.3098871571278
 30
0.0
  0
POINT
  5
71C
330
670
100
AcDbEntity
  8
Defpoints
 62
     0
100
AcDbPoint
 10
79.3144444444444
 20
248.3098871571278
 30
0.0
  0
POINT
  5
71D
330
670
100
AcDbEntity
  8
Defpoints
 62
     0
100
AcDbPoint
 10
73.26705701992604
 20
248.3098871571278
 30
0.0
  0
ENDBLK
  5
67A
330
670
100
AcDbEntity
  8
0
100
AcDbBlockEnd
  0
BLOCK
  5
67E
330
67D
100
AcDbEntity
  8
0
100
AcDbBlockBegin
  2
SW_CENTERMARKSYMBOL_2
 70
     0
 10
0.0
 20
0.0
 30
0.0
  3
SW_CENTERMARKSYMBOL_2
  1
SW_CENTERMARKSYMBOL_2
  0
LINE
  5
67F
330
67D
100
AcDbEntity
  8
0
  6
Continuous
 62
     0
370
     0
100
AcDbLine
 10
0.0
 20
0.0
 30
0.0
 11
0.0
 21
2.500000000000002
 31
0.0
  0
LINE
  5
680
330
67D
100
AcDbEntity
  8
0
  6
Continuous
 62
     0
370
     0
100
AcDbLine
 10
0.0
 20
0.0
 30
0.0
 11
-2.500000000000002
 21
0.0
 31
0.0
  0
LINE
  5
681
330
67D
100
AcDbEntity
  8
0
  6
Continuous
 62
     0
370
     0
100
AcDbLine
 10
0.0
 20
0.0
 30
0.0
 11
0.0
 21
-2.500000000000002
 31
0.0
  0
LINE
  5
682
330
67D
100
AcDbEntity
  8
0
  6
Continuous
 62
     0
370
     0
100
AcDbLine
 10
0.0
 20
0.0
 30
0.0
 11
2.500000000000002
 21
0.0
 31
0.0
  0
LINE
  5
683
330
67D
100
AcDbEntity
  8
0
  6
Continuous
 62
     0
370
     0
100
AcDbLine
 10
0.0
 20
2.500000000000002
 30
0.0
 11
0.0
 21
5.000000000000004
 31
0.0
  0
LINE
  5
684
330
67D
100
AcDbEntity
  8
0
  6
Continuous
 62
     0
370
     0
100
AcDbLine
 10
-2.500000000000002
 20
0.0
 30
0.0
 11
-5.000000000000004
 21
0.0
 31
0.0
  0
LINE
  5
685
330
67D
100
AcDbEntity
  8
0
  6
Continuous
 62
     0
370
     0
100
AcDbLine
 10
0.0
 20
-2.500000000000002
 30
0.0
 11
0.0
 21
-5.000000000000004
 31
0.0
  0
LINE
  5
686
330
67D
100
AcDbEntity
  8
0
  6
Continuous
 62
     0
370
     0
100
AcDbLine
 10
2.500000000000002
 20
0.0
 30
0.0
 11
5.000000000000004
 21
0.0
 31
0.0
  0
ENDBLK
  5
687
330
67D
100
AcDbEntity
  8
0
100
AcDbBlockEnd
  0
BLOCK
  5
DBE
330
DBD
100
AcDbEntity
  8
0
100
AcDbBlockBegin
  2
SW_CENTERMARKSYMBOL_3
 70
     0
 10
0.0
 20
0.0
 30
0.0
  3
SW_CENTERMARKSYMBOL_3
  1
SW_CENTERMARKSYMBOL_3
  0
LINE
  5
DBF
330
DBD
100
AcDbEntity
  8
0
  6
Continuous
 62
     0
370
     0
100
AcDbLine
 10
0.0
 20
0.0
 30
0.0
 11
0.0
 21
2.5
 31
0.0
  0
LINE
  5
DC0
330
DBD
100
AcDbEntity
  8
0
  6
Continuous
 62
     0
370
     0
100
AcDbLine
 10
0.0
 20
0.0
 30
0.0
 11
-2.499999999999999
 21
0.0
 31
0.0
  0
LINE
  5
DC1
330
DBD
100
AcDbEntity
  8
0
  6
Continuous
 62
     0
370
     0
100
AcDbLine
 10
0.0
 20
0.0
 30
0.0
 11
0.0
 21
-2.5
 31
0.0
  0
LINE
  5
DC2
330
DBD
100
AcDbEntity
  8
0
  6
Continuous
 62
     0
370
     0
100
AcDbLine
 10
0.0
 20
0.0
 30
0.0
 11
2.500000000000002
 21
0.0
 31
0.0
  0
LINE
  5
DC3
330
DBD
100
AcDbEntity
  8
0
  6
Continuous
 62
     0
370
     0
100
AcDbLine
 10
0.0
 20
2.5
 30
0.0
 11
0.0
 21
4.999999999999996
 31
0.0
  0
LINE
  5
DC4
330
DBD
100
AcDbEntity
  8
0
  6
Continuous
 62
     0
370
     0
100
AcDbLine
 10
-2.499999999999999
 20
0.0
 30
0.0
 11
-4.999999999999997
 21
0.0
 31
0.0
  0
LINE
  5
DC5
330
DBD
100
AcDbEntity
  8
0
  6
Continuous
 62
     0
370
     0
100
AcDbLine
 10
0.0
 20
-2.5
 30
0.0
 11
0.0
 21
-4.999999999999996
 31
0.0
  0
LINE
  5
DC6
330
DBD
100
AcDbEntity
  8
0
  6
Continuous
 62
     0
370
     0
100
AcDbLine
 10
2.500000000000002
 20
0.0
 30
0.0
 11
4.999999999999997
 21
0.0
 31
0.0
  0
ENDBLK
  5
DC7
330
DBD
100
AcDbEntity
  8
0
100
AcDbBlockEnd
  0
ENDSEC
  0
SECTION
  2
ENTITIES
  0
LINE
  5
45
330
1F
100
AcDbEntity
  8
0
  6
Continuous
 62
     7
100
AcDbLine
 10
-56.62463509548426
 20
178.352207457
 30
0.0
 11
-56.69963263968426
 21
178.202207479
 31
0.0
  0
LINE
  5
46
330
1F
100
AcDbEntity
  8
0
  6
Continuous
 62
     7
100
AcDbLine
 10
-56.69963263968426
 20
175.7022075349
 30
0.0
 11
-56.62463509548426
 21
175.5522074404
 31
0.0
  0
LINE
  5
47
330
1F
100
AcDbEntity
  8
0
  6
Continuous
 62
     7
100
AcDbLine
 10
-56.19963907698425
 20
178.352207457
 30
0.0
 11
-56.62463509548426
 21
178.352207457
 31
0.0
  0
LINE
  5
48
330
1F
100
AcDbEntity
  8
0
  6
Continuous
 62
     7
100
AcDbLine
 10
-56.62463509548426
 20
175.5522074404
 30
0.0
 11
-56.19963907698425
 21
175.5522074404
 31
0.0
  0
LINE
  5
49
330
1F
100
AcDbEntity
  8
0
  6
Continuous
 62
     7
100
AcDbLine
 10
93.80036688341573
 20
175.4522074939
 30
0.0
 11
94.30036044611575
 21
175.5861820879
 31
0.0
  0
LINE
  5
4A
330
1F
100
AcDbEntity
  8
0
  6
Continuous
 62
     7
100
AcDbLine
 10
94.30036044611575
 20
178.3182329259
 30
0.0
 11
93.80036688341573
 21
178.45220752
 31
0.0
  0
LINE
  5
4B
330
1F
100
AcDbEntity
  8
0
  6
Continuous
 62
     7
100
AcDbLine
 10
93.80036688341573
 20
178.45220752
 30
0.0
 11
93.30036587011574
 21
178.45220752
 31
0.0
  0
LINE
  5
4C
330
1F
100
AcDbEntity
  8
0
  6
Continuous
 62
     7
100
AcDbLine
 10
93.30036587011574
 20
175.4522074939
 30
0.0
 11
93.80036688341573
 21
175.4522074939
 31
0.0
  0
ARC
  5
4D
330
1F
100
AcDbEntity
  8
0
  6
Continuous
 62
     7
100
AcDbCircle
 10
92.80036407701573
 20
200.9522074907
 30
0.0
 40
0.5
100
AcDbArc
 50
0.0
 51
90.0
  0
LINE
  5
4E
330
1F
100
AcDbEntity
  8
0
  6
Continuous
 62
     7
100
AcDbLine
 10
93.30036587011574
 20
200.9522080648
 30
0.0
 11
93.30036587011574
 21
152.9522076476
 31
0.0
  0
LINE
  5
4F
330
1F
100
AcDbEntity
  8
0
  6
Continuous
 62
     7
100
AcDbLine
 10
-55.69963806378426
 20
201.4522072154
 30
0.0
 11
92.80036485691573
 21
201.4522072154
 31
0.0
  0
LINE
  5
50
330
1F
100
AcDbEntity
  8
0
  6
Continuous
 62
     7
100
AcDbLine
 10
-56.19963907698425
 20
152.9522076476
 30
0.0
 11
-56.19963907698425
 21
200.9522080648
 31
0.0
  0
ARC
  5
51
330
1F
100
AcDbEntity
  8
0
  6
Continuous
 62
     7
100
AcDbCircle
 10
-55.69963592298426
 20
200.9522074907
 30
0.0
 40
0.5
100
AcDbArc
 50
90.0
 51
180.0
  0
ARC
  5
52
330
1F
100
AcDbEntity
  8
0
  6
Continuous
 62
     7
100
AcDbCircle
 10
-55.69963592298426
 20
152.9522074907
 30
0.0
 40
0.5
100
AcDbArc
 50
180.0
 51
270.0
  0
LINE
  5
53
330
1F
100
AcDbEntity
  8
0
  6
Continuous
 62
     7
100
AcDbLine
 10
92.80036485691573
 20
152.4522066343
 30
0.0
 11
-55.69963806378426
 21
152.4522066343
 31
0.0
  0
ARC
  5
54
330
1F
100
AcDbEntity
  8
0
  6
Continuous
 62
     7
100
AcDbCircle
 10
92.80036407701573
 20
152.9522074907
 30
0.0
 40
0.5000000000000284
100
AcDbArc
 50
270.0
 51
0.0
  0
LINE
  5
55
330
1F
100
AcDbEntity
  8
0
  6
Continuous
 62
     7
100
AcDbLine
 10
-56.69963263968426
 20
176.9522074924
 30
0.0
 11
-56.69963263968426
 21
175.7022075349
 31
0.0
  0
LINE
  5
56
330
1F
100
AcDbEntity
  8
0
  6
Continuous
 62
     7
100
AcDbLine
 10
-56.69963263968426
 20
178.202207479
 30
0.0
 11
-56.69963263968426
 21
176.9522074924
 31
0.0
  0
LINE
  5
57
330
1F
100
AcDbEntity
  8
0
  6
Continuous
 62
     7
100
AcDbLine
 10
-56.62463509548426
 20
176.9522074924
 30
0.0
 11
-56.62463509548426
 21
175.5522074404
 31
0.0
  0
LINE
  5
58
330
1F
100
AcDbEntity
  8
0
  6
Continuous
 62
     7
100
AcDbLine
 10
-56.62463509548426
 20
178.352207457
 30
0.0
 11
-56.62463509548426
 21
176.9522074924
 31
0.0
  0
LINE
  5
59
330
1F
100
AcDbEntity
  8
0
  6
Continuous
 62
     7
100
AcDbLine
 10
94.30036044611575
 20
176.9522074924
 30
0.0
 11
94.30036044611575
 21
175.5861820879
 31
0.0
  0
LINE
  5
5A
330
1F
100
AcDbEntity
  8
0
  6
Continuous
 62
     7
100
AcDbLine
 10
94.30036044611575
 20
178.3182329259
 30
0.0
 11
94.30036044611575
 21
176.9522074924
 31
0.0
  0
LINE
  5
5B
330
1F
100
AcDbEntity
  8
0
  6
Continuous
 62
     7
100
AcDbLine
 10
93.80036688341573
 20
176.9522074924
 30
0.0
 11
93.80036688341573
 21
175.4522074939
 31
0.0
  0
LINE
  5
5C
330
1F
100
AcDbEntity
  8
0
  6
Continuous
 62
     7
100
AcDbLine
 10
93.80036688341573
 20
178.45220752
 30
0.0
 11
93.80036688341573
 21
176.9522074924
 31
0.0
  0
LINE
  5
5D
330
1F
100
AcDbEntity
  8
0
  6
Continuous
 62
     7
100
AcDbLine
 10
29.30036376161574
 20
152.4522066343
 30
0.0
 11
29.30036376161574
 21
151.9522074836
 31
0.0
  0
LINE
  5
5E
330
1F
100
AcDbEntity
  8
0
  6
Continuous
 62
     7
100
AcDbLine
 10
29.30036376161574
 20
151.9522074836
 30
0.0
 11
25.30036403731575
 21
151.9522074836
 31
0.0
  0
LINE
  5
5F
330
1F
100
AcDbEntity
  8
0
  6
Continuous
 62
     7
100
AcDbLine
 10
25.30036403731575
 20
151.9522074836
 30
0.0
 11
25.30036403731575
 21
152.4522066343
 31
0.0
  0
LINE
  5
60
330
1F
100
AcDbEntity
  8
0
  6
Continuous
 62
     7
100
AcDbLine
 10
-30.19963481528426
 20
152.4522066343
 30
0.0
 11
-30.19963481528426
 21
151.9522074836
 31
0.0
  0
LINE
  5
61
330
1F
100
AcDbEntity
  8
0
  6
Continuous
 62
     7
100
AcDbLine
 10
25.30036403731575
 20
151.9522074836
 30
0.0
 11
-30.19963481528426
 21
151.9522074836
 31
0.0
  0
LINE
  5
62
330
1F
100
AcDbEntity
  8
0
  6
Continuous
 62
     7
100
AcDbLine
 10
-34.19963547098426
 20
151.9522074836
 30
0.0
 11
-34.19963547098426
 21
152.4522066343
 31
0.0
  0
LINE
  5
63
330
1F
100
AcDbEntity
  8
0
  6
Continuous
 62
     7
100
AcDbLine
 10
-30.19963481528426
 20
151.9522074836
 30
0.0
 11
-34.19963547098426
 21
151.9522074836
 31
0.0
  0
LINE
  5
64
330
1F
100
AcDbEntity
  8
0
  6
Continuous
 62
     7
100
AcDbLine
 10
48.80036323261574
 20
152.4522066343
 30
0.0
 11
48.80036323261574
 21
151.9522074836
 31
0.0
  0
LINE
  5
65
330
1F
100
AcDbEntity
  8
0
  6
Continuous
 62
     7
100
AcDbLine
 10
-37.19963410008426
 20
152.4522066343
 30
0.0
 11
-37.19963410008426
 21
151.9522074836
 31
0.0
  0
LINE
  5
66
330
1F
100
AcDbEntity
  8
0
  6
Continuous
 62
     7
100
AcDbLine
 10
-56.19963907698425
 20
152.9522076476
 30
0.0
 11
-56.19963907698425
 21
151.9522074836
 31
0.0
  0
LINE
  5
67
330
1F
100
AcDbEntity
  8
0
  6
Continuous
 62
     7
100
AcDbLine
 10
-56.19963907698425
 20
151.9522074836
 30
0.0
 11
-37.19963410008426
 21
151.9522074836
 31
0.0
  0
LINE
  5
68
330
1F
100
AcDbEntity
  8
0
  6
Continuous
 62
     7
100
AcDbLine
 10
48.80036323261574
 20
151.9522074836
 30
0.0
 11
72.30036429061573
 21
151.9522074836
 31
0.0
  0
LINE
  5
69
330
1F
100
AcDbEntity
  8
0
  6
Continuous
 62
     7
100
AcDbLine
 10
72.30036429061573
 20
151.9522074836
 30
0.0
 11
72.30036429061573
 21
152.4522066343
 31
0.0
  0
LINE
  5
6A
330
1F
100
AcDbEntity
  8
0
  6
Continuous
 62
     7
100
AcDbLine
 10
-37.19963410008426
 20
151.9522074836
 30
0.0
 11
-34.19963547098426
 21
151.9522074836
 31
0.0
  0
LINE
  5
6B
330
1F
100
AcDbEntity
  8
0
  6
Continuous
 62
     7
100
AcDbLine
 10
29.30036376161574
 20
151.9522074836
 30
0.0
 11
48.80036323261574
 21
151.9522074836
 31
0.0
  0
LINE
  5
6C
330
1F
100
AcDbEntity
  8
0
  6
Continuous
 62
     8
100
AcDbLine
 10
-55.69963806378426
 20
152.9522076476
 30
0.0
 11
92.80036485691573
 21
152.9522076476
 31
0.0
  0
LINE
  5
6D
330
1F
100
AcDbEntity
  8
0
  6
Continuous
 62
     8
100
AcDbLine
 10
-55.69963806378426
 20
200.9522080648
 30
0.0
 11
-55.69963806378426
 21
152.9522076476
 31
0.0
  0
LINE
  5
6E
330
1F
100
AcDbEntity
  8
0
  6
Continuous
 62
     8
100
AcDbLine
 10
92.80036485691573
 20
200.9522080648
 30
0.0
 11
-55.69963806378426
 21
200.9522080648
 31
0.0
  0
LINE
  5
6F
330
1F
100
AcDbEntity
  8
0
  6
Continuous
 62
     8
100
AcDbLine
 10
92.80036485691573
 20
152.9522076476
 30
0.0
 11
92.80036485691573
 21
200.9522080648
 31
0.0
  0
LINE
  5
70
330
1F
100
AcDbEntity
  8
0
  6
Continuous
 62
     8
100
AcDbLine
 10
92.80036485691573
 20
200.9522080648
 30
0.0
 11
92.80036485691573
 21
201.4522072154
 31
0.0
  0
LINE
  5
71
330
1F
100
AcDbEntity
  8
0
  6
Continuous
 62
     8
100
AcDbLine
 10
92.80036485691573
 20
200.9522080648
 30
0.0
 11
93.30036587011574
 21
200.9522080648
 31
0.0
  0
LINE
  5
72
330
1F
100
AcDbEntity
  8
0
  6
Continuous
 62
     8
100
AcDbLine
 10
92.80036485691573
 20
152.9522076476
 30
0.0
 11
93.30036587011574
 21
152.9522076476
 31
0.0
  0
LINE
  5
73
330
1F
100
AcDbEntity
  8
0
  6
Continuous
 62
     8
100
AcDbLine
 10
-55.69963806378426
 20
200.9522080648
 30
0.0
 11
-55.69963806378426
 21
201.4522072154
 31
0.0
  0
LINE
  5
74
330
1F
100
AcDbEntity
  8
0
  6
Continuous
 62
     8
100
AcDbLine
 10
-56.19963907698425
 20
200.9522080648
 30
0.0
 11
-55.69963806378426
 21
200.9522080648
 31
0.0
  0
LINE
  5
75
330
1F
100
AcDbEntity
  8
0
  6
Continuous
 62
     8
100
AcDbLine
 10
-56.19963907698425
 20
152.9522076476
 30
0.0
 11
-55.69963806378426
 21
152.9522076476
 31
0.0
  0
LINE
  5
76
330
1F
100
AcDbEntity
  8
0
  6
Continuous
 62
     8
100
AcDbLine
 10
-55.69963806378426
 20
152.4522066343
 30
0.0
 11
-55.69963806378426
 21
152.9522076476
 31
0.0
  0
LINE
  5
77
330
1F
100
AcDbEntity
  8
0
  6
Continuous
 62
     8
100
AcDbLine
 10
92.80036485691573
 20
152.4522066343
 30
0.0
 11
92.80036485691573
 21
152.9522076476
 31
0.0
  0
CIRCLE
  5
78
330
1F
100
AcDbEntity
  8
0
  6
Continuous
 62
     7
100
AcDbCircle
 10
216.5662373643639
 20
176.9522074907
 30
0.0
 40
1.5
  0
LINE
  5
79
330
1F
100
AcDbEntity
  8
0
  6
Continuous
 62
     7
100
AcDbLine
 10
213.0662373954639
 20
152.9522076476
 30
0.0
 11
213.0662373954639
 21
200.9522080648
 31
0.0
  0
LINE
  5
7A
330
1F
100
AcDbEntity
  8
0
  6
Continuous
 62
     7
100
AcDbLine
 10
213.0662373954639
 20
201.4522072154
 30
0.0
 11
221.0662377754639
 21
201.4522072154
 31
0.0
  0
LINE
  5
7B
330
1F
100
AcDbEntity
  8
0
  6
Continuous
 62
     7
100
AcDbLine
 10
213.0662373954639
 20
200.9522080648
 30
0.0
 11
213.0662373954639
 21
201.4522072154
 31
0.0
  0
LINE
  5
7C
330
1F
100
AcDbEntity
  8
0
  6
Continuous
 62
     7
100
AcDbLine
 10
221.5662369260639
 20
200.9522080648
 30
0.0
 11
221.5662369260639
 21
152.9522076476
 31
0.0
  0
ARC
  5
7D
330
1F
100
AcDbEntity
  8
0
  6
Continuous
 62
     7
100
AcDbCircle
 10
221.0662373643639
 20
200.9522074907
 30
0.0
 40
0.5
100
AcDbArc
 50
0.0
 51
90.0
  0
LINE
  5
7E
330
1F
100
AcDbEntity
  8
0
  6
Continuous
 62
     7
100
AcDbLine
 10
221.0662377754639
 20
152.4522066343
 30
0.0
 11
213.0662373954639
 21
152.4522066343
 31
0.0
  0
LINE
  5
7F
330
1F
100
AcDbEntity
  8
0
  6
Continuous
 62
     7
100
AcDbLine
 10
213.0662373954639
 20
152.4522066343
 30
0.0
 11
213.0662373954639
 21
152.9522076476
 31
0.0
  0
ARC
  5
80
330
1F
100
AcDbEntity
  8
0
  6
Continuous
 62
     7
100
AcDbCircle
 10
221.0662373643639
 20
152.9522074907
 30
0.0
 40
0.5
100
AcDbArc
 50
270.0
 51
0.0
  0
CIRCLE
  5
81
330
1F
100
AcDbEntity
  8
0
  6
Continuous
 62
     7
100
AcDbCircle
 10
198.7662373643639
 20
176.9522074908
 30
0.0
 40
1.5
  0
LINE
  5
82
330
1F
100
AcDbEntity
  8
0
  6
Continuous
 62
     7
100
AcDbLine
 10
202.2662371153639
 20
200.9522080648
 30
0.0
 11
202.2662371153639
 21
152.9522076476
 31
0.0
  0
LINE
  5
83
330
1F
100
AcDbEntity
  8
0
  6
Continuous
 62
     7
100
AcDbLine
 10
202.2662371153639
 20
152.4522066343
 30
0.0
 11
194.2662358040639
 21
152.4522066343
 31
0.0
  0
LINE
  5
84
330
1F
100
AcDbEntity
  8
0
  6
Continuous
 62
     7
100
AcDbLine
 10
193.7662385160639
 20
152.9522076476
 30
0.0
 11
193.7662385160639
 21
200.9522080648
 31
0.0
  0
ARC
  5
85
330
1F
100
AcDbEntity
  8
0
  6
Continuous
 62
     7
100
AcDbCircle
 10
194.2662373643639
 20
152.9522074908
 30
0.0
 40
0.5
100
AcDbArc
 50
180.0
 51
270.0
  0
LINE
  5
86
330
1F
100
AcDbEntity
  8
0
  6
Continuous
 62
     7
100
AcDbLine
 10
194.2662358040639
 20
201.4522072154
 30
0.0
 11
202.2662371153639
 21
201.4522072154
 31
0.0
  0
LINE
  5
87
330
1F
100
AcDbEntity
  8
0
  6
Continuous
 62
     7
100
AcDbLine
 10
202.2662371153639
 20
201.4522072154
 30
0.0
 11
202.2662371153639
 21
200.9522080648
 31
0.0
  0
ARC
  5
88
330
1F
100
AcDbEntity
  8
0
  6
Continuous
 62
     7
100
AcDbCircle
 10
194.2662373643639
 20
200.9522074908
 30
0.0
 40
0.5
100
AcDbArc
 50
90.0
 51
180.0
  0
LINE
  5
89
330
1F
100
AcDbEntity
  8
0
  6
Continuous
 62
     7
100
AcDbLine
 10
202.6662271225639
 20
186.9522076326
 30
0.0
 11
202.266227802064
 21
186.9522076326
 31
0.0
  0
LINE
  5
8A
330
1F
100
AcDbEntity
  8
0
  6
Continuous
 62
     7
100
AcDbLine
 10
202.6662271225639
 20
191.9522075209
 30
0.0
 11
202.6662271225639
 21
186.9522076326
 31
0.0
  0
LINE
  5
8B
330
1F
100
AcDbEntity
  8
0
  6
Continuous
 62
     7
100
AcDbLine
 10
202.6662271225639
 20
193.9522069174
 30
0.0
 11
202.6662271225639
 21
191.9522075209
 31
0.0
  0
LINE
  5
8C
330
1F
100
AcDbEntity
  8
0
  6
Continuous
 62
     7
100
AcDbLine
 10
202.266227802064
 20
198.952207737
 30
0.0
 11
202.6662271225639
 21
198.952207737
 31
0.0
  0
LINE
  5
8D
330
1F
100
AcDbEntity
  8
0
  6
Continuous
 62
     7
100
AcDbLine
 10
202.6662271225639
 20
198.952207737
 30
0.0
 11
202.6662271225639
 21
193.9522069174
 31
0.0
  0
LINE
  5
8E
330
1F
100
AcDbEntity
  8
0
  6
Continuous
 62
     7
100
AcDbLine
 10
202.6662271225639
 20
186.9522076326
 30
0.0
 11
202.6662271225639
 21
185.9522074687
 31
0.0
  0
LINE
  5
8F
330
1F
100
AcDbEntity
  8
0
  6
Continuous
 62
     7
100
AcDbLine
 10
213.0662280822639
 20
186.9522076326
 30
0.0
 11
212.6662268990639
 21
186.9522076326
 31
0.0
  0
LINE
  5
90
330
1F
100
AcDbEntity
  8
0
  6
Continuous
 62
     7
100
AcDbLine
 10
212.6662268990639
 20
186.9522076326
 30
0.0
 11
212.6662268990639
 21
191.9522075209
 31
0.0
  0
LINE
  5
91
330
1F
100
AcDbEntity
  8
0
  6
Continuous
 62
     7
100
AcDbLine
 10
212.6662268990639
 20
193.9522069174
 30
0.0
 11
212.6662268990639
 21
191.9522075209
 31
0.0
  0
LINE
  5
92
330
1F
100
AcDbEntity
  8
0
  6
Continuous
 62
     7
100
AcDbLine
 10
212.6662268990639
 20
198.952207737
 30
0.0
 11
213.0662280822639
 21
198.952207737
 31
0.0
  0
LINE
  5
93
330
1F
100
AcDbEntity
  8
0
  6
Continuous
 62
     7
100
AcDbLine
 10
212.6662268990639
 20
193.9522069174
 30
0.0
 11
212.6662268990639
 21
198.952207737
 31
0.0
  0
LINE
  5
94
330
1F
100
AcDbEntity
  8
0
  6
Continuous
 62
     7
100
AcDbLine
 10
212.6662268990639
 20
185.9522074687
 30
0.0
 11
212.6662268990639
 21
186.9522076326
 31
0.0
  0
CIRCLE
  5
95
330
1F
100
AcDbEntity
  8
0
  6
Continuous
 62
     7
100
AcDbCircle
 10
198.7662273643639
 20
176.9522074908
 30
0.0
 40
1.250000000027285
  0
LINE
  5
96
330
1F
100
AcDbEntity
  8
0
  6
Continuous
 62
     7
100
AcDbLine
 10
199.7662283236639
 20
177.5295577704
 30
0.0
 11
198.766226297064
 21
178.1069080339
 31
0.0
  0
LINE
  5
97
330
1F
100
AcDbEntity
  8
0
  6
Continuous
 62
     7
100
AcDbLine
 10
198.766226297064
 20
178.1069080339
 30
0.0
 11
197.7662279958639
 21
177.5295577704
 31
0.0
  0
LINE
  5
98
330
1F
100
AcDbEntity
  8
0
  6
Continuous
 62
     7
100
AcDbLine
 10
197.7662279958639
 20
177.5295577704
 30
0.0
 11
197.7662279958639
 21
176.3748572434
 31
0.0
  0
LINE
  5
99
330
1F
100
AcDbEntity
  8
0
  6
Continuous
 62
     7
100
AcDbLine
 10
197.7662279958639
 20
176.3748572434
 30
0.0
 11
198.766226297064
 21
175.79750698
 31
0.0
  0
LINE
  5
9A
330
1F
100
AcDbEntity
  8
0
  6
Continuous
 62
     7
100
AcDbLine
 10
199.7662283236639
 20
176.3748572434
 30
0.0
 11
198.766226297064
 21
175.79750698
 31
0.0
  0
LINE
  5
9B
330
1F
100
AcDbEntity
  8
0
  6
Continuous
 62
     7
100
AcDbLine
 10
199.7662283236639
 20
176.3748572434
 30
0.0
 11
199.7662283236639
 21
177.5295577704
 31
0.0
  0
CIRCLE
  5
9C
330
1F
100
AcDbEntity
  8
0
  6
Continuous
 62
     7
100
AcDbCircle
 10
198.7662273643639
 20
176.9522074908
 30
0.0
 40
1.400000000000006
  0
CIRCLE
  5
9D
330
1F
100
AcDbEntity
  8
0
  6
Continuous
 62
     7
100
AcDbCircle
 10
216.5662273643639
 20
176.9522074908
 30
0.0
 40
1.250000000027285
  0
CIRCLE
  5
9E
330
1F
100
AcDbEntity
  8
0
  6
Continuous
 62
     7
100
AcDbCircle
 10
216.5662273643639
 20
176.9522074908
 30
0.0
 40
1.400000000000006
  0
LINE
  5
9F
330
1F
100
AcDbEntity
  8
0
  6
Continuous
 62
     7
100
AcDbLine
 10
217.5662269571639
 20
177.5295577704
 30
0.0
 11
216.5662277246639
 21
178.1069080339
 31
0.0
  0
LINE
  5
A0
330
1F
100
AcDbEntity
  8
0
  6
Continuous
 62
     7
100
AcDbLine
 10
216.5662277246639
 20
178.1069080339
 30
0.0
 11
215.5662275606639
 21
177.5295577704
 31
0.0
  0
LINE
  5
A1
330
1F
100
AcDbEntity
  8
0
  6
Continuous
 62
     7
100
AcDbLine
 10
215.5662275606639
 20
177.5295577704
 30
0.0
 11
215.5662275606639
 21
176.3748572434
 31
0.0
  0
LINE
  5
A2
330
1F
100
AcDbEntity
  8
0
  6
Continuous
 62
     7
100
AcDbLine
 10
215.5662275606639
 20
176.3748572434
 30
0.0
 11
216.5662277246639
 21
175.79750698
 31
0.0
  0
LINE
  5
A3
330
1F
100
AcDbEntity
  8
0
  6
Continuous
 62
     7
100
AcDbLine
 10
217.5662269571639
 20
176.3748572434
 30
0.0
 11
216.5662277246639
 21
175.79750698
 31
0.0
  0
LINE
  5
A4
330
1F
100
AcDbEntity
  8
0
  6
Continuous
 62
     7
100
AcDbLine
 10
217.5662269571639
 20
176.3748572434
 30
0.0
 11
217.5662269571639
 21
177.5295577704
 31
0.0
  0
LINE
  5
A5
330
1F
100
AcDbEntity
  8
0
  6
Continuous
 62
     7
100
AcDbLine
 10
214.1662280762639
 20
151.9522074836
 30
0.0
 11
214.1662280762639
 21
152.4522066343
 31
0.0
  0
LINE
  5
A6
330
1F
100
AcDbEntity
  8
0
  6
Continuous
 62
     7
100
AcDbLine
 10
213.0662280822639
 20
172.9522076662
 30
0.0
 11
212.2662275785639
 21
172.9522076662
 31
0.0
  0
LINE
  5
A7
330
1F
100
AcDbEntity
  8
0
  6
Continuous
 62
     7
100
AcDbLine
 10
214.1662280762639
 20
151.9522074836
 30
0.0
 11
212.2662275785639
 21
151.9522074836
 31
0.0
  0
LINE
  5
A8
330
1F
100
AcDbEntity
  8
0
  6
Continuous
 62
     7
100
AcDbLine
 10
218.1662278006639
 20
152.4522066343
 30
0.0
 11
218.1662278006639
 21
151.9522074836
 31
0.0
  0
LINE
  5
A9
330
1F
100
AcDbEntity
  8
0
  6
Continuous
 62
     7
100
AcDbLine
 10
218.1662278006639
 20
151.9522074836
 30
0.0
 11
214.1662280762639
 21
151.9522074836
 31
0.0
  0
LINE
  5
AA
330
1F
100
AcDbEntity
  8
0
  6
Continuous
 62
     7
100
AcDbLine
 10
200.1662276441639
 20
152.4522066343
 30
0.0
 11
200.1662276441639
 21
151.9522074836
 31
0.0
  0
LINE
  5
AB
330
1F
100
AcDbEntity
  8
0
  6
Continuous
 62
     7
100
AcDbLine
 10
196.1662269884639
 20
151.9522074836
 30
0.0
 11
196.1662269884639
 21
152.4522066343
 31
0.0
  0
LINE
  5
AC
330
1F
100
AcDbEntity
  8
0
  6
Continuous
 62
     7
100
AcDbLine
 10
200.1662276441639
 20
151.9522074836
 30
0.0
 11
196.1662269884639
 21
151.9522074836
 31
0.0
  0
LINE
  5
AD
330
1F
100
AcDbEntity
  8
0
  6
Continuous
 62
     7
100
AcDbLine
 10
202.266227802064
 20
151.9522074836
 30
0.0
 11
200.1662276441639
 21
151.9522074836
 31
0.0
  0
LINE
  5
AE
330
1F
100
AcDbEntity
  8
0
  6
Continuous
 62
     7
100
AcDbLine
 10
212.2662275785639
 20
185.9522074687
 30
0.0
 11
212.2662275785639
 21
151.9522074836
 31
0.0
  0
LINE
  5
AF
330
1F
100
AcDbEntity
  8
0
  6
Continuous
 62
     7
100
AcDbLine
 10
202.266227802064
 20
185.9522074687
 30
0.0
 11
202.266227802064
 21
151.9522074836
 31
0.0
  0
LINE
  5
B0
330
1F
100
AcDbEntity
  8
0
  6
Continuous
 62
     7
100
AcDbLine
 10
212.2662275785639
 20
151.9522074836
 30
0.0
 11
202.266227802064
 21
151.9522074836
 31
0.0
  0
LINE
  5
B1
330
1F
100
AcDbEntity
  8
0
  6
Continuous
 62
     7
100
AcDbLine
 10
212.2662275785639
 20
185.9522074687
 30
0.0
 11
202.266227802064
 21
185.9522074687
 31
0.0
  0
LINE
  5
B2
330
1F
100
AcDbEntity
  8
0
  6
Continuous
 62
     7
100
AcDbLine
 10
213.0662280822639
 20
174.9522075283
 30
0.0
 11
212.2662275785639
 21
174.9522075283
 31
0.0
  0
LINE
  5
B3
330
1F
100
AcDbEntity
  8
0
  6
Continuous
 62
     7
100
AcDbLine
 10
212.2662275785639
 20
185.9522074687
 30
0.0
 11
213.0662280822639
 21
185.9522074687
 31
0.0
  0
LINE
  5
B4
330
1F
100
AcDbEntity
  8
0
  6
Continuous
 62
     8
100
AcDbLine
 10
213.0662373954639
 20
152.9522076476
 30
0.0
 11
221.0662377754639
 21
152.9522076476
 31
0.0
  0
LINE
  5
B5
330
1F
100
AcDbEntity
  8
0
  6
Continuous
 62
     8
100
AcDbLine
 10
221.0662377754639
 20
200.9522080648
 30
0.0
 11
213.0662373954639
 21
200.9522080648
 31
0.0
  0
LINE
  5
B6
330
1F
100
AcDbEntity
  8
0
  6
Continuous
 62
     8
100
AcDbLine
 10
221.0662377754639
 20
152.9522076476
 30
0.0
 11
221.0662377754639
 21
200.9522080648
 31
0.0
  0
LINE
  5
B7
330
1F
100
AcDbEntity
  8
0
  6
Continuous
 62
     8
100
AcDbLine
 10
221.0662377754639
 20
200.9522080648
 30
0.0
 11
221.0662377754639
 21
201.4522072154
 31
0.0
  0
LINE
  5
B8
330
1F
100
AcDbEntity
  8
0
  6
Continuous
 62
     8
100
AcDbLine
 10
221.0662377754639
 20
200.9522080648
 30
0.0
 11
221.5662369260639
 21
200.9522080648
 31
0.0
  0
LINE
  5
B9
330
1F
100
AcDbEntity
  8
0
  6
Continuous
 62
     8
100
AcDbLine
 10
221.0662377754639
 20
152.9522076476
 30
0.0
 11
221.5662369260639
 21
152.9522076476
 31
0.0
  0
LINE
  5
BA
330
1F
100
AcDbEntity
  8
0
  6
Continuous
 62
     8
100
AcDbLine
 10
221.0662377754639
 20
152.9522076476
 30
0.0
 11
221.0662377754639
 21
152.4522066343
 31
0.0
  0
LINE
  5
BB
330
1F
100
AcDbEntity
  8
0
  6
Continuous
 62
     8
100
AcDbLine
 10
194.2662358040639
 20
152.9522076476
 30
0.0
 11
202.2662371153639
 21
152.9522076476
 31
0.0
  0
LINE
  5
BC
330
1F
100
AcDbEntity
  8
0
  6
Continuous
 62
     8
100
AcDbLine
 10
194.2662358040639
 20
200.9522080648
 30
0.0
 11
194.2662358040639
 21
152.9522076476
 31
0.0
  0
LINE
  5
BD
330
1F
100
AcDbEntity
  8
0
  6
Continuous
 62
     8
100
AcDbLine
 10
202.2662371153639
 20
200.9522080648
 30
0.0
 11
194.2662358040639
 21
200.9522080648
 31
0.0
  0
LINE
  5
BE
330
1F
100
AcDbEntity
  8
0
  6
Continuous
 62
     8
100
AcDbLine
 10
194.2662358040639
 20
152.4522066343
 30
0.0
 11
194.2662358040639
 21
152.9522076476
 31
0.0
  0
LINE
  5
BF
330
1F
100
AcDbEntity
  8
0
  6
Continuous
 62
     8
100
AcDbLine
 10
193.7662385160639
 20
200.9522080648
 30
0.0
 11
194.2662358040639
 21
200.9522080648
 31
0.0
  0
LINE
  5
C0
330
1F
100
AcDbEntity
  8
0
  6
Continuous
 62
     8
100
AcDbLine
 10
193.7662385160639
 20
152.9522076476
 30
0.0
 11
194.2662358040639
 21
152.9522076476
 31
0.0
  0
LINE
  5
C1
330
1F
100
AcDbEntity
  8
0
  6
Continuous
 62
     8
100
AcDbLine
 10
194.2662358040639
 20
200.9522080648
 30
0.0
 11
194.2662358040639
 21
201.4522072154
 31
0.0
  0
LINE
  5
C2
330
1F
100
AcDbEntity
  8
0
  6
Continuous
 62
     8
100
AcDbLine
 10
202.266227802064
 20
191.9522075209
 30
0.0
 11
202.6662271225639
 21
191.9522075209
 31
0.0
  0
LINE
  5
C3
330
1F
100
AcDbEntity
  8
0
  6
Continuous
 62
     8
100
AcDbLine
 10
202.6662271225639
 20
193.9522069174
 30
0.0
 11
202.266227802064
 21
193.9522069174
 31
0.0
  0
LINE
  5
C4
330
1F
100
AcDbEntity
  8
0
  6
Continuous
 62
     8
100
AcDbLine
 10
212.6662268990639
 20
191.9522075209
 30
0.0
 11
213.0662280822639
 21
191.9522075209
 31
0.0
  0
LINE
  5
C5
330
1F
100
AcDbEntity
  8
0
  6
Continuous
 62
     8
100
AcDbLine
 10
213.0662280822639
 20
193.9522069174
 30
0.0
 11
212.6662268990639
 21
193.9522069174
 31
0.0
  0
LINE
  5
C6
330
1F
100
AcDbEntity
  8
0
  6
Continuous
 62
     8
100
AcDbLine
 10
212.2662275785639
 20
177.7522074867
 30
0.0
 11
213.0662280822639
 21
177.7522074867
 31
0.0
  0
LINE
  5
C7
330
1F
100
AcDbEntity
  8
0
  6
Continuous
 62
     7
100
AcDbLine
 10
-56.19963907698425
 20
252.8748731404
 30
0.0
 11
-56.62463509548426
 21
252.8748731404
 31
0.0
  0
LINE
  5
C8
330
1F
100
AcDbEntity
  8
0
  6
Continuous
 62
     7
100
AcDbLine
 10
-56.62463509548426
 20
250.0748741716
 30
0.0
 11
-56.19963907698425
 21
250.0748741716
 31
0.0
  0
LINE
  5
C9
330
1F
100
AcDbEntity
  8
0
  6
Continuous
 62
     7
100
AcDbLine
 10
-56.62463509548426
 20
252.8748731404
 30
0.0
 11
-56.69963263968426
 21
252.7248743265
 31
0.0
  0
LINE
  5
CA
330
1F
100
AcDbEntity
  8
0
  6
Continuous
 62
     7
100
AcDbLine
 10
-56.69963263968426
 20
250.2248729854
 30
0.0
 11
-56.62463509548426
 21
250.0748741716
 31
0.0
  0
LINE
  5
CB
330
1F
100
AcDbEntity
  8
0
  6
Continuous
 62
     7
100
AcDbLine
 10
-56.19963907698425
 20
270.6748727053
 30
0.0
 11
-56.62463509548426
 21
270.6748727053
 31
0.0
  0
LINE
  5
CC
330
1F
100
AcDbEntity
  8
0
  6
Continuous
 62
     7
100
AcDbLine
 10
-56.62463509548426
 20
267.8748737365
 30
0.0
 11
-56.19963907698425
 21
267.8748737365
 31
0.0
  0
LINE
  5
CD
330
1F
100
AcDbEntity
  8
0
  6
Continuous
 62
     7
100
AcDbLine
 10
-56.62463509548426
 20
270.6748727053
 30
0.0
 11
-56.69963263968426
 21
270.5248729601
 31
0.0
  0
LINE
  5
CE
330
1F
100
AcDbEntity
  8
0
  6
Continuous
 62
     7
100
AcDbLine
 10
-56.69963263968426
 20
268.0248725503
 30
0.0
 11
-56.62463509548426
 21
267.8748737365
 31
0.0
  0
LINE
  5
CF
330
1F
100
AcDbEntity
  8
0
  6
Continuous
 62
     7
100
AcDbLine
 10
-19.19963487488426
 20
254.374872455
 30
0.0
 11
-19.19963487488426
 21
255.9748734623
 31
0.0
  0
LINE
  5
D0
330
1F
100
AcDbEntity
  8
0
  6
Continuous
 62
     7
100
AcDbLine
 10
-30.19963481528426
 20
255.9748734623
 30
0.0
 11
-30.19963481528426
 21
254.374872455
 31
0.0
  0
LINE
  5
D1
330
1F
100
AcDbEntity
  8
0
  6
Continuous
 62
     7
100
AcDbLine
 10
30.80036400751574
 20
265.074872905
 30
0.0
 11
30.80036400751574
 21
263.9748729109
 31
0.0
  0
LINE
  5
D2
330
1F
100
AcDbEntity
  8
0
  6
Continuous
 62
     7
100
AcDbLine
 10
41.80036394791574
 20
263.9748729109
 30
0.0
 11
41.80036394791574
 21
265.074872905
 31
0.0
  0
LINE
  5
D3
330
1F
100
AcDbEntity
  8
0
  6
Continuous
 62
     7
100
AcDbLine
 10
-29.69963752728426
 20
254.374872455
 30
0.0
 11
-29.69963752728426
 21
248.3748714715
 31
0.0
  0
LINE
  5
D4
330
1F
100
AcDbEntity
  8
0
  6
Continuous
 62
     7
100
AcDbLine
 10
-19.69963588818426
 20
248.3748714715
 30
0.0
 11
-19.69963588818426
 21
254.374872455
 31
0.0
  0
LINE
  5
D5
330
1F
100
AcDbEntity
  8
0
  6
Continuous
 62
     7
100
AcDbLine
 10
41.30036479731574
 20
265.074872905
 30
0.0
 11
41.30036479731574
 21
271.0748729571
 31
0.0
  0
LINE
  5
D6
330
1F
100
AcDbEntity
  8
0
  6
Continuous
 62
     7
100
AcDbLine
 10
31.30036408951574
 20
271.0748729571
 30
0.0
 11
31.30036408951574
 21
265.074872905
 31
0.0
  0
LINE
  5
D7
330
1F
100
AcDbEntity
  8
0
  6
Continuous
 62
     7
100
AcDbLine
 10
93.30036587011574
 20
249.9748836547
 30
0.0
 11
93.80036688341573
 21
249.9748836547
 31
0.0
  0
LINE
  5
D8
330
1F
100
AcDbEntity
  8
0
  6
Continuous
 62
     7
100
AcDbLine
 10
93.80036688341573
 20
252.9748822838
 30
0.0
 11
93.30036587011574
 21
252.9748822838
 31
0.0
  0
LINE
  5
D9
330
1F
100
AcDbEntity
  8
0
  6
Continuous
 62
     7
100
AcDbLine
 10
93.80036688341573
 20
249.9748836547
 30
0.0
 11
94.30036044611575
 21
250.1088562697
 31
0.0
  0
LINE
  5
DA
330
1F
100
AcDbEntity
  8
0
  6
Continuous
 62
     7
100
AcDbLine
 10
94.30036044611575
 20
252.8409096688
 30
0.0
 11
93.80036688341573
 21
252.9748822838
 31
0.0
  0
LINE
  5
DB
330
1F
100
AcDbEntity
  8
0
  6
Continuous
 62
     7
100
AcDbLine
 10
93.80036688341573
 20
270.7748725354
 30
0.0
 11
93.30036587011574
 21
270.7748725354
 31
0.0
  0
LINE
  5
DC
330
1F
100
AcDbEntity
  8
0
  6
Continuous
 62
     7
100
AcDbLine
 10
93.30036587011574
 20
267.7748720437
 30
0.0
 11
93.80036688341573
 21
267.7748720437
 31
0.0
  0
LINE
  5
DD
330
1F
100
AcDbEntity
  8
0
  6
Continuous
 62
     7
100
AcDbLine
 10
93.80036688341573
 20
267.7748720437
 30
0.0
 11
94.30036044611575
 21
267.908848384
 31
0.0
  0
LINE
  5
DE
330
1F
100
AcDbEntity
  8
0
  6
Continuous
 62
     7
100
AcDbLine
 10
94.30036044611575
 20
270.6408980578
 30
0.0
 11
93.80036688341573
 21
270.7748725354
 31
0.0
  0
LINE
  5
DF
330
1F
100
AcDbEntity
  8
0
  6
Continuous
 62
     7
100
AcDbLine
 10
-56.19963907698425
 20
265.7748828917
 30
0.0
 11
-56.19963907698425
 21
273.7748832717
 31
0.0
  0
LINE
  5
E0
330
1F
100
AcDbEntity
  8
0
  6
Continuous
 62
     7
100
AcDbLine
 10
-55.69963806378426
 20
265.7748828917
 30
0.0
 11
-56.19963907698425
 21
265.7748828917
 31
0.0
  0
LINE
  5
E1
330
1F
100
AcDbEntity
  8
0
  6
Continuous
 62
     7
100
AcDbLine
 10
47.80036493141574
 20
272.5748825162
 30
0.0
 11
-36.19963579878426
 21
272.5748825162
 31
0.0
  0
LINE
  5
E2
330
1F
100
AcDbEntity
  8
0
  6
Continuous
 62
     7
100
AcDbLine
 10
-36.19963579878426
 20
272.5748825162
 30
0.0
 11
-36.19963579878426
 21
265.7748828917
 31
0.0
  0
LINE
  5
E3
330
1F
100
AcDbEntity
  8
0
  6
Continuous
 62
     7
100
AcDbLine
 10
-36.19963579878426
 20
265.7748828917
 30
0.0
 11
-55.69963806378426
 21
265.7748828917
 31
0.0
  0
LINE
  5
E4
330
1F
100
AcDbEntity
  8
0
  6
Continuous
 62
     7
100
AcDbLine
 10
92.80036485691573
 20
265.7748828917
 30
0.0
 11
47.80036493141574
 21
265.7748828917
 31
0.0
  0
LINE
  5
E5
330
1F
100
AcDbEntity
  8
0
  6
Continuous
 62
     7
100
AcDbLine
 10
47.80036493141574
 20
265.7748828917
 30
0.0
 11
47.80036493141574
 21
272.5748825162
 31
0.0
  0
ARC
  5
E6
330
1F
100
AcDbEntity
  8
0
  6
Continuous
 62
     7
100
AcDbCircle
 10
-55.69963592298426
 20
273.7748828607
 30
0.0
 40
0.5
100
AcDbArc
 50
90.0
 51
180.0
  0
LINE
  5
E7
330
1F
100
AcDbEntity
  8
0
  6
Continuous
 62
     7
100
AcDbLine
 10
-55.69963806378426
 20
274.2748824223
 30
0.0
 11
92.80036485691573
 21
274.2748824223
 31
0.0
  0
LINE
  5
E8
330
1F
100
AcDbEntity
  8
0
  6
Continuous
 62
     7
100
AcDbLine
 10
93.30036587011574
 20
273.7748832717
 30
0.0
 11
93.30036587011574
 21
265.7748828917
 31
0.0
  0
LINE
  5
E9
330
1F
100
AcDbEntity
  8
0
  6
Continuous
 62
     7
100
AcDbLine
 10
93.30036587011574
 20
265.7748828917
 30
0.0
 11
92.80036485691573
 21
265.7748828917
 31
0.0
  0
ARC
  5
EA
330
1F
100
AcDbEntity
  8
0
  6
Continuous
 62
     7
100
AcDbCircle
 10
92.80036407701573
 20
273.7748828607
 30
0.0
 40
0.5000000000000284
100
AcDbArc
 50
0.0
 51
90.0
  0
LINE
  5
EB
330
1F
100
AcDbEntity
  8
0
  6
Continuous
 62
     7
100
AcDbLine
 10
-36.19963579878426
 20
248.1748829871
 30
0.0
 11
47.80036493141574
 21
248.1748829871
 31
0.0
  0
LINE
  5
EC
330
1F
100
AcDbEntity
  8
0
  6
Continuous
 62
     7
100
AcDbLine
 10
47.80036493141574
 20
248.1748829871
 30
0.0
 11
47.80036493141574
 21
254.9748826116
 31
0.0
  0
LINE
  5
ED
330
1F
100
AcDbEntity
  8
0
  6
Continuous
 62
     7
100
AcDbLine
 10
47.80036493141574
 20
254.9748826116
 30
0.0
 11
48.80036323261574
 21
254.9748826116
 31
0.0
  0
LINE
  5
EE
330
1F
100
AcDbEntity
  8
0
  6
Continuous
 62
     7
100
AcDbLine
 10
72.30036429061573
 20
254.9748826116
 30
0.0
 11
92.80036485691573
 21
254.9748826116
 31
0.0
  0
LINE
  5
EF
330
1F
100
AcDbEntity
  8
0
  6
Continuous
 62
     7
100
AcDbLine
 10
-37.19963410008426
 20
254.9748826116
 30
0.0
 11
-36.19963579878426
 21
254.9748826116
 31
0.0
  0
LINE
  5
F0
330
1F
100
AcDbEntity
  8
0
  6
Continuous
 62
     7
100
AcDbLine
 10
-36.19963579878426
 20
254.9748826116
 30
0.0
 11
-36.19963579878426
 21
248.1748829871
 31
0.0
  0
LINE
  5
F1
330
1F
100
AcDbEntity
  8
0
  6
Continuous
 62
     7
100
AcDbLine
 10
92.80036485691573
 20
246.4748840123
 30
0.0
 11
-55.69963806378426
 21
246.4748840123
 31
0.0
  0
LINE
  5
F2
330
1F
100
AcDbEntity
  8
0
  6
Continuous
 62
     7
100
AcDbLine
 10
93.30036587011574
 20
254.9748826116
 30
0.0
 11
93.30036587011574
 21
246.9748813003
 31
0.0
  0
LINE
  5
F3
330
1F
100
AcDbEntity
  8
0
  6
Continuous
 62
     7
100
AcDbLine
 10
92.80036485691573
 20
254.9748826116
 30
0.0
 11
93.30036587011574
 21
254.9748826116
 31
0.0
  0
ARC
  5
F4
330
1F
100
AcDbEntity
  8
0
  6
Continuous
 62
     7
100
AcDbCircle
 10
92.80036407701573
 20
246.9748828607
 30
0.0
 40
0.5
100
AcDbArc
 50
270.0
 51
0.0
  0
ARC
  5
F5
330
1F
100
AcDbEntity
  8
0
  6
Continuous
 62
     7
100
AcDbCircle
 10
-55.69963592298426
 20
246.9748828607
 30
0.0
 40
0.5
100
AcDbArc
 50
180.0
 51
270.0
  0
LINE
  5
F6
330
1F
100
AcDbEntity
  8
0
  6
Continuous
 62
     7
100
AcDbLine
 10
-56.19963907698425
 20
246.9748813003
 30
0.0
 11
-56.19963907698425
 21
254.9748826116
 31
0.0
  0
LINE
  5
F7
330
1F
100
AcDbEntity
  8
0
  6
Continuous
 62
     7
100
AcDbLine
 10
86.30036658541573
 20
255.3748726189
 30
0.0
 11
91.30036181701576
 21
255.3748726189
 31
0.0
  0
LINE
  5
F8
330
1F
100
AcDbEntity
  8
0
  6
Continuous
 62
     7
100
AcDbLine
 10
91.30036181701576
 20
255.3748726189
 30
0.0
 11
91.30036181701576
 21
254.9748732984
 31
0.0
  0
LINE
  5
F9
330
1F
100
AcDbEntity
  8
0
  6
Continuous
 62
     7
100
AcDbLine
 10
78.30036527411573
 20
255.3748726189
 30
0.0
 11
86.30036658541573
 21
255.3748726189
 31
0.0
  0
LINE
  5
FA
330
1F
100
AcDbEntity
  8
0
  6
Continuous
 62
     7
100
AcDbLine
 10
73.30036259191573
 20
254.9748732984
 30
0.0
 11
73.30036259191573
 21
255.3748726189
 31
0.0
  0
LINE
  5
FB
330
1F
100
AcDbEntity
  8
0
  6
Continuous
 62
     7
100
AcDbLine
 10
73.30036259191573
 20
255.3748726189
 30
0.0
 11
78.30036527411573
 21
255.3748726189
 31
0.0
  0
LINE
  5
FC
330
1F
100
AcDbEntity
  8
0
  6
Continuous
 62
     7
100
AcDbLine
 10
72.30036429061573
 20
255.3748726189
 30
0.0
 11
73.30036259191573
 21
255.3748726189
 31
0.0
  0
LINE
  5
FD
330
1F
100
AcDbEntity
  8
0
  6
Continuous
 62
     7
100
AcDbLine
 10
91.30036181701576
 20
265.7748735785
 30
0.0
 11
91.30036181701576
 21
265.3748723953
 31
0.0
  0
LINE
  5
FE
330
1F
100
AcDbEntity
  8
0
  6
Continuous
 62
     7
100
AcDbLine
 10
91.30036181701576
 20
265.3748723953
 30
0.0
 11
86.30036658541573
 21
265.3748723953
 31
0.0
  0
LINE
  5
FF
330
1F
100
AcDbEntity
  8
0
  6
Continuous
 62
     7
100
AcDbLine
 10
78.30036527411573
 20
265.3748723953
 30
0.0
 11
86.30036658541573
 21
265.3748723953
 31
0.0
  0
LINE
  5
100
330
1F
100
AcDbEntity
  8
0
  6
Continuous
 62
     7
100
AcDbLine
 10
73.30036259191573
 20
265.3748723953
 30
0.0
 11
73.30036259191573
 21
265.7748735785
 31
0.0
  0
LINE
  5
101
330
1F
100
AcDbEntity
  8
0
  6
Continuous
 62
     7
100
AcDbLine
 10
78.30036527411573
 20
265.3748723953
 30
0.0
 11
73.30036259191573
 21
265.3748723953
 31
0.0
  0
LINE
  5
102
330
1F
100
AcDbEntity
  8
0
  6
Continuous
 62
     7
100
AcDbLine
 10
73.30036259191573
 20
265.3748723953
 30
0.0
 11
72.30036429061573
 21
265.3748723953
 31
0.0
  0
LINE
  5
103
330
1F
100
AcDbEntity
  8
0
  6
Continuous
 62
     7
100
AcDbLine
 10
-47.69963675248426
 20
265.3748723953
 30
0.0
 11
-45.69963269928426
 21
265.3748723953
 31
0.0
  0
LINE
  5
104
330
1F
100
AcDbEntity
  8
0
  6
Continuous
 62
     7
100
AcDbLine
 10
-52.69963943468426
 20
265.3748723953
 30
0.0
 11
-52.69963943468426
 21
265.7748735785
 31
0.0
  0
LINE
  5
105
330
1F
100
AcDbEntity
  8
0
  6
Continuous
 62
     7
100
AcDbLine
 10
-47.69963675248426
 20
265.3748723953
 30
0.0
 11
-52.69963943468426
 21
265.3748723953
 31
0.0
  0
LINE
  5
106
330
1F
100
AcDbEntity
  8
0
  6
Continuous
 62
     7
100
AcDbLine
 10
-56.62463509548426
 20
252.8748731404
 30
0.0
 11
-56.62463509548426
 21
250.0748741716
 31
0.0
  0
LINE
  5
107
330
1F
100
AcDbEntity
  8
0
  6
Continuous
 62
     7
100
AcDbLine
 10
-56.69963263968426
 20
252.7248743265
 30
0.0
 11
-56.69963263968426
 21
250.2248729854
 31
0.0
  0
LINE
  5
108
330
1F
100
AcDbEntity
  8
0
  6
Continuous
 62
     7
100
AcDbLine
 10
-56.62463509548426
 20
270.6748727053
 30
0.0
 11
-56.62463509548426
 21
267.8748737365
 31
0.0
  0
LINE
  5
109
330
1F
100
AcDbEntity
  8
0
  6
Continuous
 62
     7
100
AcDbLine
 10
-56.69963263968426
 20
270.5248729601
 30
0.0
 11
-56.69963263968426
 21
268.0248725503
 31
0.0
  0
LINE
  5
10A
330
1F
100
AcDbEntity
  8
0
  6
Continuous
 62
     7
100
AcDbLine
 10
-19.19963487488426
 20
254.374872455
 30
0.0
 11
-30.19941129788426
 21
254.374872455
 31
0.0
  0
LINE
  5
10B
330
1F
100
AcDbEntity
  8
0
  6
Continuous
 62
     7
100
AcDbLine
 10
30.80036400751574
 20
265.074872905
 30
0.0
 11
41.80036394791574
 21
265.074872905
 31
0.0
  0
LINE
  5
10C
330
1F
100
AcDbEntity
  8
0
  6
Continuous
 62
     7
100
AcDbLine
 10
-19.92348113168426
 20
248.3748714715
 30
0.0
 11
-19.69963588818426
 21
248.3748714715
 31
0.0
  0
LINE
  5
10D
330
1F
100
AcDbEntity
  8
0
  6
Continuous
 62
     7
100
AcDbLine
 10
-29.69963752728426
 20
248.3748714715
 30
0.0
 11
-19.92348113168426
 21
248.3748714715
 31
0.0
  0
LINE
  5
10E
330
1F
100
AcDbEntity
  8
0
  6
Continuous
 62
     7
100
AcDbLine
 10
39.75714839001574
 20
271.0748729571
 30
0.0
 11
31.30036408951574
 21
271.0748729571
 31
0.0
  0
LINE
  5
10F
330
1F
100
AcDbEntity
  8
0
  6
Continuous
 62
     7
100
AcDbLine
 10
41.30036479731574
 20
271.0748729571
 30
0.0
 11
39.75714839001574
 21
271.0748729571
 31
0.0
  0
LINE
  5
110
330
1F
100
AcDbEntity
  8
0
  6
Continuous
 62
     7
100
AcDbLine
 10
93.80036688341573
 20
250.8519212991
 30
0.0
 11
93.80036688341573
 21
252.9748822838
 31
0.0
  0
LINE
  5
111
330
1F
100
AcDbEntity
  8
0
  6
Continuous
 62
     7
100
AcDbLine
 10
93.80036688341573
 20
249.9748836547
 30
0.0
 11
93.80036688341573
 21
250.8519212991
 31
0.0
  0
LINE
  5
112
330
1F
100
AcDbEntity
  8
0
  6
Continuous
 62
     7
100
AcDbLine
 10
94.30036044611575
 20
250.9075622349
 30
0.0
 11
94.30036044611575
 21
252.8409096688
 31
0.0
  0
LINE
  5
113
330
1F
100
AcDbEntity
  8
0
  6
Continuous
 62
     7
100
AcDbLine
 10
94.30036044611575
 20
250.9075622349
 30
0.0
 11
94.30036044611575
 21
250.1088562697
 31
0.0
  0
LINE
  5
114
330
1F
100
AcDbEntity
  8
0
  6
Continuous
 62
     7
100
AcDbLine
 10
93.80036688341573
 20
270.7748725354
 30
0.0
 11
93.80036688341573
 21
267.7748720437
 31
0.0
  0
LINE
  5
115
330
1F
100
AcDbEntity
  8
0
  6
Continuous
 62
     7
100
AcDbLine
 10
94.30036044611575
 20
270.6408980578
 30
0.0
 11
94.30036044611575
 21
267.908848384
 31
0.0
  0
LINE
  5
116
330
1F
100
AcDbEntity
  8
0
  6
Continuous
 62
     7
100
AcDbLine
 10
-14.99963455898426
 20
255.9748734623
 30
0.0
 11
-17.69963556038426
 21
255.9748734623
 31
0.0
  0
LINE
  5
117
330
1F
100
AcDbEntity
  8
0
  6
Continuous
 62
     7
100
AcDbLine
 10
-14.99963455898426
 20
263.7748732507
 30
0.0
 11
-14.99963455898426
 21
255.9748734623
 31
0.0
  0
LINE
  5
118
330
1F
100
AcDbEntity
  8
0
  6
Continuous
 62
     7
100
AcDbLine
 10
-34.19963547098426
 20
263.7748732507
 30
0.0
 11
-14.99963455898426
 21
263.7748732507
 31
0.0
  0
LINE
  5
119
330
1F
100
AcDbEntity
  8
0
  6
Continuous
 62
     7
100
AcDbLine
 10
-34.19963547098426
 20
266.8748735725
 30
0.0
 11
-34.19963547098426
 21
263.7748732507
 31
0.0
  0
LINE
  5
11A
330
1F
100
AcDbEntity
  8
0
  6
Continuous
 62
     7
100
AcDbLine
 10
-30.19963481528426
 20
270.8748732969
 30
0.0
 11
-34.19963547098426
 21
266.8748735725
 31
0.0
  0
LINE
  5
11B
330
1F
100
AcDbEntity
  8
0
  6
Continuous
 62
     7
100
AcDbLine
 10
25.30036403731575
 20
270.8748732969
 30
0.0
 11
-30.19963481528426
 21
270.8748732969
 31
0.0
  0
LINE
  5
11C
330
1F
100
AcDbEntity
  8
0
  6
Continuous
 62
     7
100
AcDbLine
 10
29.30036376161574
 20
266.8748735725
 30
0.0
 11
25.30036403731575
 21
270.8748732969
 31
0.0
  0
LINE
  5
11D
330
1F
100
AcDbEntity
  8
0
  6
Continuous
 62
     7
100
AcDbLine
 10
29.30036376161574
 20
263.7748732507
 30
0.0
 11
29.30036376161574
 21
266.8748735725
 31
0.0
  0
LINE
  5
11E
330
1F
100
AcDbEntity
  8
0
  6
Continuous
 62
     7
100
AcDbLine
 10
26.60036415731574
 20
263.7748732507
 30
0.0
 11
29.30036376161574
 21
263.7748732507
 31
0.0
  0
LINE
  5
11F
330
1F
100
AcDbEntity
  8
0
  6
Continuous
 62
     7
100
AcDbLine
 10
26.60036415731574
 20
255.9748734623
 30
0.0
 11
26.60036415731574
 21
263.7748732507
 31
0.0
  0
LINE
  5
120
330
1F
100
AcDbEntity
  8
0
  6
Continuous
 62
     7
100
AcDbLine
 10
45.80036460351575
 20
255.9748734623
 30
0.0
 11
26.60036415731574
 21
255.9748734623
 31
0.0
  0
LINE
  5
121
330
1F
100
AcDbEntity
  8
0
  6
Continuous
 62
     7
100
AcDbLine
 10
45.80036460351575
 20
252.8748731404
 30
0.0
 11
45.80036460351575
 21
255.9748734623
 31
0.0
  0
LINE
  5
122
330
1F
100
AcDbEntity
  8
0
  6
Continuous
 62
     7
100
AcDbLine
 10
41.80036394791574
 20
248.8748724848
 30
0.0
 11
45.80036460351575
 21
252.8748731404
 31
0.0
  0
LINE
  5
123
330
1F
100
AcDbEntity
  8
0
  6
Continuous
 62
     7
100
AcDbLine
 10
-13.69963490468426
 20
248.8748724848
 30
0.0
 11
41.80036394791574
 21
248.8748724848
 31
0.0
  0
LINE
  5
124
330
1F
100
AcDbEntity
  8
0
  6
Continuous
 62
     7
100
AcDbLine
 10
-17.69963556038426
 20
255.9748734623
 30
0.0
 11
-17.69963556038426
 21
252.8748731404
 31
0.0
  0
LINE
  5
129
330
1F
100
AcDbEntity
  8
0
  6
Continuous
 62
     7
100
AcDbLine
 10
-17.69963556038426
 20
252.8748731404
 30
0.0
 11
-13.69963490468426
 21
248.8748724848
 31
0.0
  0
LINE
  5
132
330
1F
100
AcDbEntity
  8
0
  6
Continuous
 62
     7
100
AcDbLine
 10
48.80036323261574
 20
264.9748730748
 30
0.0
 11
72.30036429061573
 21
264.9748730748
 31
0.0
  0
LINE
  5
133
330
1F
100
AcDbEntity
  8
0
  6
Continuous
 62
     7
100
AcDbLine
 10
48.80036323261574
 20
254.9748732984
 30
0.0
 11
48.80036323261574
 21
255.9748734623
 31
0.0
  0
LINE
  5
134
330
1F
100
AcDbEntity
  8
0
  6
Continuous
 62
     7
100
AcDbLine
 10
48.80036323261574
 20
255.9748734623
 30
0.0
 11
26.80036428321574
 21
255.9748734623
 31
0.0
  0
LINE
  5
135
330
1F
100
AcDbEntity
  8
0
  6
Continuous
 62
     7
100
AcDbLine
 10
26.80036428321574
 20
255.9748734623
 30
0.0
 11
26.80036428321574
 21
263.9748729109
 31
0.0
  0
LINE
  5
136
330
1F
100
AcDbEntity
  8
0
  6
Continuous
 62
     7
100
AcDbLine
 10
26.80036428321574
 20
263.9748729109
 30
0.0
 11
48.80036323261574
 21
263.9748729109
 31
0.0
  0
LINE
  5
137
330
1F
100
AcDbEntity
  8
0
  6
Continuous
 62
     7
100
AcDbLine
 10
48.80036323261574
 20
263.9748729109
 30
0.0
 11
48.80036323261574
 21
264.9748730748
 31
0.0
  0
LINE
  5
138
330
1F
100
AcDbEntity
  8
0
  6
Continuous
 62
     7
100
AcDbLine
 10
48.80036323261574
 20
254.9748732984
 30
0.0
 11
72.30036429061573
 21
254.9748732984
 31
0.0
  0
LINE
  5
139
330
1F
100
AcDbEntity
  8
0
  6
Continuous
 62
     7
100
AcDbLine
 10
72.30036429061573
 20
264.9748730748
 30
0.0
 11
72.30036429061573
 21
254.9748732984
 31
0.0
  0
LINE
  5
13A
330
1F
100
AcDbEntity
  8
0
  6
Continuous
 62
     7
100
AcDbLine
 10
-37.19963410008426
 20
263.9748729109
 30
0.0
 11
-15.19963421928426
 21
263.9748729109
 31
0.0
  0
LINE
  5
13B
330
1F
100
AcDbEntity
  8
0
  6
Continuous
 62
     7
100
AcDbLine
 10
-15.19963421928426
 20
263.9748729109
 30
0.0
 11
-15.19963421928426
 21
255.9748734623
 31
0.0
  0
LINE
  5
13C
330
1F
100
AcDbEntity
  8
0
  6
Continuous
 62
     7
100
AcDbLine
 10
-15.19963421928426
 20
255.9748734623
 30
0.0
 11
-37.19963410008426
 21
255.9748734623
 31
0.0
  0
LINE
  5
13D
330
1F
100
AcDbEntity
  8
0
  6
Continuous
 62
     7
100
AcDbLine
 10
-37.19963410008426
 20
255.9748734623
 30
0.0
 11
-37.19963410008426
 21
254.9748732984
 31
0.0
  0
LINE
  5
13E
330
1F
100
AcDbEntity
  8
0
  6
Continuous
 62
     7
100
AcDbLine
 10
-56.19963907698425
 20
254.9748732984
 30
0.0
 11
-37.19963410008426
 21
254.9748732984
 31
0.0
  0
LINE
  5
13F
330
1F
100
AcDbEntity
  8
0
  6
Continuous
 62
     7
100
AcDbLine
 10
-56.19963907698425
 20
264.9748730748
 30
0.0
 11
-56.19963907698425
 21
254.9748732984
 31
0.0
  0
LINE
  5
140
330
1F
100
AcDbEntity
  8
0
  6
Continuous
 62
     7
100
AcDbLine
 10
-56.19963907698425
 20
264.9748730748
 30
0.0
 11
-37.19963410008426
 21
264.9748730748
 31
0.0
  0
LINE
  5
141
330
1F
100
AcDbEntity
  8
0
  6
Continuous
 62
     7
100
AcDbLine
 10
-37.19963410008426
 20
264.9748730748
 30
0.0
 11
-37.19963410008426
 21
263.9748729109
 31
0.0
  0
LINE
  5
142
330
1F
100
AcDbEntity
  8
0
  6
Continuous
 62
     7
100
AcDbLine
 10
48.80036323261574
 20
264.9748730748
 30
0.0
 11
41.80036394791574
 21
264.9748730748
 31
0.0
  0
LINE
  5
143
330
1F
100
AcDbEntity
  8
0
  6
Continuous
 62
     7
100
AcDbLine
 10
30.80036400751574
 20
264.9748730748
 30
0.0
 11
29.30036376161574
 21
264.9748730748
 31
0.0
  0
LINE
  5
145
330
1F
100
AcDbEntity
  8
0
  6
Continuous
 62
     7
100
AcDbLine
 10
-34.19963547098426
 20
264.9748730748
 30
0.0
 11
-37.19963410008426
 21
264.9748730748
 31
0.0
  0
LINE
  5
146
330
1F
100
AcDbEntity
  8
0
  6
Continuous
 62
     7
100
AcDbLine
 10
72.30036429061573
 20
264.9748730748
 30
0.0
 11
72.30036429061573
 21
265.7748735785
 31
0.0
  0
LINE
  5
147
330
1F
100
AcDbEntity
  8
0
  6
Continuous
 62
     7
100
AcDbLine
 10
60.30036232371575
 20
264.9748730748
 30
0.0
 11
60.30036232371575
 21
265.7748735785
 31
0.0
  0
LINE
  5
148
330
1F
100
AcDbEntity
  8
0
  6
Continuous
 62
     7
100
AcDbLine
 10
-36.19963579878426
 20
265.7748735785
 30
0.0
 11
-34.19963547098426
 21
265.7748735785
 31
0.0
  0
LINE
  5
14A
330
1F
100
AcDbEntity
  8
0
  6
Continuous
 62
     7
100
AcDbLine
 10
29.30036376161574
 20
265.7748735785
 30
0.0
 11
31.30036408951574
 21
265.7748735785
 31
0.0
  0
LINE
  5
14B
330
1F
100
AcDbEntity
  8
0
  6
Continuous
 62
     7
100
AcDbLine
 10
41.30036479731574
 20
265.7748735785
 30
0.0
 11
47.80036493141574
 21
265.7748735785
 31
0.0
  0
LINE
  5
14C
330
1F
100
AcDbEntity
  8
0
  6
Continuous
 62
     7
100
AcDbLine
 10
-45.69963269928426
 20
264.9748730748
 30
0.0
 11
-45.69963269928426
 21
265.7748735785
 31
0.0
  0
LINE
  5
14D
330
1F
100
AcDbEntity
  8
0
  6
Continuous
 62
     8
100
AcDbLine
 10
-56.19963907698425
 20
273.7748832717
 30
0.0
 11
-55.69963806378426
 21
273.7748832717
 31
0.0
  0
LINE
  5
14E
330
1F
100
AcDbEntity
  8
0
  6
Continuous
 62
     8
100
AcDbLine
 10
-55.69963806378426
 20
273.7748832717
 30
0.0
 11
-55.69963806378426
 21
265.7748828917
 31
0.0
  0
LINE
  5
14F
330
1F
100
AcDbEntity
  8
0
  6
Continuous
 62
     8
100
AcDbLine
 10
92.80036485691573
 20
273.7748832717
 30
0.0
 11
-55.69963806378426
 21
273.7748832717
 31
0.0
  0
LINE
  5
150
330
1F
100
AcDbEntity
  8
0
  6
Continuous
 62
     8
100
AcDbLine
 10
92.80036485691573
 20
265.7748828917
 30
0.0
 11
92.80036485691573
 21
273.7748832717
 31
0.0
  0
LINE
  5
151
330
1F
100
AcDbEntity
  8
0
  6
Continuous
 62
     8
100
AcDbLine
 10
-55.69963806378426
 20
273.7748832717
 30
0.0
 11
-55.69963806378426
 21
274.2748824223
 31
0.0
  0
LINE
  5
152
330
1F
100
AcDbEntity
  8
0
  6
Continuous
 62
     8
100
AcDbLine
 10
92.80036485691573
 20
273.7748832717
 30
0.0
 11
92.80036485691573
 21
274.2748824223
 31
0.0
  0
LINE
  5
153
330
1F
100
AcDbEntity
  8
0
  6
Continuous
 62
     8
100
AcDbLine
 10
92.80036485691573
 20
273.7748832717
 30
0.0
 11
93.30036587011574
 21
273.7748832717
 31
0.0
  0
LINE
  5
154
330
1F
100
AcDbEntity
  8
0
  6
Continuous
 62
     8
100
AcDbLine
 10
92.80036485691573
 20
246.9748813003
 30
0.0
 11
92.80036485691573
 21
254.9748826116
 31
0.0
  0
LINE
  5
155
330
1F
100
AcDbEntity
  8
0
  6
Continuous
 62
     8
100
AcDbLine
 10
-55.69963806378426
 20
246.9748813003
 30
0.0
 11
92.80036485691573
 21
246.9748813003
 31
0.0
  0
LINE
  5
156
330
1F
100
AcDbEntity
  8
0
  6
Continuous
 62
     8
100
AcDbLine
 10
-55.69963806378426
 20
254.9748826116
 30
0.0
 11
-55.69963806378426
 21
246.9748813003
 31
0.0
  0
LINE
  5
157
330
1F
100
AcDbEntity
  8
0
  6
Continuous
 62
     8
100
AcDbLine
 10
92.80036485691573
 20
246.9748813003
 30
0.0
 11
92.80036485691573
 21
246.4748840123
 31
0.0
  0
LINE
  5
158
330
1F
100
AcDbEntity
  8
0
  6
Continuous
 62
     8
100
AcDbLine
 10
-55.69963806378426
 20
246.9748813003
 30
0.0
 11
-55.69963806378426
 21
246.4748840123
 31
0.0
  0
LINE
  5
159
330
1F
100
AcDbEntity
  8
0
  6
Continuous
 62
     8
100
AcDbLine
 10
93.30036587011574
 20
246.9748813003
 30
0.0
 11
92.80036485691573
 21
246.9748813003
 31
0.0
  0
LINE
  5
15A
330
1F
100
AcDbEntity
  8
0
  6
Continuous
 62
     8
100
AcDbLine
 10
-55.69963806378426
 20
246.9748813003
 30
0.0
 11
-56.19963907698425
 21
246.9748813003
 31
0.0
  0
LINE
  5
15B
330
1F
100
AcDbEntity
  8
0
  6
Continuous
 62
     8
100
AcDbLine
 10
86.30036658541573
 20
254.9748732984
 30
0.0
 11
86.30036658541573
 21
255.3748726189
 31
0.0
  0
LINE
  5
15C
330
1F
100
AcDbEntity
  8
0
  6
Continuous
 62
     8
100
AcDbLine
 10
78.30036527411573
 20
255.3748726189
 30
0.0
 11
78.30036527411573
 21
254.9748732984
 31
0.0
  0
LINE
  5
15D
330
1F
100
AcDbEntity
  8
0
  6
Continuous
 62
     8
100
AcDbLine
 10
86.30036658541573
 20
265.3748723953
 30
0.0
 11
86.30036658541573
 21
265.7748735785
 31
0.0
  0
LINE
  5
15E
330
1F
100
AcDbEntity
  8
0
  6
Continuous
 62
     8
100
AcDbLine
 10
78.30036527411573
 20
265.7748735785
 30
0.0
 11
78.30036527411573
 21
265.3748723953
 31
0.0
  0
LINE
  5
15F
330
1F
100
AcDbEntity
  8
0
  6
Continuous
 62
     8
100
AcDbLine
 10
-47.69963675248426
 20
265.7748735785
 30
0.0
 11
-47.69963675248426
 21
265.3748723953
 31
0.0
  0
LINE
  5
160
330
1F
100
AcDbEntity
  8
0
  6
Continuous
 62
     8
100
AcDbLine
 10
-36.19963579878426
 20
248.9748741775
 30
0.0
 11
-29.69963752728426
 21
248.9748741775
 31
0.0
  0
LINE
  5
161
330
1F
100
AcDbEntity
  8
0
  6
Continuous
 62
     8
100
AcDbLine
 10
-19.69963588818426
 20
248.9748741775
 30
0.0
 11
-13.79963659748426
 21
248.9748741775
 31
0.0
  0
LINE
  5
162
330
1F
100
AcDbEntity
  8
0
  6
Continuous
 62
     8
100
AcDbLine
 10
41.90036377801574
 20
248.9748741775
 30
0.0
 11
47.80036493141574
 21
248.9748741775
 31
0.0
  0
LINE
  5
163
330
1F
100
AcDbEntity
  8
0
  6
Continuous
 62
     8
100
AcDbLine
 10
63.10036501781573
 20
265.7748735785
 30
0.0
 11
63.10036501781573
 21
264.9748730748
 31
0.0
  0
LINE
  5
164
330
1F
100
AcDbEntity
  8
0
  6
Continuous
 62
     8
100
AcDbLine
 10
47.80036493141574
 20
271.7748726993
 30
0.0
 11
-36.19963579878426
 21
271.7748726993
 31
0.0
  0
LINE
  5
165
330
1F
100
AcDbEntity
  8
0
  6
Continuous
 62
     8
100
AcDbLine
 10
-42.89963745578426
 20
265.7748735785
 30
0.0
 11
-42.89963745578426
 21
264.9748730748
 31
0.0
  0
LINE
  5
166
330
1F
100
AcDbEntity
  8
0
  6
Continuous
 62
     8
100
AcDbLine
 10
57.50036335481575
 20
264.9748730748
 30
0.0
 11
57.50036335481575
 21
265.7748735785
 31
0.0
  0
LINE
  5
167
330
1F
100
AcDbEntity
  8
0
  6
Continuous
 62
     7
100
AcDbLine
 10
462.6479312345152
 20
175.5522074404
 30
0.0
 11
463.0729272529152
 21
175.5522074404
 31
0.0
  0
LINE
  5
168
330
1F
100
AcDbEntity
  8
0
  6
Continuous
 62
     7
100
AcDbLine
 10
463.0729272529152
 20
178.352207457
 30
0.0
 11
462.6479312345152
 21
178.352207457
 31
0.0
  0
LINE
  5
169
330
1F
100
AcDbEntity
  8
0
  6
Continuous
 62
     7
100
AcDbLine
 10
463.0729272529152
 20
175.5522074404
 30
0.0
 11
463.1479247972152
 21
175.7022075349
 31
0.0
  0
LINE
  5
16A
330
1F
100
AcDbEntity
  8
0
  6
Continuous
 62
     7
100
AcDbLine
 10
463.1479247972152
 20
178.202207479
 30
0.0
 11
463.0729272529152
 21
178.352207457
 31
0.0
  0
LINE
  5
16B
330
1F
100
AcDbEntity
  8
0
  6
Continuous
 62
     7
100
AcDbLine
 10
313.1479262873152
 20
178.45220752
 30
0.0
 11
312.6479252740152
 21
178.45220752
 31
0.0
  0
LINE
  5
16C
330
1F
100
AcDbEntity
  8
0
  6
Continuous
 62
     7
100
AcDbLine
 10
312.6479252740152
 20
175.4522074939
 30
0.0
 11
313.1479262873152
 21
175.4522074939
 31
0.0
  0
LINE
  5
16D
330
1F
100
AcDbEntity
  8
0
  6
Continuous
 62
     7
100
AcDbLine
 10
312.6479252740152
 20
178.45220752
 30
0.0
 11
312.1479317113152
 21
178.3182329259
 31
0.0
  0
LINE
  5
16E
330
1F
100
AcDbEntity
  8
0
  6
Continuous
 62
     7
100
AcDbLine
 10
312.1479317113152
 20
175.5861820879
 30
0.0
 11
312.6479252740152
 21
175.4522074939
 31
0.0
  0
ARC
  5
16F
330
1F
100
AcDbEntity
  8
0
  6
Continuous
 62
     7
100
AcDbCircle
 10
313.6479280804152
 20
152.9522074908
 30
0.0
 40
0.5
100
AcDbArc
 50
180.0
 51
270.0
  0
LINE
  5
170
330
1F
100
AcDbEntity
  8
0
  6
Continuous
 62
     7
100
AcDbLine
 10
313.6479273006153
 20
201.4522072154
 30
0.0
 11
462.1479302212152
 21
201.4522072154
 31
0.0
  0
LINE
  5
171
330
1F
100
AcDbEntity
  8
0
  6
Continuous
 62
     7
100
AcDbLine
 10
313.1479262873152
 20
152.9522076476
 30
0.0
 11
313.1479262873152
 21
200.9522080648
 31
0.0
  0
ARC
  5
172
330
1F
100
AcDbEntity
  8
0
  6
Continuous
 62
     7
100
AcDbCircle
 10
313.6479280804152
 20
200.9522074908
 30
0.0
 40
0.5000000000000568
100
AcDbArc
 50
90.0
 51
180.0
  0
LINE
  5
173
330
1F
100
AcDbEntity
  8
0
  6
Continuous
 62
     7
100
AcDbLine
 10
462.1479302212152
 20
152.4522066343
 30
0.0
 11
313.6479273006153
 21
152.4522066343
 31
0.0
  0
LINE
  5
174
330
1F
100
AcDbEntity
  8
0
  6
Continuous
 62
     7
100
AcDbLine
 10
462.6479312345152
 20
200.9522080648
 30
0.0
 11
462.6479312345152
 21
152.9522076476
 31
0.0
  0
ARC
  5
175
330
1F
100
AcDbEntity
  8
0
  6
Continuous
 62
     7
100
AcDbCircle
 10
462.1479280804152
 20
152.9522074908
 30
0.0
 40
0.5
100
AcDbArc
 50
270.0
 51
0.0
  0
ARC
  5
176
330
1F
100
AcDbEntity
  8
0
  6
Continuous
 62
     7
100
AcDbCircle
 10
462.1479280804152
 20
200.9522074908
 30
0.0
 40
0.5
100
AcDbArc
 50
0.0
 51
90.0
  0
LINE
  5
177
330
1F
100
AcDbEntity
  8
0
  6
Continuous
 62
     7
100
AcDbLine
 10
463.0729272529152
 20
175.5522074404
 30
0.0
 11
463.0729272529152
 21
178.352207457
 31
0.0
  0
LINE
  5
178
330
1F
100
AcDbEntity
  8
0
  6
Continuous
 62
     7
100
AcDbLine
 10
463.1479247972152
 20
175.7022075349
 30
0.0
 11
463.1479247972152
 21
178.202207479
 31
0.0
  0
LINE
  5
179
330
1F
100
AcDbEntity
  8
0
  6
Continuous
 62
     7
100
AcDbLine
 10
312.6479252740152
 20
175.5876865232
 30
0.0
 11
312.6479252740152
 21
175.4522074939
 31
0.0
  0
LINE
  5
17A
330
1F
100
AcDbEntity
  8
0
  6
Continuous
 62
     7
100
AcDbLine
 10
312.6479252740152
 20
178.45220752
 30
0.0
 11
312.6479252740152
 21
175.5876865232
 31
0.0
  0
LINE
  5
17B
330
1F
100
AcDbEntity
  8
0
  6
Continuous
 62
     7
100
AcDbLine
 10
312.1479317113152
 20
175.7095605594
 30
0.0
 11
312.1479317113152
 21
175.5861820879
 31
0.0
  0
LINE
  5
17C
330
1F
100
AcDbEntity
  8
0
  6
Continuous
 62
     7
100
AcDbLine
 10
312.1479317113152
 20
178.3182329259
 30
0.0
 11
312.1479317113152
 21
175.7095605594
 31
0.0
  0
LINE
  5
17D
330
1F
100
AcDbEntity
  8
0
  6
Continuous
 62
     7
100
AcDbLine
 10
364.6479282096152
 20
152.4522066343
 30
0.0
 11
364.6479282096152
 21
151.9522074836
 31
0.0
  0
LINE
  5
17E
330
1F
100
AcDbEntity
  8
0
  6
Continuous
 62
     7
100
AcDbLine
 10
364.6479282096152
 20
151.9522074836
 30
0.0
 11
360.6479275539152
 21
151.9522074836
 31
0.0
  0
LINE
  5
17F
330
1F
100
AcDbEntity
  8
0
  6
Continuous
 62
     7
100
AcDbLine
 10
360.6479275539152
 20
151.9522074836
 30
0.0
 11
360.6479275539152
 21
152.4522066343
 31
0.0
  0
LINE
  5
180
330
1F
100
AcDbEntity
  8
0
  6
Continuous
 62
     7
100
AcDbLine
 10
420.1479270622152
 20
151.9522074836
 30
0.0
 11
420.1479270622152
 21
152.4522066343
 31
0.0
  0
LINE
  5
181
330
1F
100
AcDbEntity
  8
0
  6
Continuous
 62
     7
100
AcDbLine
 10
420.1479270622152
 20
151.9522074836
 30
0.0
 11
364.6479282096152
 21
151.9522074836
 31
0.0
  0
LINE
  5
182
330
1F
100
AcDbEntity
  8
0
  6
Continuous
 62
     7
100
AcDbLine
 10
424.1479277178152
 20
152.4522066343
 30
0.0
 11
424.1479277178152
 21
151.9522074836
 31
0.0
  0
LINE
  5
183
330
1F
100
AcDbEntity
  8
0
  6
Continuous
 62
     7
100
AcDbLine
 10
424.1479277178152
 20
151.9522074836
 30
0.0
 11
420.1479270622152
 21
151.9522074836
 31
0.0
  0
LINE
  5
184
330
1F
100
AcDbEntity
  8
0
  6
Continuous
 62
     7
100
AcDbLine
 10
357.6479289248152
 20
151.9522074836
 30
0.0
 11
334.1479278668152
 21
151.9522074836
 31
0.0
  0
LINE
  5
185
330
1F
100
AcDbEntity
  8
0
  6
Continuous
 62
     7
100
AcDbLine
 10
334.1479278668152
 20
151.9522074836
 30
0.0
 11
334.1479278668152
 21
152.4522066343
 31
0.0
  0
LINE
  5
186
330
1F
100
AcDbEntity
  8
0
  6
Continuous
 62
     7
100
AcDbLine
 10
357.6479289248152
 20
152.4522066343
 30
0.0
 11
357.6479289248152
 21
151.9522074836
 31
0.0
  0
LINE
  5
187
330
1F
100
AcDbEntity
  8
0
  6
Continuous
 62
     7
100
AcDbLine
 10
462.6479312345152
 20
152.9522076476
 30
0.0
 11
462.6479312345152
 21
151.9522074836
 31
0.0
  0
LINE
  5
188
330
1F
100
AcDbEntity
  8
0
  6
Continuous
 62
     7
100
AcDbLine
 10
462.6479312345152
 20
151.9522074836
 30
0.0
 11
443.6479262575152
 21
151.9522074836
 31
0.0
  0
LINE
  5
189
330
1F
100
AcDbEntity
  8
0
  6
Continuous
 62
     7
100
AcDbLine
 10
443.6479262575152
 20
151.9522074836
 30
0.0
 11
443.6479262575152
 21
152.4522066343
 31
0.0
  0
LINE
  5
18A
330
1F
100
AcDbEntity
  8
0
  6
Continuous
 62
     7
100
AcDbLine
 10
357.6479289248152
 20
151.9522074836
 30
0.0
 11
360.6479275539152
 21
151.9522074836
 31
0.0
  0
LINE
  5
18B
330
1F
100
AcDbEntity
  8
0
  6
Continuous
 62
     7
100
AcDbLine
 10
424.1479277178152
 20
151.9522074836
 30
0.0
 11
443.6479262575152
 21
151.9522074836
 31
0.0
  0
LINE
  5
18C
330
1F
100
AcDbEntity
  8
0
  6
Continuous
 62
     8
100
AcDbLine
 10
313.6479273006153
 20
152.9522076476
 30
0.0
 11
462.1479302212152
 21
152.9522076476
 31
0.0
  0
LINE
  5
18D
330
1F
100
AcDbEntity
  8
0
  6
Continuous
 62
     8
100
AcDbLine
 10
313.6479273006153
 20
200.9522080648
 30
0.0
 11
313.6479273006153
 21
152.9522076476
 31
0.0
  0
LINE
  5
18E
330
1F
100
AcDbEntity
  8
0
  6
Continuous
 62
     8
100
AcDbLine
 10
462.1479302212152
 20
200.9522080648
 30
0.0
 11
313.6479273006153
 21
200.9522080648
 31
0.0
  0
LINE
  5
18F
330
1F
100
AcDbEntity
  8
0
  6
Continuous
 62
     8
100
AcDbLine
 10
462.1479302212152
 20
152.9522076476
 30
0.0
 11
462.1479302212152
 21
200.9522080648
 31
0.0
  0
LINE
  5
190
330
1F
100
AcDbEntity
  8
0
  6
Continuous
 62
     8
100
AcDbLine
 10
313.1479262873152
 20
152.9522076476
 30
0.0
 11
313.6479273006153
 21
152.9522076476
 31
0.0
  0
LINE
  5
191
330
1F
100
AcDbEntity
  8
0
  6
Continuous
 62
     8
100
AcDbLine
 10
313.6479273006153
 20
152.4522066343
 30
0.0
 11
313.6479273006153
 21
152.9522076476
 31
0.0
  0
LINE
  5
192
330
1F
100
AcDbEntity
  8
0
  6
Continuous
 62
     8
100
AcDbLine
 10
313.6479273006153
 20
200.9522080648
 30
0.0
 11
313.6479273006153
 21
201.4522072154
 31
0.0
  0
LINE
  5
193
330
1F
100
AcDbEntity
  8
0
  6
Continuous
 62
     8
100
AcDbLine
 10
462.1479302212152
 20
200.9522080648
 30
0.0
 11
462.1479302212152
 21
201.4522072154
 31
0.0
  0
LINE
  5
194
330
1F
100
AcDbEntity
  8
0
  6
Continuous
 62
     8
100
AcDbLine
 10
313.1479262873152
 20
200.9522080648
 30
0.0
 11
313.6479273006153
 21
200.9522080648
 31
0.0
  0
LINE
  5
195
330
1F
100
AcDbEntity
  8
0
  6
Continuous
 62
     8
100
AcDbLine
 10
462.1479302212152
 20
152.4522066343
 30
0.0
 11
462.1479302212152
 21
152.9522076476
 31
0.0
  0
LINE
  5
196
330
1F
100
AcDbEntity
  8
0
  6
Continuous
 62
     8
100
AcDbLine
 10
462.1479302212152
 20
200.9522080648
 30
0.0
 11
462.6479312345152
 21
200.9522080648
 31
0.0
  0
LINE
  5
197
330
1F
100
AcDbEntity
  8
0
  6
Continuous
 62
     8
100
AcDbLine
 10
462.1479302212152
 20
152.9522076476
 30
0.0
 11
462.6479312345152
 21
152.9522076476
 31
0.0
  0
ARC
  5
198
330
1F
100
AcDbEntity
  8
0
  6
Continuous
 62
     7
100
AcDbCircle
 10
58.74593054
 20
124.4855186694
 30
0.0
 40
0.5000000000000034
100
AcDbArc
 50
60.00268826639999
 51
119.9973117336
  0
LINE
  5
199
330
1F
100
AcDbEntity
  8
0
  6
Continuous
 62
     7
100
AcDbLine
 10
58.49595109
 20
124.9185438379
 30
0.0
 11
52.8390965718
 21
121.6529112355
 31
0.0
  0
LINE
  5
19A
330
1F
100
AcDbEntity
  8
0
  6
Continuous
 62
     7
100
AcDbLine
 10
164.0012679323
 20
64.3002411032
 30
0.0
 11
58.9959088609
 21
124.9185445982
 31
0.0
  0
ARC
  5
19B
330
1F
100
AcDbEntity
  8
0
  6
Continuous
 62
     7
100
AcDbCircle
 10
163.7512875462
 20
24.673257396
 30
0.0
 40
0.5000000000000084
100
AcDbArc
 50
299.9973117337
 51
0.0
  0
LINE
  5
19C
330
1F
100
AcDbEntity
  8
0
  6
Continuous
 62
     7
100
AcDbLine
 10
164.2512876474
 20
24.6732577537
 30
0.0
 11
164.2512876474
 21
63.8672170649
 31
0.0
  0
LINE
  5
19D
330
1F
100
AcDbEntity
  8
0
  6
Continuous
 62
     7
100
AcDbLine
 10
158.344412097
 20
20.974601113
 30
0.0
 11
164.0012666152
 21
24.2402337154
 31
0.0
  0
ARC
  5
19E
330
1F
100
AcDbEntity
  8
0
  6
Continuous
 62
     7
100
AcDbCircle
 10
163.7512875462
 20
63.8672163665
 30
0.0
 40
0.5
100
AcDbArc
 50
0.0
 51
60.00268826639999
  0
ARC
  5
19F
330
1F
100
AcDbEntity
  8
0
  6
Continuous
 62
     7
100
AcDbCircle
 10
39.7954688042
 20
74.3516910004
 30
0.0
 40
0.5
100
AcDbArc
 50
180.0
 51
240.0026882664
  0
LINE
  5
1A0
330
1F
100
AcDbEntity
  8
0
  6
Continuous
 62
     7
100
AcDbLine
 10
39.2954675865
 20
113.5456506766
 30
0.0
 11
39.2954675865
 21
74.3516913654
 31
0.0
  0
LINE
  5
1A1
330
1F
100
AcDbEntity
  8
0
  6
Continuous
 62
     7
100
AcDbLine
 10
39.5454879602
 20
73.9186677073
 30
0.0
 11
144.5508470316
 21
13.3003642123
 31
0.0
  0
LINE
  5
1A2
330
1F
100
AcDbEntity
  8
0
  6
Continuous
 62
     7
100
AcDbLine
 10
45.2023431369
 20
117.2443073173
 30
0.0
 11
39.5454879602
 21
113.9786743347
 31
0.0
  0
ARC
  5
1A3
330
1F
100
AcDbEntity
  8
0
  6
Continuous
 62
     7
100
AcDbCircle
 10
39.7954688042
 20
113.545649971
 30
0.0
 40
0.5
100
AcDbArc
 50
119.9973117337
 51
180.0
  0
LINE
  5
1A4
330
1F
100
AcDbEntity
  8
0
  6
Continuous
 62
     7
100
AcDbLine
 10
145.0508034854
 20
13.3003642123
 30
0.0
 11
150.7076586621
 21
16.5659971948
 31
0.0
  0
ARC
  5
1A5
330
1F
100
AcDbEntity
  8
0
  6
Continuous
 62
     7
100
AcDbCircle
 10
144.8008258104
 20
13.7333886976
 30
0.0
 40
0.5000000000000081
100
AcDbArc
 50
240.0026882664
 51
299.9973117337
  0
LINE
  5
1A6
330
1F
100
AcDbEntity
  8
0
  6
Continuous
 62
     7
100
AcDbLine
 10
48.8922141133
 20
112.3233873047
 30
0.0
 11
48.6093718813
 21
112.1601059598
 31
0.0
  0
LINE
  5
1A7
330
1F
100
AcDbEntity
  8
0
  6
Continuous
 62
     7
100
AcDbLine
 10
148.3612737998
 20
21.0378866656
 30
0.0
 11
148.6441160318
 21
21.2011680106
 31
0.0
  0
LINE
  5
1A8
330
1F
100
AcDbEntity
  8
0
  6
Continuous
 62
     7
100
AcDbLine
 10
43.5931264114
 20
97.0466940278
 30
0.0
 11
43.0233115563
 21
97.3756411418
 31
0.0
  0
LINE
  5
1A9
330
1F
100
AcDbEntity
  8
0
  6
Continuous
 62
     7
100
AcDbLine
 10
41.6234250564
 20
94.9507041041
 30
0.0
 11
42.1932188381
 21
94.6217691554
 31
0.0
  0
LINE
  5
1AA
330
1F
100
AcDbEntity
  8
0
  6
Continuous
 62
     7
100
AcDbLine
 10
56.1796274674
 20
104.3127264256
 30
0.0
 11
55.6098126123
 21
104.6416735396
 31
0.0
  0
LINE
  5
1AB
330
1F
100
AcDbEntity
  8
0
  6
Continuous
 62
     7
100
AcDbLine
 10
54.2099267709
 20
102.216736882
 30
0.0
 11
54.7797205527
 21
101.8878019334
 31
0.0
  0
LINE
  5
1AC
330
1F
100
AcDbEntity
  8
0
  6
Continuous
 62
     7
100
AcDbLine
 10
119.6198771485
 20
46.7302517751
 30
0.0
 11
120.3976946036
 21
47.1792762341
 31
0.0
  0
LINE
  5
1AD
330
1F
100
AcDbEntity
  8
0
  6
Continuous
 62
     7
100
AcDbLine
 10
65.2055166631
 20
65.6957400241
 30
0.0
 11
65.6543094769
 21
65.9548226008
 31
0.0
  0
LINE
  5
1AE
330
1F
100
AcDbEntity
  8
0
  6
Continuous
 62
     7
100
AcDbLine
 10
120.1477150596
 20
47.6123006526
 30
0.0
 11
120.8794159599
 21
48.0347025912
 31
0.0
  0
LINE
  5
1AF
330
1F
100
AcDbEntity
  8
0
  6
Continuous
 62
     7
100
AcDbLine
 10
48.1094154275
 20
113.0261532759
 30
0.0
 11
45.8058781051
 21
111.6963494853
 31
0.0
  0
LINE
  5
1B0
330
1F
100
AcDbEntity
  8
0
  6
Continuous
 62
     7
100
AcDbLine
 10
114.8094400082
 20
34.5108377007
 30
0.0
 11
114.8094400082
 21
33.5663656037
 31
0.0
  0
LINE
  5
1B1
330
1F
100
AcDbEntity
  8
0
  6
Continuous
 62
     7
100
AcDbLine
 10
147.2650329529
 20
19.250368179
 30
0.0
 11
148.8612355219
 21
20.171836308
 31
0.0
  0
ARC
  5
1B2
330
1F
100
AcDbEntity
  8
0
  6
Continuous
 62
     7
100
AcDbCircle
 10
53.503146308
 20
82.2649704481
 30
0.0
 40
0.7684203747695912
100
AcDbArc
 50
182.6061127247
 51
237.3938874209
  0
LINE
  5
1B3
330
1F
100
AcDbEntity
  8
0
  6
Continuous
 62
     7
100
AcDbLine
 10
52.7355206916
 20
82.2300307078
 30
0.0
 11
52.7355206916
 21
121.423990019
 31
0.0
  0
LWPOLYLINE
  5
1B4
330
1F
100
AcDbEntity
  8
0
  6
Continuous
 62
     7
100
AcDbPolyline
 90
        5
 70
   128
 43
0.0
 10
56.2710545185
 20
103.8680303002
 10
56.2191421135
 20
104.2165493851
 10
56.0684862279
 20
104.4710160686
 10
55.8338349659
 20
104.6065218701
 10
55.6410447441
 20
104.6236440064
  0
LWPOLYLINE
  5
1B5
330
1F
100
AcDbEntity
  8
0
  6
Continuous
 62
     7
100
AcDbPolyline
 90
       10
 70
   128
 43
0.0
 10
54.241177342
 20
102.1986967957
 10
54.3523027765
 20
102.0404325674
 10
54.5869540385
 20
101.9049266707
 10
54.88263262
 20
101.9016467117
 10
55.2103941729
 20
102.0309128994
 10
55.5381563843
 20
102.2800725258
 10
55.8338349659
 20
102.6247357086
 10
56.0684862279
 20
103.0311641856
 10
56.2191421135
 20
103.4595744045
 10
56.2710545185
 20
103.8680303002
  0
LINE
  5
1B6
330
1F
100
AcDbEntity
  8
0
  6
Continuous
 62
     7
100
AcDbLine
 10
131.0829546159
 20
42.1443234503
 30
0.0
 11
71.68598448
 21
76.4334644449
 31
0.0
  0
LINE
  5
1B7
330
1F
100
AcDbEntity
  8
0
  6
Continuous
 62
     7
100
AcDbLine
 10
71.68598448
 20
76.4334644449
 30
0.0
 11
66.8776586334
 21
73.657677018
 31
0.0
  0
LINE
  5
1B8
330
1F
100
AcDbEntity
  8
0
  6
Continuous
 62
     7
100
AcDbLine
 10
66.8776586334
 20
73.657677018
 30
0.0
 11
53.0890747987
 21
81.6176570328
 31
0.0
  0
LINE
  5
1B9
330
1F
100
AcDbEntity
  8
0
  6
Continuous
 62
     7
100
AcDbLine
 10
158.0944338701
 20
20.9993535378
 30
0.0
 11
126.2746287694
 21
39.3685360234
 31
0.0
  0
LINE
  5
1BA
330
1F
100
AcDbEntity
  8
0
  6
Continuous
 62
     7
100
AcDbLine
 10
126.2746287694
 20
39.3685360234
 30
0.0
 11
131.0829546159
 21
42.1443234503
 31
0.0
  0
ARC
  5
1BB
330
1F
100
AcDbEntity
  8
0
  6
Continuous
 62
     7
100
AcDbCircle
 10
52.9733791669
 20
121.4542626268
 30
0.0
 40
0.2397771570412102
100
AcDbArc
 50
124.0579283598
 51
187.2531261151
  0
LINE
  5
1BC
330
1F
100
AcDbEntity
  8
0
  6
Continuous
 62
     7
100
AcDbLine
 10
126.2746287694
 20
40.1850769691
 30
0.0
 11
126.2746287694
 21
39.3685360234
 31
0.0
  0
LINE
  5
1BD
330
1F
100
AcDbEntity
  8
0
  6
Continuous
 62
     7
100
AcDbLine
 10
130.3757331321
 20
42.5525941237
 30
0.0
 11
126.2746287694
 21
40.1850769691
 31
0.0
  0
ARC
  5
1BE
330
1F
100
AcDbEntity
  8
0
  6
Continuous
 62
     7
100
AcDbCircle
 10
158.240891384
 20
21.2037897281
 30
0.0
 40
0.2514835169313071
100
AcDbArc
 50
234.3822943947
 51
294.307908262
  0
LINE
  5
1BF
330
1F
100
AcDbEntity
  8
0
  6
Continuous
 62
     7
100
AcDbLine
 10
58.8874090434
 20
69.4531420865
 30
0.0
 11
59.2409051985
 21
69.2490730998
 31
0.0
  0
LINE
  5
1C0
330
1F
100
AcDbEntity
  8
0
  6
Continuous
 62
     7
100
AcDbLine
 10
45.0987672567
 20
117.0153861008
 30
0.0
 11
45.0987672567
 21
77.8214267896
 31
0.0
  0
ARC
  5
1C1
330
1F
100
AcDbEntity
  8
0
  6
Continuous
 62
     7
100
AcDbCircle
 10
45.3143067214
 20
117.0503453161
 30
0.0
 40
0.2183561484431362
100
AcDbArc
 50
50.7975761943
 51
189.2128058857
  0
LINE
  5
1C2
330
1F
100
AcDbEntity
  8
0
  6
Continuous
 62
     7
100
AcDbLine
 10
52.7355233258
 20
113.0150503743
 30
0.0
 11
45.4523213638
 21
117.2195533716
 31
0.0
  0
LINE
  5
1C3
330
1F
100
AcDbEntity
  8
0
  6
Continuous
 62
     7
100
AcDbLine
 10
150.8112345423
 20
16.7949184113
 30
0.0
 11
150.8112345423
 21
25.203855463
 31
0.0
  0
ARC
  5
1C4
330
1F
100
AcDbEntity
  8
0
  6
Continuous
 62
     7
100
AcDbCircle
 10
150.5956945663
 20
16.759958821
 30
0.0
 40
0.2183567132473892
100
AcDbArc
 50
230.7978702286
 51
9.2128815262
  0
LINE
  5
1C5
330
1F
100
AcDbEntity
  8
0
  6
Continuous
 62
     7
100
AcDbLine
 10
118.6378753345
 20
34.9599321052
 30
0.0
 11
119.3449743291
 21
34.5517325444
 31
0.0
  0
LINE
  5
1C6
330
1F
100
AcDbEntity
  8
0
  6
Continuous
 62
     7
100
AcDbLine
 10
136.3156004453
 20
24.7547986211
 30
0.0
 11
150.4576804352
 21
16.5907496196
 31
0.0
  0
LINE
  5
1C7
330
1F
100
AcDbEntity
  8
0
  6
Continuous
 62
     7
100
AcDbLine
 10
118.6378753345
 20
35.3680618924
 30
0.0
 11
118.6378753345
 21
34.9599321052
 31
0.0
  0
LINE
  5
1C8
330
1F
100
AcDbEntity
  8
0
  6
Continuous
 62
     7
100
AcDbLine
 10
137.0228245633
 20
25.1630677738
 30
0.0
 11
150.1041263281
 21
17.6113930069
 31
0.0
  0
LINE
  5
1C9
330
1F
100
AcDbEntity
  8
0
  6
Continuous
 62
     7
100
AcDbLine
 10
150.1041263281
 20
17.6113930069
 30
0.0
 11
150.1041263281
 21
25.6120603462
 31
0.0
  0
LINE
  5
1CA
330
1F
100
AcDbEntity
  8
0
  6
Continuous
 62
     7
100
AcDbLine
 10
52.7355233258
 20
112.1985094286
 30
0.0
 11
45.8058754709
 21
116.1989099843
 31
0.0
  0
LINE
  5
1CB
330
1F
100
AcDbEntity
  8
0
  6
Continuous
 62
     7
100
AcDbLine
 10
45.8058754709
 20
116.1989099843
 30
0.0
 11
45.8058754709
 21
105.1754764173
 31
0.0
  0
LINE
  5
1CC
330
1F
100
AcDbEntity
  8
0
  6
Continuous
 62
     7
100
AcDbLine
 10
59.2409051985
 20
69.6572120126
 30
0.0
 11
59.2409051985
 21
69.2490730998
 31
0.0
  0
LWPOLYLINE
  5
1CD
330
1F
100
AcDbEntity
  8
0
  6
Continuous
 62
     7
100
AcDbPolyline
 90
       14
 70
   128
 43
0.0
 10
43.0545450052
 20
97.357612369
 10
43.247335227
 20
97.3404902327
 10
43.4819851719
 20
97.2049836708
 10
43.6326417161
 20
96.9505173675
 10
43.6845534625
 20
96.6019979025
 10
43.6326417161
 20
96.1935423869
 10
43.4819851719
 20
95.7651317878
 10
43.247335227
 20
95.3587040711
 10
42.9516566454
 20
95.0140408884
 10
42.6238937755
 20
94.7648808818
 10
42.2961309055
 20
94.6356139337
 10
42.0004523239
 20
94.6388938928
 10
41.765802379
 20
94.7744005498
 10
41.6546769446
 20
94.9326647781
  0
LINE
  5
1CE
330
1F
100
AcDbEntity
  8
0
  6
Continuous
 62
     7
100
AcDbLine
 10
54.432579352
 20
66.4732856729
 30
0.0
 11
113.829549488
 21
32.1841446783
 31
0.0
  0
LINE
  5
1CF
330
1F
100
AcDbEntity
  8
0
  6
Continuous
 62
     7
100
AcDbLine
 10
113.829549488
 20
32.1841446783
 30
0.0
 11
118.6378753345
 21
34.9599321052
 31
0.0
  0
LINE
  5
1D0
330
1F
100
AcDbEntity
  8
0
  6
Continuous
 62
     7
100
AcDbLine
 10
59.2409051985
 20
69.2490730998
 30
0.0
 11
54.432579352
 21
66.4732856729
 31
0.0
  0
LINE
  5
1D1
330
1F
100
AcDbEntity
  8
0
  6
Continuous
 62
     7
100
AcDbLine
 10
113.829549488
 20
33.000685624
 30
0.0
 11
113.829549488
 21
32.1841446783
 31
0.0
  0
LINE
  5
1D2
330
1F
100
AcDbEntity
  8
0
  6
Continuous
 62
     7
100
AcDbLine
 10
113.829549488
 20
33.000685624
 30
0.0
 11
111.2136052364
 21
34.510838096
 31
0.0
  0
LINE
  5
1D3
330
1F
100
AcDbEntity
  8
0
  6
Continuous
 62
     7
100
AcDbLine
 10
70.8374498814
 20
57.8194964436
 30
0.0
 11
55.1398008358
 21
66.8815563463
 31
0.0
  0
LINE
  5
1D4
330
1F
100
AcDbEntity
  8
0
  6
Continuous
 62
     7
100
AcDbLine
 10
118.2841421033
 20
35.5722672032
 30
0.0
 11
113.829549488
 21
33.000685624
 31
0.0
  0
ARC
  5
1D5
330
1F
100
AcDbEntity
  8
0
  6
Continuous
 62
     7
100
AcDbCircle
 10
143.8219393823
 20
30.2481494456
 30
0.0
 40
6.460786168331004
100
AcDbArc
 50
218.9430461595
 51
238.9283741121
  0
ARC
  5
1D6
330
1F
100
AcDbEntity
  8
0
  6
Continuous
 62
     7
100
AcDbCircle
 10
54.1640861714
 20
108.5059805811
 30
0.0
 40
6.308481986039129
100
AcDbArc
 50
180.9527699326
 51
198.1571541537
  0
LINE
  5
1D7
330
1F
100
AcDbEntity
  8
0
  6
Continuous
 62
     7
100
AcDbLine
 10
47.8564763846
 20
110.0341629743
 30
0.0
 11
47.8564763846
 21
108.4010818433
 31
0.0
  0
ARC
  5
1D8
330
1F
100
AcDbEntity
  8
0
  6
Continuous
 62
     7
100
AcDbCircle
 10
50.0226743351
 20
110.365052558
 30
0.0
 40
2.191324137998563
100
AcDbArc
 50
51.3258418802
 51
188.6848729071
  0
LINE
  5
1D9
330
1F
100
AcDbEntity
  8
0
  6
Continuous
 62
     7
100
AcDbLine
 10
52.7355220087
 20
111.3002546174
 30
0.0
 11
51.3920121871
 21
112.0758463284
 31
0.0
  0
LINE
  5
1DA
330
1F
100
AcDbEntity
  8
0
  6
Continuous
 62
     7
100
AcDbLine
 10
149.6798537605
 20
23.4903908201
 30
0.0
 11
149.6798537605
 21
25.8569878398
 31
0.0
  0
ARC
  5
1DB
330
1F
100
AcDbEntity
  8
0
  6
Continuous
 62
     7
100
AcDbCircle
 10
147.5136597755
 20
23.1594966286
 30
0.0
 40
2.191320913619568
100
AcDbArc
 50
231.3258180295
 51
8.6850076602
  0
LINE
  5
1DC
330
1F
100
AcDbEntity
  8
0
  6
Continuous
 62
     7
100
AcDbLine
 10
140.4874680496
 20
24.7143389281
 30
0.0
 11
146.1443232263
 21
21.4487059455
 31
0.0
  0
ARC
  5
1DD
330
1F
100
AcDbEntity
  8
0
  6
Continuous
 62
     7
100
AcDbCircle
 10
53.8812439394
 20
108.3426992361
 30
0.0
 40
6.30848198603813
100
AcDbArc
 50
180.9527699326
 51
198.1571541537
  0
LINE
  5
1DE
330
1F
100
AcDbEntity
  8
0
  6
Continuous
 62
     7
100
AcDbLine
 10
47.5736341526
 20
109.8708816293
 30
0.0
 11
47.5736341526
 21
108.2378004983
 31
0.0
  0
ARC
  5
1DF
330
1F
100
AcDbEntity
  8
0
  6
Continuous
 62
     7
100
AcDbCircle
 10
50.0057554747
 20
110.1494085155
 30
0.0
 40
2.448017841481254
100
AcDbArc
 50
124.7790986958
 51
186.5330601118
  0
ARC
  5
1E0
330
1F
100
AcDbEntity
  8
0
  6
Continuous
 62
     7
100
AcDbCircle
 10
143.5390971503
 20
30.0848681007
 30
0.0
 40
6.460786168330769
100
AcDbArc
 50
218.9430461595
 51
238.9283741121
  0
LINE
  5
1E1
330
1F
100
AcDbEntity
  8
0
  6
Continuous
 62
     7
100
AcDbLine
 10
140.2046258176
 20
24.5510575831
 30
0.0
 11
145.8614809943
 21
21.2854246005
 31
0.0
  0
ARC
  5
1E2
330
1F
100
AcDbEntity
  8
0
  6
Continuous
 62
     7
100
AcDbCircle
 10
147.3257179417
 20
23.3262004391
 30
0.0
 40
2.511723683293037
100
AcDbArc
 50
234.3409258381
 51
294.3487028395
  0
LWPOLYLINE
  5
1E3
330
1F
100
AcDbEntity
  8
0
  6
Continuous
 62
     7
100
AcDbPolyline
 90
       19
 70
   128
 43
0.0
 10
43.1542223019
 20
96.7040430405
 10
43.1009170753
 20
96.3241788266
 10
42.9474314239
 20
95.9285873146
 10
42.712278351
 20
95.5649828791
 10
42.4238226856
 20
95.2772226506
 10
42.116854017
 20
95.1000134102
 10
41.8283957174
 20
95.0547282958
 10
41.5932426445
 20
95.1468307725
 10
41.4397596273
 20
95.365213044
 10
41.3864544006
 20
95.6835323533
 10
41.4397596273
 20
96.0633965673
 10
41.5932426445
 20
96.4589865823
 10
41.8283957174
 20
96.8225910179
 10
42.116854017
 20
97.110352767
 10
42.4238226856
 20
97.2875620074
 10
42.712278351
 20
97.3328456011
 10
42.9474314239
 20
97.2407431245
 10
43.1009170753
 20
97.0223623498
 10
43.1542223019
 20
96.7040430405
  0
LWPOLYLINE
  5
1E4
330
1F
100
AcDbEntity
  8
0
  6
Continuous
 62
     7
100
AcDbPolyline
 90
       20
 70
   128
 43
0.0
 10
43.3133187525
 20
96.734658863
 10
43.2596816194
 20
96.3325123095
 10
43.1045785827
 20
95.9120140786
 10
42.8648209666
 20
95.5187337236
 10
42.5663870348
 20
95.195287524
 10
42.2416192253
 20
94.9767272175
 10
41.9257101564
 20
94.8867366852
 10
41.652893606
 20
94.9350677428
 10
41.4527355883
 20
95.1164843955
 10
41.3469206567
 20
95.4113239338
 10
41.3469206567
 20
95.7876388826
 10
41.4527355883
 20
96.2046497106
 10
41.652893606
 20
96.6171638441
 10
41.9257101564
 20
96.9804822811
 10
42.2416192253
 20
97.255232596
 10
42.5663870348
 20
97.411641221
 10
42.8648209666
 20
97.4327594096
 10
43.1045785827
 20
97.3162973536
 10
43.2596816194
 20
97.0748773246
 10
43.3133187525
 20
96.734658863
  0
LINE
  5
1E5
330
1F
100
AcDbEntity
  8
0
  6
Continuous
 62
     7
100
AcDbLine
 10
42.9774452484
 20
97.0734218845
 30
0.0
 11
42.2703370342
 21
97.1366470542
 31
0.0
  0
LINE
  5
1E6
330
1F
100
AcDbEntity
  8
0
  6
Continuous
 62
     7
100
AcDbLine
 10
42.2703370342
 20
97.1366470542
 30
0.0
 11
41.5632314542
 21
96.2570136389
 31
0.0
  0
LINE
  5
1E7
330
1F
100
AcDbEntity
  8
0
  6
Continuous
 62
     7
100
AcDbLine
 10
41.5632314542
 20
96.2570136389
 30
0.0
 11
41.5632314542
 21
95.3141535331
 31
0.0
  0
LINE
  5
1E8
330
1F
100
AcDbEntity
  8
0
  6
Continuous
 62
     7
100
AcDbLine
 10
41.5632314542
 20
95.3141535331
 30
0.0
 11
42.2703370342
 21
95.2509268427
 31
0.0
  0
LINE
  5
1E9
330
1F
100
AcDbEntity
  8
0
  6
Continuous
 62
     7
100
AcDbLine
 10
42.9774452484
 20
96.1305617787
 30
0.0
 11
42.2703370342
 21
95.2509268427
 31
0.0
  0
LINE
  5
1EA
330
1F
100
AcDbEntity
  8
0
  6
Continuous
 62
     7
100
AcDbLine
 10
42.9774452484
 20
96.1305617787
 30
0.0
 11
42.9774452484
 21
97.0734218845
 31
0.0
  0
LINE
  5
1EB
330
1F
100
AcDbEntity
  8
0
  6
Continuous
 62
     7
100
AcDbLine
 10
42.2703370342
 20
97.1366470542
 30
0.0
 11
42.97743998
 21
96.7284452124
 31
0.0
  0
LINE
  5
1EC
330
1F
100
AcDbEntity
  8
0
  6
Continuous
 62
     7
100
AcDbLine
 10
42.5986109347
 20
95.6593017874
 30
0.0
 11
41.5632314542
 21
96.2570136389
 31
0.0
  0
LWPOLYLINE
  5
1ED
330
1F
100
AcDbEntity
  8
0
  6
Continuous
 62
     7
100
AcDbPolyline
 90
       19
 70
   128
 43
0.0
 10
55.7407220408
 20
103.970074678
 10
55.6874174727
 20
103.5902108442
 10
55.5339324799
 20
103.1946197124
 10
55.2987800655
 20
102.831015657
 10
55.010323083
 20
102.5432546682
 10
54.7033530973
 20
102.3660446675
 10
54.4148961149
 20
102.3207603134
 10
54.179744359
 20
102.4128635504
 10
54.0262600247
 20
102.6312450616
 10
53.9729547981
 20
102.9495643709
 10
54.0262600247
 20
103.3294285849
 10
54.179744359
 20
103.7250193602
 10
54.4148961149
 20
104.0886230355
 10
54.7033530973
 20
104.3763840243
 10
55.010323083
 20
104.553594025
 10
55.2987800655
 20
104.5988783791
 10
55.5339324799
 20
104.5067755222
 10
55.6874174727
 20
104.2883943674
 10
55.7407220408
 20
103.970074678
  0
LWPOLYLINE
  5
1EE
330
1F
100
AcDbEntity
  8
0
  6
Continuous
 62
     7
100
AcDbPolyline
 90
       20
 70
   128
 43
0.0
 10
55.89981915
 20
104.0006908806
 10
55.8461813583
 20
103.5985439469
 10
55.6910789802
 20
103.1780460962
 10
55.4513207055
 20
102.7847653611
 10
55.1528874323
 20
102.4613195416
 10
54.8281209398
 20
102.2427599954
 10
54.512211871
 20
102.1527694632
 10
54.2393953206
 20
102.2011005208
 10
54.0392346686
 20
102.3825156528
 10
53.9334223713
 20
102.6773567117
 10
53.9334223713
 20
103.0536716606
 10
54.0392346686
 20
103.4706809679
 10
54.2393953206
 20
103.883196622
 10
54.512211871
 20
104.2465150591
 10
54.8281209398
 20
104.521265374
 10
55.1528874323
 20
104.6776732386
 10
55.4513207055
 20
104.6987910471
 10
55.6910789802
 20
104.5823293712
 10
55.8461813583
 20
104.340908962
 10
55.89981915
 20
104.0006908806
  0
LINE
  5
1EF
330
1F
100
AcDbEntity
  8
0
  6
Continuous
 62
     7
100
AcDbLine
 10
55.5639449873
 20
104.339453522
 30
0.0
 11
54.8568387487
 21
104.4026798322
 31
0.0
  0
LINE
  5
1F0
330
1F
100
AcDbEntity
  8
0
  6
Continuous
 62
     7
100
AcDbLine
 10
54.8568387487
 20
104.4026798322
 30
0.0
 11
54.1497318516
 21
103.5230456565
 31
0.0
  0
LINE
  5
1F1
330
1F
100
AcDbEntity
  8
0
  6
Continuous
 62
     7
100
AcDbLine
 10
54.1497318516
 20
103.5230456565
 30
0.0
 11
54.1497318516
 21
102.5801855507
 31
0.0
  0
LINE
  5
1F2
330
1F
100
AcDbEntity
  8
0
  6
Continuous
 62
     7
100
AcDbLine
 10
54.1497318516
 20
102.5801855507
 30
0.0
 11
54.8568387487
 21
102.5169596206
 31
0.0
  0
LINE
  5
1F3
330
1F
100
AcDbEntity
  8
0
  6
Continuous
 62
     7
100
AcDbLine
 10
55.5639449873
 20
103.3965934162
 30
0.0
 11
54.8568387487
 21
102.5169596206
 31
0.0
  0
LINE
  5
1F4
330
1F
100
AcDbEntity
  8
0
  6
Continuous
 62
     7
100
AcDbLine
 10
55.5639449873
 20
103.3965934162
 30
0.0
 11
55.5639449873
 21
104.339453522
 31
0.0
  0
LINE
  5
1F5
330
1F
100
AcDbEntity
  8
0
  6
Continuous
 62
     7
100
AcDbLine
 10
54.8568387487
 20
104.4026798322
 30
0.0
 11
55.5639416945
 21
103.9944779904
 31
0.0
  0
LINE
  5
1F6
330
1F
100
AcDbEntity
  8
0
  6
Continuous
 62
     7
100
AcDbLine
 10
55.1851113322
 20
102.925333805
 30
0.0
 11
54.1497318516
 21
103.5230456565
 31
0.0
  0
LWPOLYLINE
  5
1F7
330
1F
100
AcDbEntity
  8
0
  6
Continuous
 62
     7
100
AcDbPolyline
 90
       16
 70
   128
 43
0.0
 10
114.1842534138
 20
51.8997365708
 10
114.2275678617
 20
51.7796038483
 10
114.5788822589
 20
50.9558475154
 10
115.0139114925
 20
50.1590068765
 10
115.520789249
 20
49.4108175091
 10
116.0856900451
 20
48.7316851377
 10
116.6932039391
 20
48.140137755
 10
117.3267599758
 20
47.6523104485
 10
117.96907663
 20
47.2815089368
 10
118.6026326666
 20
47.0378480135
 10
119.2101465607
 20
46.9279747843
 10
119.7750473567
 20
46.9548865796
 10
120.2819251132
 20
47.1178473462
 10
120.7169543469
 20
47.4124139232
 10
121.0682680855
 20
47.830551667
 10
121.111583192
 20
47.9006742123
  0
LWPOLYLINE
  5
1F8
330
1F
100
AcDbEntity
  8
0
  6
Continuous
 62
     7
100
AcDbPolyline
 90
       12
 70
   128
 43
0.0
 10
59.8262379965
 20
69.3192972239
 10
60.1112060101
 20
68.7502908749
 10
60.5676853555
 20
68.0086481662
 10
61.0891287994
 20
67.3283002997
 10
61.659689127
 20
66.7299212532
 10
62.2620360808
 20
66.2316890266
 10
62.8778621237
 20
65.848747281
 10
63.4884566889
 20
65.5927278219
 10
64.0752698949
 20
65.4714099651
 10
64.6204683564
 20
65.4884818032
 10
65.107490996
 20
65.6434216256
 10
65.2055166631
 20
65.6957400241
  0
LWPOLYLINE
  5
1F9
330
1F
100
AcDbEntity
  8
0
  6
Continuous
 62
     7
100
AcDbPolyline
 90
       13
 70
   128
 43
0.0
 10
120.1477150596
 20
47.6123006526
 10
120.0922340019
 20
47.5816624804
 10
119.6115202187
 20
47.4138470924
 10
119.0711436201
 20
47.3836326266
 10
118.4875217208
 20
47.4919400232
 10
117.8783904414
 20
47.7354766212
 10
117.2622555412
 20
48.106841431
 10
116.6578394405
 20
48.5947532216
 10
116.0835056529
 20
49.1843858302
 10
115.5567062665
 20
49.8578240087
 10
115.0934472055
 20
50.5946048221
 10
114.7078048587
 20
51.372341944
 10
114.5865496926
 20
51.6674958724
  0
LINE
  5
1FA
330
1F
100
AcDbEntity
  8
0
  6
Continuous
 62
     7
100
AcDbLine
 10
74.938670148
 20
60.5950772171
 30
0.0
 11
73.0294811307
 21
61.6972285768
 31
0.0
  0
LINE
  5
1FB
330
1F
100
AcDbEntity
  8
0
  6
Continuous
 62
     7
100
AcDbLine
 10
80.4541028916
 20
63.7790687669
 30
0.0
 11
74.938670148
 21
60.5950772171
 31
0.0
  0
LINE
  5
1FC
330
1F
100
AcDbEntity
  8
0
  6
Continuous
 62
     7
100
AcDbLine
 10
66.877652048
 20
71.6165870126
 30
0.0
 11
80.4541028916
 21
63.7790687669
 31
0.0
  0
LINE
  5
1FD
330
1F
100
AcDbEntity
  8
0
  6
Continuous
 62
     7
100
AcDbLine
 10
69.0696832973
 20
72.8820197173
 30
0.0
 11
66.877652048
 21
71.6165870126
 31
0.0
  0
LINE
  5
1FE
330
1F
100
AcDbEntity
  8
0
  6
Continuous
 62
     7
100
AcDbLine
 10
74.7265378154
 20
72.8820193372
 30
0.0
 11
69.0696832973
 21
72.8820197173
 31
0.0
  0
LINE
  5
1FF
330
1F
100
AcDbEntity
  8
0
  6
Continuous
 62
     7
100
AcDbLine
 10
113.97096336
 20
50.2266947025
 30
0.0
 11
74.7265378154
 21
72.8820193372
 31
0.0
  0
LINE
  5
200
330
1F
100
AcDbEntity
  8
0
  6
Continuous
 62
     7
100
AcDbLine
 10
113.97096336
 20
46.9610624802
 30
0.0
 11
113.97096336
 21
50.2266947025
 31
0.0
  0
LINE
  5
201
330
1F
100
AcDbEntity
  8
0
  6
Continuous
 62
     7
100
AcDbLine
 10
111.7789321107
 20
45.6956297755
 30
0.0
 11
113.97096336
 21
46.9610624802
 31
0.0
  0
LINE
  5
202
330
1F
100
AcDbEntity
  8
0
  6
Continuous
 62
     7
100
AcDbLine
 10
109.8697440812
 20
46.797780565
 30
0.0
 11
111.7789321107
 21
45.6956297755
 31
0.0
  0
LINE
  5
203
330
1F
100
AcDbEntity
  8
0
  6
Continuous
 62
     7
100
AcDbLine
 10
104.3543113376
 20
43.6137890152
 30
0.0
 11
109.8697440812
 21
46.797780565
 31
0.0
  0
LINE
  5
204
330
1F
100
AcDbEntity
  8
0
  6
Continuous
 62
     7
100
AcDbLine
 10
117.930761852
 20
35.7762709596
 30
0.0
 11
104.3543113376
 21
43.6137890152
 31
0.0
  0
LINE
  5
205
330
1F
100
AcDbEntity
  8
0
  6
Continuous
 62
     7
100
AcDbLine
 10
115.7387306027
 20
34.5108382549
 30
0.0
 11
117.930761852
 21
35.7762709596
 31
0.0
  0
LINE
  5
206
330
1F
100
AcDbEntity
  8
0
  6
Continuous
 62
     7
100
AcDbLine
 10
110.081875426
 20
34.5108382549
 30
0.0
 11
115.7387306027
 21
34.5108382549
 31
0.0
  0
LINE
  5
207
330
1F
100
AcDbEntity
  8
0
  6
Continuous
 62
     7
100
AcDbLine
 10
70.8374498814
 20
57.1661628896
 30
0.0
 11
110.081875426
 21
34.5108382549
 31
0.0
  0
LINE
  5
208
330
1F
100
AcDbEntity
  8
0
  6
Continuous
 62
     7
100
AcDbLine
 10
70.8374498814
 20
60.4317958721
 30
0.0
 11
70.8374498814
 21
57.1661628896
 31
0.0
  0
LINE
  5
209
330
1F
100
AcDbEntity
  8
0
  6
Continuous
 62
     7
100
AcDbLine
 10
73.0294811307
 20
61.6972285768
 30
0.0
 11
70.8374498814
 21
60.4317958721
 31
0.0
  0
LINE
  5
20E
330
1F
100
AcDbEntity
  8
0
  6
Continuous
 62
     7
100
AcDbLine
 10
74.7265378154
 20
74.6781916212
 30
0.0
 11
74.7265378154
 21
72.8820193372
 31
0.0
  0
LINE
  5
20F
330
1F
100
AcDbEntity
  8
0
  6
Continuous
 62
     7
100
AcDbLine
 10
69.0696832973
 20
72.8820197173
 30
0.0
 11
69.0696832973
 21
74.9231066801
 31
0.0
  0
LINE
  5
210
330
1F
100
AcDbEntity
  8
0
  6
Continuous
 62
     7
100
AcDbLine
 10
113.97096336
 20
50.2266947025
 30
0.0
 11
113.97096336
 21
52.0228669865
 31
0.0
  0
LINE
  5
211
330
1F
100
AcDbEntity
  8
0
  6
Continuous
 62
     7
100
AcDbLine
 10
74.938670148
 20
60.7583592463
 30
0.0
 11
74.938670148
 21
60.5950772171
 31
0.0
  0
LINE
  5
212
330
1F
100
AcDbEntity
  8
0
  6
Continuous
 62
     7
100
AcDbLine
 10
70.8374498814
 20
62.9626604809
 30
0.0
 11
70.8374498814
 21
60.4317958721
 31
0.0
  0
LINE
  5
214
330
1F
100
AcDbEntity
  8
0
  6
Continuous
 62
     7
100
AcDbLine
 10
64.8977537898
 20
72.9228392932
 30
0.0
 11
80.4541028916
 21
63.9423501119
 31
0.0
  0
LINE
  5
215
330
1F
100
AcDbEntity
  8
0
  6
Continuous
 62
     7
100
AcDbLine
 10
80.4541028916
 20
63.9423501119
 30
0.0
 11
74.797249032
 21
60.6767178896
 31
0.0
  0
LINE
  5
216
330
1F
100
AcDbEntity
  8
0
  6
Continuous
 62
     7
100
AcDbLine
 10
74.797249032
 20
60.6767178896
 30
0.0
 11
59.2408999302
 21
69.657207071
 31
0.0
  0
LINE
  5
217
330
1F
100
AcDbEntity
  8
0
  6
Continuous
 62
     7
100
AcDbLine
 10
59.2408999302
 20
69.657207071
 30
0.0
 11
58.5337930331
 21
69.2490029482
 31
0.0
  0
LINE
  5
218
330
1F
100
AcDbEntity
  8
0
  6
Continuous
 62
     7
100
AcDbLine
 10
45.0987606713
 20
77.0048820421
 30
0.0
 11
58.5337930331
 21
69.2490029482
 31
0.0
  0
LINE
  5
219
330
1F
100
AcDbEntity
  8
0
  6
Continuous
 62
     7
100
AcDbLine
 10
52.1698283251
 20
81.08692251
 30
0.0
 11
45.0987606713
 21
77.0048820421
 31
0.0
  0
LINE
  5
21A
330
1F
100
AcDbEntity
  8
0
  6
Continuous
 62
     7
100
AcDbLine
 10
52.1698283251
 20
81.08692251
 30
0.0
 11
65.6048606869
 21
73.3310434161
 31
0.0
  0
LINE
  5
21B
330
1F
100
AcDbEntity
  8
0
  6
Continuous
 62
     7
100
AcDbLine
 10
65.6048606869
 20
73.3310434161
 30
0.0
 11
64.8977537898
 21
72.9228392932
 31
0.0
  0
LINE
  5
21C
330
1F
100
AcDbEntity
  8
0
  6
Continuous
 62
     7
100
AcDbLine
 10
52.1698283251
 20
108.849310102
 30
0.0
 11
45.0987606713
 21
104.7672696341
 31
0.0
  0
LINE
  5
21D
330
1F
100
AcDbEntity
  8
0
  6
Continuous
 62
     7
100
AcDbLine
 10
52.1698283251
 20
108.849310102
 30
0.0
 11
52.1698283251
 21
81.08692251
 31
0.0
  0
LINE
  5
21E
330
1F
100
AcDbEntity
  8
0
  6
Continuous
 62
     7
100
AcDbLine
 10
45.0987606713
 20
104.7672696341
 30
0.0
 11
45.0987606713
 21
77.0048820421
 31
0.0
  0
LINE
  5
21F
330
1F
100
AcDbEntity
  8
0
  6
Continuous
 62
     7
100
AcDbLine
 10
143.0330520889
 20
28.6326999507
 30
0.0
 11
143.0330520889
 21
29.6941053846
 31
0.0
  0
LINE
  5
220
330
1F
100
AcDbEntity
  8
0
  6
Continuous
 62
     7
100
AcDbLine
 10
126.4160419829
 20
38.2254956965
 30
0.0
 11
143.0330520889
 21
28.6326999507
 31
0.0
  0
LINE
  5
221
330
1F
100
AcDbEntity
  8
0
  6
Continuous
 62
     7
100
AcDbLine
 10
126.4160419829
 20
44.8384764356
 30
0.0
 11
126.4160419829
 21
40.2667149798
 31
0.0
  0
LINE
  5
222
330
1F
100
AcDbEntity
  8
0
  6
Continuous
 62
     7
100
AcDbLine
 10
126.4160419829
 20
39.2869011304
 30
0.0
 11
126.4160419829
 21
38.2254956965
 31
0.0
  0
LINE
  5
223
330
1F
100
AcDbEntity
  8
0
  6
Continuous
 62
     7
100
AcDbLine
 10
65.6048606869
 20
74.39244885
 30
0.0
 11
65.6048606869
 21
73.3310434161
 31
0.0
  0
LINE
  5
224
330
1F
100
AcDbEntity
  8
0
  6
Continuous
 62
     7
100
AcDbLine
 10
52.7355233258
 20
108.5227413293
 30
0.0
 11
52.1698283251
 21
108.849310102
 31
0.0
  0
LINE
  5
225
330
1F
100
AcDbEntity
  8
0
  6
Continuous
 62
     7
100
AcDbLine
 10
46.8665312067
 20
110.2790834711
 30
0.0
 11
46.8665312067
 21
105.7877774682
 31
0.0
  0
LWPOLYLINE
  5
226
330
1F
100
AcDbEntity
  8
0
  6
Continuous
 62
     7
100
AcDbPolyline
 90
       11
 70
   128
 43
0.0
 10
51.1091699551
 20
112.7291059292
 10
50.4454729949
 20
113.0519316333
 10
49.7981237435
 20
113.2461706801
 10
49.1830537098
 20
113.3070427739
 10
48.6154094173
 20
113.2330497032
 10
48.1091730832
 20
113.0260118071
 10
47.6768043694
 20
112.6910268771
 10
47.3289506235
 20
112.2363454137
 10
47.0741781926
 20
111.6731622344
 10
46.9187616887
 20
111.0153426875
 10
46.8665312067
 20
110.2790834711
  0
LINE
  5
227
330
1F
100
AcDbEntity
  8
0
  6
Continuous
 62
     7
100
AcDbLine
 10
52.7355220087
 20
111.7902328731
 30
0.0
 11
51.1091699551
 21
112.7291059292
 31
0.0
  0
LINE
  5
228
330
1F
100
AcDbEntity
  8
0
  6
Continuous
 62
     7
100
AcDbLine
 10
150.1041197427
 20
22.918904592
 30
0.0
 11
150.1041197427
 21
25.6120649096
 31
0.0
  0
LWPOLYLINE
  5
229
330
1F
100
AcDbEntity
  8
0
  6
Continuous
 62
     7
100
AcDbPolyline
 90
       11
 70
   128
 43
0.0
 10
145.8614809943
 20
20.4688836548
 10
146.5251726862
 20
20.1460594711
 10
147.1725272059
 20
19.9518189039
 10
147.7875972396
 20
19.8909452891
 10
148.3552415321
 20
19.9649383599
 10
148.8614778663
 20
20.1719777769
 10
149.2938465801
 20
20.506961186
 10
149.6417003259
 20
20.9616441703
 10
149.8964727568
 20
21.5248273495
 10
150.0518839923
 20
22.1826499378
 10
150.1041197427
 20
22.918904592
  0
LINE
  5
22A
330
1F
100
AcDbEntity
  8
0
  6
Continuous
 62
     7
100
AcDbLine
 10
145.8614809943
 20
20.4688836548
 30
0.0
 11
137.3764274027
 21
25.3672008296
 31
0.0
  0
LINE
  5
22B
330
1F
100
AcDbEntity
  8
0
  6
Continuous
 62
     7
100
AcDbLine
 10
143.0330520889
 20
28.6326999507
 30
0.0
 11
135.961984435
 21
24.5506594828
 31
0.0
  0
LINE
  5
22C
330
1F
100
AcDbEntity
  8
0
  6
Continuous
 62
     7
100
AcDbLine
 10
119.3449743291
 20
34.1434552286
 30
0.0
 11
135.961984435
 21
24.5506594828
 31
0.0
  0
LINE
  5
22D
330
1F
100
AcDbEntity
  8
0
  6
Continuous
 62
     7
100
AcDbLine
 10
119.3449743291
 20
34.1434552286
 30
0.0
 11
120.0520812261
 21
34.5516593514
 31
0.0
  0
LINE
  5
22E
330
1F
100
AcDbEntity
  8
0
  6
Continuous
 62
     7
100
AcDbLine
 10
120.0520812261
 20
34.5516593514
 30
0.0
 11
104.4957327829
 21
43.5321481527
 31
0.0
  0
LINE
  5
22F
330
1F
100
AcDbEntity
  8
0
  6
Continuous
 62
     7
100
AcDbLine
 10
104.4957327829
 20
43.5321481527
 30
0.0
 11
110.1525866425
 21
46.7977803749
 31
0.0
  0
LINE
  5
230
330
1F
100
AcDbEntity
  8
0
  6
Continuous
 62
     7
100
AcDbLine
 10
110.1525866425
 20
46.7977803749
 30
0.0
 11
125.7089350858
 21
37.8172915737
 31
0.0
  0
LINE
  5
231
330
1F
100
AcDbEntity
  8
0
  6
Continuous
 62
     7
100
AcDbLine
 10
125.7089350858
 20
37.8172915737
 30
0.0
 11
126.4160419829
 21
38.2254956965
 31
0.0
  0
LINE
  5
232
330
1F
100
AcDbEntity
  8
0
  6
Continuous
 62
     7
100
AcDbLine
 10
125.7089350858
 20
45.2466794171
 30
0.0
 11
125.7089350858
 21
37.8172915737
 31
0.0
  0
LINE
  5
233
330
1F
100
AcDbEntity
  8
0
  6
Continuous
 62
     7
100
AcDbLine
 10
104.4957327829
 20
43.6954301819
 30
0.0
 11
104.4957327829
 21
43.5321481527
 31
0.0
  0
LINE
  5
234
330
1F
100
AcDbEntity
  8
0
  6
Continuous
 62
     7
100
AcDbLine
 10
119.3449743291
 20
34.5517340666
 30
0.0
 11
119.3449743291
 21
34.1434552286
 31
0.0
  0
LINE
  5
235
330
1F
100
AcDbEntity
  8
0
  6
Continuous
 62
     7
100
AcDbLine
 10
126.981727764
 20
44.51191329
 30
0.0
 11
126.981727764
 21
40.5932784301
 31
0.0
  0
ARC
  5
236
330
1F
100
AcDbEntity
  8
0
  6
Continuous
 62
     8
100
AcDbCircle
 10
58.7459279246
 20
84.8132930789
 30
0.0
 40
0.7685236851504563
100
AcDbArc
 50
62.6100975494
 51
117.3897792324
  0
ARC
  5
237
330
1F
100
AcDbEntity
  8
0
  6
Continuous
 62
     8
100
AcDbCircle
 10
58.3318739769
 20
85.5305921075
 30
0.0
 40
0.7684024434964989
100
AcDbArc
 50
302.6055366237
 51
357.394586469
  0
ARC
  5
238
330
1F
100
AcDbEntity
  8
0
  6
Continuous
 62
     8
100
AcDbCircle
 10
59.1600008262
 20
85.5306030505
 30
0.0
 40
0.7684203747697095
100
AcDbArc
 50
182.6061127247
 51
237.3938874209
  0
LINE
  5
239
330
1F
100
AcDbEntity
  8
0
  6
Continuous
 62
     8
100
AcDbLine
 10
58.3923752098
 20
85.4956633102
 30
0.0
 11
58.3923752098
 21
124.6896226214
 31
0.0
  0
ARC
  5
23A
330
1F
100
AcDbEntity
  8
0
  6
Continuous
 62
     8
100
AcDbCircle
 10
58.7459279246
 20
124.0072523901
 30
0.0
 40
0.768523685150532
100
AcDbArc
 50
62.6100975494
 51
117.3897792324
  0
LINE
  5
23B
330
1F
100
AcDbEntity
  8
0
  6
Continuous
 62
     8
100
AcDbLine
 10
59.0994821069
 20
124.689621861
 30
0.0
 11
59.0994821069
 21
85.4956625498
 31
0.0
  0
LINE
  5
23C
330
1F
100
AcDbEntity
  8
0
  6
Continuous
 62
     8
100
AcDbLine
 10
52.7355206916
 20
82.2300307078
 30
0.0
 11
58.3923752098
 21
85.4956633102
 31
0.0
  0
LINE
  5
23D
330
1F
100
AcDbEntity
  8
0
  6
Continuous
 62
     8
100
AcDbLine
 10
58.7459293169
 20
84.8832896352
 30
0.0
 11
53.0890747987
 21
81.6176570328
 31
0.0
  0
LINE
  5
23E
330
1F
100
AcDbEntity
  8
0
  6
Continuous
 62
     8
100
AcDbLine
 10
163.7512883883
 20
24.2649861402
 30
0.0
 11
58.7459293169
 21
84.8832896352
 31
0.0
  0
LINE
  5
23F
330
1F
100
AcDbEntity
  8
0
  6
Continuous
 62
     8
100
AcDbLine
 10
59.0994821069
 20
85.4956625498
 30
0.0
 11
164.1048411783
 21
24.8773590548
 31
0.0
  0
ARC
  5
240
330
1F
100
AcDbEntity
  8
0
  6
Continuous
 62
     8
100
AcDbCircle
 10
163.3372330483
 20
24.9122886125
 30
0.0
 40
0.7684024434965844
100
AcDbArc
 50
302.6055366237
 51
357.394586469
  0
LINE
  5
241
330
1F
100
AcDbEntity
  8
0
  6
Continuous
 62
     8
100
AcDbLine
 10
58.3923752098
 20
124.6896226214
 30
0.0
 11
52.7355206916
 21
121.423990019
 31
0.0
  0
LINE
  5
242
330
1F
100
AcDbEntity
  8
0
  6
Continuous
 62
     8
100
AcDbLine
 10
164.1048411783
 20
64.071318366
 30
0.0
 11
59.0994821069
 21
124.689621861
 31
0.0
  0
LINE
  5
243
330
1F
100
AcDbEntity
  8
0
  6
Continuous
 62
     8
100
AcDbLine
 10
164.1048411783
 20
24.8773590548
 30
0.0
 11
164.1048411783
 21
64.071318366
 31
0.0
  0
LINE
  5
244
330
1F
100
AcDbEntity
  8
0
  6
Continuous
 62
     8
100
AcDbLine
 10
158.0944338701
 20
20.9993535378
 30
0.0
 11
163.7512883883
 21
24.2649861402
 31
0.0
  0
ARC
  5
245
330
1F
100
AcDbEntity
  8
0
  6
Continuous
 62
     8
100
AcDbCircle
 10
58.6302336851
 20
124.7198952292
 30
0.0
 40
0.2397771570565276
100
AcDbArc
 50
124.057928362
 51
187.2531261128
  0
ARC
  5
246
330
1F
100
AcDbEntity
  8
0
  6
Continuous
 62
     8
100
AcDbCircle
 10
58.8584192751
 20
124.7184475624
 30
0.0
 40
0.2427801678931864
100
AcDbArc
 50
353.1810891187
 51
55.5064759908
  0
ARC
  5
247
330
1F
100
AcDbEntity
  8
0
  6
Continuous
 62
     8
100
AcDbCircle
 10
163.8637783464
 20
64.1001440673
 30
0.0
 40
0.242780168039527
100
AcDbArc
 50
353.1810891396
 51
55.5064759699
  0
ARC
  5
248
330
1F
100
AcDbEntity
  8
0
  6
Continuous
 62
     8
100
AcDbCircle
 10
164.0010622615
 20
24.6483060776
 30
0.0
 40
0.2514663593673269
100
AcDbArc
 50
5.694527469100001
 51
65.625754805
  0
ARC
  5
249
330
1F
100
AcDbEntity
  8
0
  6
Continuous
 62
     8
100
AcDbCircle
 10
163.8977459022
 20
24.4694223305
 30
0.0
 40
0.2514835169314305
100
AcDbArc
 50
234.3822943947
 51
294.307908262
  0
ARC
  5
24A
330
1F
100
AcDbEntity
  8
0
  6
Continuous
 62
     8
100
AcDbCircle
 10
164.0010622615
 20
63.8422653888
 30
0.0
 40
0.2514663593672873
100
AcDbArc
 50
5.694527469100001
 51
65.62575480510002
  0
LINE
  5
24B
330
1F
100
AcDbEntity
  8
0
  6
Continuous
 62
     8
100
AcDbLine
 10
39.44191208
 20
74.555793807
 30
0.0
 11
45.0987672567
 21
77.8214267896
 31
0.0
  0
LINE
  5
24C
330
1F
100
AcDbEntity
  8
0
  6
Continuous
 62
     8
100
AcDbLine
 10
45.0987606713
 20
77.0049468714
 30
0.0
 11
39.7954661871
 21
73.9434201321
 31
0.0
  0
ARC
  5
24D
330
1F
100
AcDbEntity
  8
0
  6
Continuous
 62
     8
100
AcDbCircle
 10
40.2095376964
 20
74.5907335473
 30
0.0
 40
0.7684203747696357
100
AcDbArc
 50
182.6061127247
 51
237.3938874209
  0
LINE
  5
24E
330
1F
100
AcDbEntity
  8
0
  6
Continuous
 62
     8
100
AcDbLine
 10
39.44191208
 20
113.7497531182
 30
0.0
 11
39.44191208
 21
74.555793807
 31
0.0
  0
LINE
  5
24F
330
1F
100
AcDbEntity
  8
0
  6
Continuous
 62
     8
100
AcDbLine
 10
45.0987672567
 20
117.0153861008
 30
0.0
 11
39.44191208
 21
113.7497531182
 31
0.0
  0
LINE
  5
250
330
1F
100
AcDbEntity
  8
0
  6
Continuous
 62
     8
100
AcDbLine
 10
144.8008252585
 20
13.325116637
 30
0.0
 11
150.4576804352
 21
16.5907496196
 31
0.0
  0
LINE
  5
251
330
1F
100
AcDbEntity
  8
0
  6
Continuous
 62
     8
100
AcDbLine
 10
39.7954661871
 20
73.9434201321
 30
0.0
 11
144.8008252585
 21
13.325116637
 31
0.0
  0
ARC
  5
252
330
1F
100
AcDbEntity
  8
0
  6
Continuous
 62
     8
100
AcDbCircle
 10
39.5457111446
 20
74.3267289352
 30
0.0
 40
0.2514855090976874
100
AcDbArc
 50
114.3773079407
 51
174.3034453189
  0
ARC
  5
253
330
1F
100
AcDbEntity
  8
0
  6
Continuous
 62
     8
100
AcDbCircle
 10
39.6490080447
 20
74.147862669
 30
0.0
 40
0.2514890422319041
100
AcDbArc
 50
245.6928174194
 51
305.6169799240001
  0
ARC
  5
254
330
1F
100
AcDbEntity
  8
0
  6
Continuous
 62
     8
100
AcDbCircle
 10
39.5457111446
 20
113.5206882464
 30
0.0
 40
0.2514855090976549
100
AcDbArc
 50
114.3773079406
 51
174.3034453189
  0
ARC
  5
255
330
1F
100
AcDbEntity
  8
0
  6
Continuous
 62
     8
100
AcDbCircle
 10
144.6543671161
 20
13.529559174
 30
0.0
 40
0.2514890422320654
100
AcDbArc
 50
245.6928174194
 51
305.6169799240001
  0
ARC
  5
256
330
1F
100
AcDbEntity
  8
0
  6
Continuous
 62
     8
100
AcDbCircle
 10
39.6797705553
 20
113.7800257261
 30
0.0
 40
0.2397771570412386
100
AcDbArc
 50
124.0579283598
 51
187.253126115
  0
ARC
  5
257
330
1F
100
AcDbEntity
  8
0
  6
Continuous
 62
     8
100
AcDbCircle
 10
144.9472827724
 20
13.5295528273
 30
0.0
 40
0.2514835169313533
100
AcDbArc
 50
234.3822943947
 51
294.307908262
  0
LINE
  5
258
330
1F
100
AcDbEntity
  8
0
  6
Continuous
 62
     8
100
AcDbLine
 10
47.5736341526
 20
108.2378004983
 30
0.0
 11
47.8564763846
 21
108.4010818433
 31
0.0
  0
LINE
  5
259
330
1F
100
AcDbEntity
  8
0
  6
Continuous
 62
     8
100
AcDbLine
 10
47.8564763846
 20
110.0341629743
 30
0.0
 11
47.5736341526
 21
109.8708816293
 31
0.0
  0
LINE
  5
25A
330
1F
100
AcDbEntity
  8
0
  6
Continuous
 62
     8
100
AcDbLine
 10
140.4874680496
 20
24.7143389281
 30
0.0
 11
140.2046258176
 21
24.5510575831
 31
0.0
  0
LINE
  5
25B
330
1F
100
AcDbEntity
  8
0
  6
Continuous
 62
     8
100
AcDbLine
 10
145.8614809943
 20
21.2854246005
 30
0.0
 11
146.1443232263
 21
21.4487059455
 31
0.0
  0
LINE
  5
25C
330
1F
100
AcDbEntity
  8
0
  6
Continuous
 62
     8
100
AcDbLine
 10
46.8665312067
 20
110.2790834711
 30
0.0
 11
45.8058781051
 21
109.6667814687
 31
0.0
  0
LINE
  5
25D
330
1F
100
AcDbEntity
  8
0
  6
Continuous
 62
     8
100
AcDbLine
 10
115.1023342636
 20
34.5108397922
 30
0.0
 11
115.1023342636
 21
33.7354505353
 31
0.0
  0
LINE
  5
25E
330
1F
100
AcDbEntity
  8
0
  6
Continuous
 62
     8
100
AcDbLine
 10
145.5078768378
 20
20.2647523203
 30
0.0
 11
145.8614809943
 21
20.4688836548
 31
0.0
  0
LINE
  5
2CD
330
1F
100
AcDbEntity
  8
0
  6
CENTER
 62
     1
100
AcDbLine
 10
-56.19963907698425
 20
217.4958302410809
 30
0.0
 11
-34.85686697037787
 21
230.8480224645694
 31
0.0
  0
LINE
  5
2CE
330
1F
100
AcDbEntity
  8
0
  6
CENTER
 62
     1
100
AcDbLine
 10
-34.85686697037787
 20
230.8480224645694
 30
0.0
 11
-15.31214121491749
 21
220.3239393654754
 31
0.0
  0
LINE
  5
2CF
330
1F
100
AcDbEntity
  8
0
  6
CENTER
 62
     1
100
AcDbLine
 10
-15.31214121491749
 20
220.3239393654754
 30
0.0
 11
7.239465425998191
 21
231.8503160930545
 31
0.0
  0
LINE
  5
2D0
330
1F
100
AcDbEntity
  8
0
  6
CENTER
 62
     1
100
AcDbLine
 10
7.239465425998191
 20
231.8503160930545
 30
0.0
 11
27.78648480994357
 21
220.825086179718
 31
0.0
  0
LINE
  5
2D1
330
1F
100
AcDbEntity
  8
0
  6
CENTER
 62
     1
100
AcDbLine
 10
27.78648480994357
 20
220.825086179718
 30
0.0
 11
50.8392382651019
 21
227.841141579114
 31
0.0
  0
LINE
  5
2D2
330
1F
100
AcDbEntity
  8
0
  6
CENTER
 62
     1
100
AcDbLine
 10
50.8392382651019
 20
227.841141579114
 30
0.0
 11
67.3770831351068
 21
217.31705848002
 31
0.0
  0
LINE
  5
2D3
330
1F
100
AcDbEntity
  8
0
  6
CENTER
 62
     1
100
AcDbLine
 10
67.3770831351068
 20
217.31705848002
 30
0.0
 11
123.1606808053758
 21
227.3399947648714
 31
0.0
  0
LINE
  5
2D4
330
1F
100
AcDbEntity
  8
0
  6
CENTER
 62
     1
100
AcDbLine
 10
123.1606808053758
 20
227.3399947648714
 30
0.0
 11
142.7054065608361
 21
215.3124712230497
 31
0.0
  0
LINE
  5
2D5
330
1F
100
AcDbEntity
  8
0
  6
CENTER
 62
     1
100
AcDbLine
 10
142.7054065608361
 20
215.3124712230497
 30
0.0
 11
135.1882043471976
 21
175.0416841600045
 31
0.0
  0
LINE
  5
2D6
330
1F
100
AcDbEntity
  8
0
  6
CENTER
 62
     1
100
AcDbLine
 10
-56.19963907698425
 20
188.4522066343
 30
0.0
 11
-56.19963907698425
 21
217.4958302410809
 31
0.0
  0
LINE
  5
2D8
330
1F
100
AcDbEntity
  8
0
  6
CENTER
 62
     1
100
AcDbLine
 10
135.1882043471976
 20
175.0416841600045
 30
0.0
 11
150.5193005994295
 21
152.4522066343
 31
0.0
  0
LINE
  5
2DB
330
1F
100
AcDbEntity
  8
0
  6
CENTER
 62
     1
100
AcDbLine
 10
-56.19963907698425
 20
188.4522066343
 30
0.0
 11
65.80036092301575
 21
188.4522066343
 31
0.0
  0
LINE
  5
2DC
330
1F
100
AcDbEntity
  8
0
  6
CENTER
 62
     1
100
AcDbLine
 10
75.80036092301575
 20
178.4522066343
 30
0.0
 11
75.80036092301575
 21
152.4522066343
 31
0.0
  0
LINE
  5
2DD
330
1F
100
AcDbEntity
  8
0
  6
CENTER
 62
     1
100
AcDbLine
 10
75.80036092301575
 20
152.4522066343
 30
0.0
 11
150.5193005994295
 21
152.4522066343
 31
0.0
  0
ARC
  5
2DE
330
1F
100
AcDbEntity
  8
0
  6
CENTER
 62
     1
100
AcDbCircle
 10
65.80036092301575
 20
178.4522066343
 30
0.0
 40
10.0
100
AcDbArc
 50
0.0
 51
90.0
  0
LINE
  5
2E0
330
1F
100
AcDbEntity
  8
0
  6
CENTER
 62
     1
100
AcDbLine
 10
462.6479312344152
 20
217.4958302410809
 30
0.0
 11
441.3051591278088
 21
230.8480224645694
 31
0.0
  0
LINE
  5
2E1
330
1F
100
AcDbEntity
  8
0
  6
CENTER
 62
     1
100
AcDbLine
 10
441.3051591278088
 20
230.8480224645694
 30
0.0
 11
421.7604333723484
 21
220.3239393654754
 31
0.0
  0
LINE
  5
2E2
330
1F
100
AcDbEntity
  8
0
  6
CENTER
 62
     1
100
AcDbLine
 10
421.7604333723484
 20
220.3239393654754
 30
0.0
 11
399.2088267314327
 21
231.8503160930545
 31
0.0
  0
LINE
  5
2E3
330
1F
100
AcDbEntity
  8
0
  6
CENTER
 62
     1
100
AcDbLine
 10
399.2088267314327
 20
231.8503160930545
 30
0.0
 11
378.6618073474874
 21
220.825086179718
 31
0.0
  0
LINE
  5
2E4
330
1F
100
AcDbEntity
  8
0
  6
CENTER
 62
     1
100
AcDbLine
 10
378.6618073474874
 20
220.825086179718
 30
0.0
 11
355.609053892329
 21
227.841141579114
 31
0.0
  0
LINE
  5
2E5
330
1F
100
AcDbEntity
  8
0
  6
CENTER
 62
     1
100
AcDbLine
 10
355.609053892329
 20
227.841141579114
 30
0.0
 11
339.0712090223242
 21
217.31705848002
 31
0.0
  0
LINE
  5
2E6
330
1F
100
AcDbEntity
  8
0
  6
CENTER
 62
     1
100
AcDbLine
 10
339.0712090223242
 20
217.31705848002
 30
0.0
 11
283.2876113520551
 21
227.3399947648714
 31
0.0
  0
LINE
  5
2E7
330
1F
100
AcDbEntity
  8
0
  6
CENTER
 62
     1
100
AcDbLine
 10
283.2876113520551
 20
227.3399947648714
 30
0.0
 11
263.7428855965949
 21
215.3124712230497
 31
0.0
  0
LINE
  5
2E8
330
1F
100
AcDbEntity
  8
0
  6
CENTER
 62
     1
100
AcDbLine
 10
263.7428855965949
 20
215.3124712230497
 30
0.0
 11
271.2600878102334
 21
175.0416841600045
 31
0.0
  0
LINE
  5
2E9
330
1F
100
AcDbEntity
  8
0
  6
CENTER
 62
     1
100
AcDbLine
 10
462.6479312344152
 20
188.4522066343
 30
0.0
 11
462.6479312344152
 21
217.4958302410809
 31
0.0
  0
LINE
  5
2EA
330
1F
100
AcDbEntity
  8
0
  6
CENTER
 62
     1
100
AcDbLine
 10
271.2600878102334
 20
175.0416841600045
 30
0.0
 11
255.9289915580015
 21
152.4522066343
 31
0.0
  0
LINE
  5
2EB
330
1F
100
AcDbEntity
  8
0
  6
CENTER
 62
     1
100
AcDbLine
 10
462.6479312344152
 20
188.4522066343
 30
0.0
 11
340.6479312344152
 21
188.4522066343
 31
0.0
  0
LINE
  5
2EC
330
1F
100
AcDbEntity
  8
0
  6
CENTER
 62
     1
100
AcDbLine
 10
330.6479312344152
 20
178.4522066343
 30
0.0
 11
330.6479312344152
 21
152.4522066343
 31
0.0
  0
LINE
  5
2ED
330
1F
100
AcDbEntity
  8
0
  6
CENTER
 62
     1
100
AcDbLine
 10
330.6479312344152
 20
152.4522066343
 30
0.0
 11
255.9289915580015
 21
152.4522066343
 31
0.0
  0
ARC
  5
2EE
330
1F
100
AcDbEntity
  8
0
  6
CENTER
 62
     1
100
AcDbCircle
 10
340.6479312344152
 20
178.4522066343
 30
0.0
 40
10.0
100
AcDbArc
 50
90.0
 51
180.0
  0
LWPOLYLINE
  5
C43
330
1F
100
AcDbEntity
  8
0
  6
Continuous
 62
     7
370
    15
100
AcDbPolyline
 90
       16
 70
   128
 43
0.0
 10
77.71677143815323
 20
57.35849697930084
 10
77.94705749595444
 20
57.8163519073116
 10
78.23367029854678
 20
58.26348517758967
 10
78.5751316794004
 20
58.69759076113527
 10
78.96968059790625
 20
59.11642981747005
 10
79.41528222170355
 20
59.51784224115258
 10
79.90963842105067
 20
59.89975780222792
 10
80.45019962111674
 20
60.26020682315729
 10
81.03417795106675
 20
60.59733033716171
 10
81.65856162212607
 20
60.90938967559006
 10
82.32013046047128
 20
61.1947754348665
 10
83.01547251483846
 20
61.45201577677003
 10
83.74100165319767
 20
61.67978401924009
 10
84.49297605774076
 20
61.87690547855865
 10
85.26751752279769
 20
62.04236352762157
 10
86.06063145615452
 20
62.17530483905486
  0
LINE
  5
C44
330
1F
100
AcDbEntity
  8
0
  6
Continuous
 62
     7
370
    15
100
AcDbLine
 10
100.0205741494467
 20
54.11640146079893
 30
0.0
 11
86.06063145615452
 21
62.17530483905486
 31
0.0
  0
ELLIPSE
  5
C45
330
1F
100
AcDbEntity
  8
0
  6
Continuous
 62
     7
370
    15
100
AcDbEllipse
 10
88.86867279379994
 20
147.6625575919835
 30
0.0
 11
7.937799335106567
 21
183.9299700604019
 31
0.0
210
0.0
220
0.0
230
1.0
 40
0.0452407959597895
 41
4.150089500854603
 42
4.20861876746117
  0
LWPOLYLINE
  5
C46
330
1F
100
AcDbEntity
  8
0
  6
Continuous
 62
     7
370
    15
100
AcDbPolyline
 90
       16
 70
   128
 43
0.0
 10
100.0205741494467
 20
54.11640146079893
 10
99.79028809164545
 20
53.65854653278816
 10
99.5036752890531
 20
53.21141326251009
 10
99.16221390819949
 20
52.77730767896449
 10
98.76766498969364
 20
52.35846862262972
 10
98.3220633658964
 20
51.95705619894724
 10
97.82770716654922
 20
51.57514063787184
 10
97.28714596648315
 20
51.21469161694242
 10
96.70316763653314
 20
50.87756810293806
 10
96.07878396547382
 20
50.5655087645097
 10
95.41721512712861
 20
50.28012300523332
 10
94.72187307276143
 20
50.02288266332974
 10
93.99634393440222
 20
49.79511442085968
 10
93.24436952985913
 20
49.59799296154117
 10
92.4698280648022
 20
49.43253491247819
 10
91.67671413144537
 20
49.29959360104496
  0
LINE
  5
C47
330
1F
100
AcDbEntity
  8
0
  6
Continuous
 62
     7
370
    15
100
AcDbLine
 10
91.67671413144537
 20
49.29959360104496
 30
0.0
 11
77.71677143815323
 21
57.35849697930084
 31
0.0
  0
LINE
  5
EDE
330
1F
100
AcDbEntity
  8
0
  6
Continuous
 62
     7
370
    15
100
AcDbLine
 10
10.67153435581822
 20
265.77487242515
 30
0.0
 11
-9.070805930986712
 21
265.77487242515
 31
0.0
  0
LINE
  5
EDF
330
1F
100
AcDbEntity
  8
0
  6
Continuous
 62
     7
370
    15
100
AcDbLine
 10
11.18233507862042
 20
264.8210508421987
 30
0.0
 11
-9.581606653788914
 21
264.8210508421987
 31
0.0
  0
ARC
  5
EE0
330
1F
100
AcDbEntity
  8
0
  6
Continuous
 62
     7
370
    15
100
AcDbCircle
 10
0.8003642124157686
 20
259.87487242515
 30
0.0
 40
11.49999999999998
100
AcDbArc
 50
329.1332322064192
 51
30.86676779358145
  0
ARC
  5
EE1
330
1F
100
AcDbEntity
  8
0
  6
Continuous
 62
     7
370
    15
100
AcDbCircle
 10
0.8003642124158823
 20
259.87487242515
 30
0.0
 40
11.50000000000012
100
AcDbArc
 50
149.133232206419
 51
210.8667677935817
  0
LINE
  5
EE2
330
1F
100
AcDbEntity
  8
0
  6
Continuous
 62
     7
370
    15
100
AcDbLine
 10
10.67153435581819
 20
253.97487242515
 30
0.0
 11
-9.070805930986712
 21
253.97487242515
 31
0.0
  0
LINE
  5
EE3
330
1F
100
AcDbEntity
  8
0
  6
Continuous
 62
     7
370
    15
100
AcDbLine
 10
-9.581606653788914
 20
254.9286940081014
 30
0.0
 11
11.18233507862042
 21
254.9286940081014
 31
0.0
  0
ENDSEC
  0
SECTION
  2
OBJECTS
  0
DICTIONARY
  5
C
330
0
100
AcDbDictionary
281
     1
  3
ACAD_DETAILVIEWSTYLE
350
31B
  3
ACAD_GROUP
350
D
  3
ACAD_IMAGE_VARS
350
29C
  3
ACAD_LAYOUT
350
25F
  3
ACAD_MLINESTYLE
350
17
  3
ACAD_PLOTSETTINGS
350
29F
  3
ACAD_PLOTSTYLENAME
350
2A0
  3
ACAD_SCALELIST
350
262
  3
ACAD_SECTIONVIEWSTYLE
350
31C
  3
AcDbVariableDictionary
350
2EF
  3
APPDATA
350
29B
  3
DWGPROPS
350
EE4
  0
DICTIONARY
  5
31B
102
{ACAD_REACTORS
330
C
102
}
330
C
100
AcDbDictionary
281
     1
  0
DICTIONARY
  5
D
102
{ACAD_REACTORS
330
C
102
}
330
C
100
AcDbDictionary
281
     1
  0
RASTERVARIABLES
  5
29C
102
{ACAD_REACTORS
330
C
102
}
330
C
100
AcDbRasterVariables
 90
        0
 70
     1
 71
     1
 72
     0
  0
DICTIONARY
  5
25F
102
{ACAD_REACTORS
330
C
102
}
330
C
100
AcDbDictionary
281
     1
  3
Foglio 1
350
261
  3
Model
350
260
  0
DICTIONARY
  5
17
102
{ACAD_REACTORS
330
C
102
}
330
C
100
AcDbDictionary
281
     1
  3
STANDARD
350
18
  0
DICTIONARY
  5
29F
102
{ACAD_REACTORS
330
C
102
}
330
C
100
AcDbDictionary
281
     1
  0
ACDBDICTIONARYWDFLT
  5
2A0
102
{ACAD_REACTORS
330
C
102
}
330
C
100
AcDbDictionary
281
     1
  3
Normal
350
2A1
100
AcDbDictionaryWithDefault
340
2A1
  0
DICTIONARY
  5
262
102
{ACAD_REACTORS
330
C
102
}
330
C
100
AcDbDictionary
281
     1
  3
A0
350
263
  3
A1
350
264
  3
A2
350
265
  3
A3
350
266
  3
A4
350
267
  3
A5
350
268
  3
A6
350
269
  3
A7
350
26A
  3
A8
350
26B
  3
A9
350
26C
  3
B0
350
26D
  3
B1
350
26E
  3
B2
350
26F
  3
B3
350
270
  3
B4
350
271
  3
B5
350
272
  3
B6
350
273
  3
B7
350
274
  3
B8
350
275
  3
B9
350
276
  3
C0
350
277
  3
C1
350
278
  3
C2
350
279
  3
C3
350
27A
  3
C4
350
27B
  3
C5
350
27C
  3
C6
350
27D
  3
C7
350
27E
  3
C8
350
27F
  3
C9
350
280
  3
D0
350
281
  3
D1
350
282
  3
D2
350
283
  0
DICTIONARY
  5
31C
102
{ACAD_REACTORS
330
C
102
}
330
C
100
AcDbDictionary
281
     1
  0
DICTIONARY
  5
2EF
102
{ACAD_REACTORS
330
C
102
}
330
C
100
AcDbDictionary
281
     1
  0
DICTIONARY
  5
29B
102
{ACAD_REACTORS
330
C
102
}
330
C
100
AcDbDictionary
281
     1
  0
XRECORD
  5
EE4
102
{ACAD_REACTORS
330
C
102
}
330
C
100
AcDbXrecord
280
     1
  1
DWGPROPS COOKIE
  2

  3

  4

  6

  7

  8
cesare
  9

300
=
301
=
302
=
303
=
304
=
305
=
306
=
307
=
308
=
309
=
 40
0.0
 41
2456568.421234433
 42
2456582.488469051
  1

 90
        0
  0
LAYOUT
  5
261
102
{ACAD_REACTORS
330
25F
102
}
330
25F
100
AcDbPlotSettings
  1

  2
none_device
  4

  6

 40
0.0
 41
0.0
 42
0.0
 43
0.0
 44
0.0
 45
0.0
 46
0.0
 47
0.0
 48
0.0
 49
0.0
140
0.0
141
0.0
142
1.0
143
1.0
 70
   688
 72
     0
 73
     0
 74
     5
  7

 75
    16
147
1.0
148
0.0
149
0.0
100
AcDbLayout
  1
Foglio 1
 70
     1
 71
     1
 10
0.0
 20
0.0
 11
0.0
 21
0.0
 12
0.0
 22
0.0
 32
0.0
 14
1.000000000000000E+20
 24
1.000000000000000E+20
 34
1.000000000000000E+20
 15
-1.000000000000000E+20
 25
-1.000000000000000E+20
 35
-1.000000000000000E+20
146
0.0
 13
0.0
 23
0.0
 33
0.0
 16
1.0
 26
0.0
 36
0.0
 17
0.0
 27
1.0
 37
0.0
 76
     0
330
1B
  0
LAYOUT
  5
260
102
{ACAD_REACTORS
330
25F
102
}
330
25F
100
AcDbPlotSettings
  1

  2
none_device
  4

  6

 40
0.0
 41
0.0
 42
0.0
 43
0.0
 44
0.0
 45
0.0
 46
0.0
 47
0.0
 48
0.0
 49
0.0
140
0.0
141
0.0
142
1.0
143
1.0
 70
  1712
 72
     0
 73
     0
 74
     0
  7

 75
     0
147
1.0
148
0.0
149
0.0
100
AcDbLayout
  1
Model
 70
     1
 71
     0
 10
0.0
 20
0.0
 11
420.0
 21
297.0
 12
0.0
 22
0.0
 32
0.0
 14
-56.69963263968426
 24
13.23338869759999
 34
0.0
 15
463.1479247972152
 25
274.2748828607
 35
0.0
146
0.0
 13
0.0
 23
0.0
 33
0.0
 16
1.0
 26
0.0
 36
0.0
 17
0.0
 27
1.0
 37
0.0
 76
     0
330
1F
331
29
  0
MLINESTYLE
  5
18
102
{ACAD_REACTORS
330
17
102
}
330
17
100
AcDbMlineStyle
  2
Standard
 70
     0
  3

 62
   256
 51
90.0
 52
90.0
 71
     2
 49
0.5
 62
   256
  6
BYLAYER
 49
-0.5
 62
   256
  6
BYLAYER
  0
ACDBPLACEHOLDER
  5
2A1
102
{ACAD_REACTORS
330
2A0
102
}
330
2A0
  0
SCALE
  5
263
102
{ACAD_REACTORS
330
262
102
}
330
262
100
AcDbScale
 70
     0
300
1:1
140
1.0
141
1.0
290
     1
  0
SCALE
  5
264
102
{ACAD_REACTORS
330
262
102
}
330
262
100
AcDbScale
 70
     0
300
1:2
140
1.0
141
2.0
290
     0
  0
SCALE
  5
265
102
{ACAD_REACTORS
330
262
102
}
330
262
100
AcDbScale
 70
     0
300
1:4
140
1.0
141
4.0
290
     0
  0
SCALE
  5
266
102
{ACAD_REACTORS
330
262
102
}
330
262
100
AcDbScale
 70
     0
300
1:5
140
1.0
141
5.0
290
     0
  0
SCALE
  5
267
102
{ACAD_REACTORS
330
262
102
}
330
262
100
AcDbScale
 70
     0
300
1:8
140
1.0
141
8.0
290
     0
  0
SCALE
  5
268
102
{ACAD_REACTORS
330
262
102
}
330
262
100
AcDbScale
 70
     0
300
1:10
140
1.0
141
10.0
290
     0
  0
SCALE
  5
269
102
{ACAD_REACTORS
330
262
102
}
330
262
100
AcDbScale
 70
     0
300
1:16
140
1.0
141
16.0
290
     0
  0
SCALE
  5
26A
102
{ACAD_REACTORS
330
262
102
}
330
262
100
AcDbScale
 70
     0
300
1:20
140
1.0
141
20.0
290
     0
  0
SCALE
  5
26B
102
{ACAD_REACTORS
330
262
102
}
330
262
100
AcDbScale
 70
     0
300
1:30
140
1.0
141
30.0
290
     0
  0
SCALE
  5
26C
102
{ACAD_REACTORS
330
262
102
}
330
262
100
AcDbScale
 70
     0
300
1:40
140
1.0
141
40.0
290
     0
  0
SCALE
  5
26D
102
{ACAD_REACTORS
330
262
102
}
330
262
100
AcDbScale
 70
     0
300
1:50
140
1.0
141
50.0
290
     0
  0
SCALE
  5
26E
102
{ACAD_REACTORS
330
262
102
}
330
262
100
AcDbScale
 70
     0
300
1:100
140
1.0
141
100.0
290
     0
  0
SCALE
  5
26F
102
{ACAD_REACTORS
330
262
102
}
330
262
100
AcDbScale
 70
     0
300
2:1
140
2.0
141
1.0
290
     0
  0
SCALE
  5
270
102
{ACAD_REACTORS
330
262
102
}
330
262
100
AcDbScale
 70
     0
300
4:1
140
4.0
141
1.0
290
     0
  0
SCALE
  5
271
102
{ACAD_REACTORS
330
262
102
}
330
262
100
AcDbScale
 70
     0
300
8:1
140
8.0
141
1.0
290
     0
  0
SCALE
  5
272
102
{ACAD_REACTORS
330
262
102
}
330
262
100
AcDbScale
 70
     0
300
10:1
140
10.0
141
1.0
290
     0
  0
SCALE
  5
273
102
{ACAD_REACTORS
330
262
102
}
330
262
100
AcDbScale
 70
     0
300
100:1
140
100.0
141
1.0
290
     0
  0
SCALE
  5
274
102
{ACAD_REACTORS
330
262
102
}
330
262
100
AcDbScale
 70
     0
300
1/128" = 1'-0"
140
0.0078125
141
12.0
290
     0
  0
SCALE
  5
275
102
{ACAD_REACTORS
330
262
102
}
330
262
100
AcDbScale
 70
     0
300
1/64" = 1'-0"
140
0.015625
141
12.0
290
     0
  0
SCALE
  5
276
102
{ACAD_REACTORS
330
262
102
}
330
262
100
AcDbScale
 70
     0
300
1/32" = 1'-0"
140
0.03125
141
12.0
290
     0
  0
SCALE
  5
277
102
{ACAD_REACTORS
330
262
102
}
330
262
100
AcDbScale
 70
     0
300
1/16" = 1'-0"
140
0.0625
141
12.0
290
     0
  0
SCALE
  5
278
102
{ACAD_REACTORS
330
262
102
}
330
262
100
AcDbScale
 70
     0
300
3/32" = 1'-0"
140
0.09375
141
12.0
290
     0
  0
SCALE
  5
279
102
{ACAD_REACTORS
330
262
102
}
330
262
100
AcDbScale
 70
     0
300
1/8" = 1'-0"
140
0.125
141
12.0
290
     0
  0
SCALE
  5
27A
102
{ACAD_REACTORS
330
262
102
}
330
262
100
AcDbScale
 70
     0
300
3/16" = 1'-0"
140
0.1875
141
12.0
290
     0
  0
SCALE
  5
27B
102
{ACAD_REACTORS
330
262
102
}
330
262
100
AcDbScale
 70
     0
300
1/4" = 1'-0"
140
0.25
141
12.0
290
     0
  0
SCALE
  5
27C
102
{ACAD_REACTORS
330
262
102
}
330
262
100
AcDbScale
 70
     0
300
3/8" = 1'-0"
140
0.375
141
12.0
290
     0
  0
SCALE
  5
27D
102
{ACAD_REACTORS
330
262
102
}
330
262
100
AcDbScale
 70
     0
300
1/2" = 1'-0"
140
0.5
141
12.0
290
     0
  0
SCALE
  5
27E
102
{ACAD_REACTORS
330
262
102
}
330
262
100
AcDbScale
 70
     0
300
3/4" = 1'-0"
140
0.75
141
12.0
290
     0
  0
SCALE
  5
27F
102
{ACAD_REACTORS
330
262
102
}
330
262
100
AcDbScale
 70
     0
300
1" = 1'-0"
140
1.0
141
12.0
290
     0
  0
SCALE
  5
280
102
{ACAD_REACTORS
330
262
102
}
330
262
100
AcDbScale
 70
     0
300
1-1/2" = 1'-0"
140
1.5
141
12.0
290
     0
  0
SCALE
  5
281
102
{ACAD_REACTORS
330
262
102
}
330
262
100
AcDbScale
 70
     0
300
3" = 1'-0"
140
3.0
141
12.0
290
     0
  0
SCALE
  5
282
102
{ACAD_REACTORS
330
262
102
}
330
262
100
AcDbScale
 70
     0
300
6" = 1'-0"
140
6.0
141
12.0
290
     0
  0
SCALE
  5
283
102
{ACAD_REACTORS
330
262
102
}
330
262
100
AcDbScale
 70
     0
300
1'-0" = 1'-0"
140
12.0
141
12.0
290
     0
  0
ENDSEC
  0
EOF
