  0
SECTION
  2
HEADER
  9
$ACADVER
  1
AC1015
  9
$ACADMAINTVER
 70
     6
  9
$DWGCODEPAGE
  3
ANSI_1252
  9
$INSBASE
 10
0.0
 20
0.0
 30
0.0
  9
$EXTMIN
 10
-127.6497333486313
 20
-132.4064025480256
 30
-0.0000000000000082
  9
$EXTMAX
 10
114.1855743979531
 20
105.9098028727576
 30
0.0000000000000071
  9
$LIMMIN
 10
-66.34999999999982
 20
-2008.85
  9
$LIMMAX
 10
3734.350000000001
 20
346.85
  9
$ORTHOMODE
 70
     1
  9
$REGENMODE
 70
     1
  9
$FILLMODE
 70
     1
  9
$QTEXTMODE
 70
     0
  9
$MIRRTEXT
 70
     1
  9
$LTSCALE
 40
10.0
  9
$ATTMODE
 70
     1
  9
$TEXTSIZE
 40
0.2
  9
$TRACEWID
 40
0.05
  9
$TEXTSTYLE
  7
STANDARD
  9
$CLAYER
  8
0
  9
$CELTYPE
  6
CONTINUOUS
  9
$CECOLOR
 62
   256
  9
$CELTSCALE
 40
1.0
  9
$DISPSILH
 70
     0
  9
$DIMSCALE
 40
1.0
  9
$DIMASZ
 40
1.25
  9
$DIMEXO
 40
0.0
  9
$DIMDLI
 40
0.38
  9
$DIMRND
 40
0.0
  9
$DIMDLE
 40
0.0
  9
$DIMEXE
 40
0.75
  9
$DIMTP
 40
0.0
  9
$DIMTM
 40
0.0
  9
$DIMTXT
 40
2.5
  9
$DIMCEN
 40
0.09
  9
$DIMTSZ
 40
0.0
  9
$DIMTOL
 70
     0
  9
$DIMLIM
 70
     0
  9
$DIMTIH
 70
     0
  9
$DIMTOH
 70
     0
  9
$DIMSE1
 70
     0
  9
$DIMSE2
 70
     0
  9
$DIMTAD
 70
     1
  9
$DIMZIN
 70
     0
  9
$DIMBLK
  1

  9
$DIMASO
 70
     1
  9
$DIMSHO
 70
     1
  9
$DIMPOST
  1

  9
$DIMAPOST
  1

  9
$DIMALT
 70
     0
  9
$DIMALTD
 70
     2
  9
$DIMALTF
 40
25.4
  9
$DIMLFAC
 40
1.0
  9
$DIMTOFL
 70
     0
  9
$DIMTVP
 40
0.0
  9
$DIMTIX
 70
     0
  9
$DIMSOXD
 70
     0
  9
$DIMSAH
 70
     0
  9
$DIMBLK1
  1

  9
$DIMBLK2
  1

  9
$DIMSTYLE
  2
STANDARD
  9
$DIMCLRD
 70
     7
  9
$DIMCLRE
 70
     7
  9
$DIMCLRT
 70
     7
  9
$DIMTFAC
 40
0.8
  9
$DIMGAP
 40
1.25
  9
$DIMJUST
 70
     0
  9
$DIMSD1
 70
     0
  9
$DIMSD2
 70
     0
  9
$DIMTOLJ
 70
     1
  9
$DIMTZIN
 70
     0
  9
$DIMALTZ
 70
     0
  9
$DIMALTTZ
 70
     0
  9
$DIMUPT
 70
     0
  9
$DIMDEC
 70
     2
  9
$DIMTDEC
 70
     4
  9
$DIMALTU
 70
     2
  9
$DIMALTTD
 70
     2
  9
$DIMTXSTY
  7
STANDARD
  9
$DIMAUNIT
 70
     0
  9
$DIMADEC
 70
     0
  9
$DIMALTRND
 40
0.0
  9
$DIMAZIN
 70
     0
  9
$DIMDSEP
 70
    46
  9
$DIMATFIT
 70
     3
  9
$DIMFRAC
 70
     0
  9
$DIMLDRBLK
  1

  9
$DIMLUNIT
 70
     2
  9
$DIMLWD
 70
    -2
  9
$DIMLWE
 70
    -2
  9
$DIMTMOVE
 70
     0
  9
$LUNITS
 70
     2
  9
$LUPREC
 70
     4
  9
$SKETCHINC
 40
0.1
  9
$FILLETRAD
 40
0.0
  9
$AUNITS
 70
     0
  9
$AUPREC
 70
     0
  9
$MENU
  1
acad
  9
$ELEVATION
 40
0.0
  9
$PELEVATION
 40
0.0
  9
$THICKNESS
 40
0.0
  9
$LIMCHECK
 70
     0
  9
$CHAMFERA
 40
0.0
  9
$CHAMFERB
 40
0.0
  9
$CHAMFERC
 40
0.0
  9
$CHAMFERD
 40
0.0
  9
$SKPOLY
 70
     0
  9
$TDCREATE
 40
2455303.727916655
  9
$TDUCREATE
 40
2455303.644583322
  9
$TDUPDATE
 40
2455306.421153229
  9
$TDUUPDATE
 40
2455306.337819896
  9
$TDINDWG
 40
0.0026100116
  9
$TDUSRTIMER
 40
2455826.506186678
  9
$USRTIMER
 70
     1
  9
$ANGBASE
 50
0.0
  9
$ANGDIR
 70
     0
  9
$PDMODE
 70
     0
  9
$PDSIZE
 40
0.0
  9
$PLINEWID
 40
0.0
  9
$SPLFRAME
 70
     0
  9
$SPLINETYPE
 70
     6
  9
$SPLINESEGS
 70
     8
  9
$HANDSEED
  5
6535
  9
$SURFTAB1
 70
     6
  9
$SURFTAB2
 70
     6
  9
$SURFTYPE
 70
     6
  9
$SURFU
 70
     6
  9
$SURFV
 70
     6
  9
$UCSBASE
  2

  9
$UCSNAME
  2

  9
$UCSORG
 10
0.0
 20
0.0
 30
0.0
  9
$UCSXDIR
 10
1.0
 20
0.0
 30
0.0
  9
$UCSYDIR
 10
0.0
 20
1.0
 30
0.0
  9
$UCSORTHOREF
  2

  9
$UCSORTHOVIEW
 70
     0
  9
$UCSORGTOP
 10
0.0
 20
0.0
 30
0.0
  9
$UCSORGBOTTOM
 10
0.0
 20
0.0
 30
0.0
  9
$UCSORGLEFT
 10
0.0
 20
0.0
 30
0.0
  9
$UCSORGRIGHT
 10
0.0
 20
0.0
 30
0.0
  9
$UCSORGFRONT
 10
0.0
 20
0.0
 30
0.0
  9
$UCSORGBACK
 10
0.0
 20
0.0
 30
0.0
  9
$PUCSBASE
  2

  9
$PUCSNAME
  2

  9
$PUCSORG
 10
0.0
 20
0.0
 30
0.0
  9
$PUCSXDIR
 10
1.0
 20
0.0
 30
0.0
  9
$PUCSYDIR
 10
0.0
 20
1.0
 30
0.0
  9
$PUCSORTHOREF
  2

  9
$PUCSORTHOVIEW
 70
     0
  9
$PUCSORGTOP
 10
0.0
 20
0.0
 30
0.0
  9
$PUCSORGBOTTOM
 10
0.0
 20
0.0
 30
0.0
  9
$PUCSORGLEFT
 10
0.0
 20
0.0
 30
0.0
  9
$PUCSORGRIGHT
 10
0.0
 20
0.0
 30
0.0
  9
$PUCSORGFRONT
 10
0.0
 20
0.0
 30
0.0
  9
$PUCSORGBACK
 10
0.0
 20
0.0
 30
0.0
  9
$USERI1
 70
     0
  9
$USERI2
 70
     0
  9
$USERI3
 70
     0
  9
$USERI4
 70
     0
  9
$USERI5
 70
     0
  9
$USERR1
 40
0.0
  9
$USERR2
 40
0.0
  9
$USERR3
 40
0.0
  9
$USERR4
 40
0.0
  9
$USERR5
 40
0.0
  9
$WORLDVIEW
 70
     1
  9
$SHADEDGE
 70
     3
  9
$SHADEDIF
 70
    70
  9
$TILEMODE
 70
     1
  9
$MAXACTVP
 70
    16
  9
$PINSBASE
 10
0.0
 20
0.0
 30
0.0
  9
$PLIMCHECK
 70
     0
  9
$PEXTMIN
 10
1.000000000000000E+20
 20
1.000000000000000E+20
 30
1.000000000000000E+20
  9
$PEXTMAX
 10
-1.000000000000000E+20
 20
-1.000000000000000E+20
 30
-1.000000000000000E+20
  9
$PLIMMIN
 10
0.0
 20
0.0
  9
$PLIMMAX
 10
12.0
 20
9.0
  9
$UNITMODE
 70
     0
  9
$VISRETAIN
 70
     0
  9
$PLINEGEN
 70
     1
  9
$PSLTSCALE
 70
     0
  9
$TREEDEPTH
 70
  3020
  9
$CMLSTYLE
  2
STANDARD
  9
$CMLJUST
 70
     0
  9
$CMLSCALE
 40
1.0
  9
$PROXYGRAPHICS
 70
     0
  9
$MEASUREMENT
 70
     1
  9
$CELWEIGHT
370
    -1
  9
$ENDCAPS
280
     0
  9
$JOINSTYLE
280
     0
  9
$LWDISPLAY
290
     0
  9
$INSUNITS
 70
     0
  9
$HYPERLINKBASE
  1

  9
$STYLESHEET
  1

  9
$XEDIT
290
     1
  9
$CEPSNTYPE
380
     0
  9
$PSTYLEMODE
290
     1
  9
$FINGERPRINTGUID
  2
{AAAA7F79-7AD8-4CDA-B726-323DE0B6BCCB}
  9
$VERSIONGUID
  2
{FAEB1C32-E019-11D5-929B-00C0DF256EC4}
  9
$EXTNAMES
290
     1
  9
$PSVPSCALE
 40
0.0
  9
$OLESTARTUP
290
     0
  0
ENDSEC
  0
SECTION
  2
CLASSES
  0
CLASS
  1
IMAGE
  2
AcDbRasterImage
  3
ISM
 90
      127
280
     0
281
     1
  0
CLASS
  1
DICTIONARYVAR
  2
AcDbDictionaryVar
  3
ObjectDBX Classes
 90
        0
280
     0
281
     0
  0
CLASS
  1
RASTERVARIABLES
  2
AcDbRasterVariables
  3
ISM
 90
        0
280
     0
281
     0
  0
CLASS
  1
IMAGEDEF
  2
AcDbRasterImageDef
  3
ISM
 90
        0
280
     0
281
     0
  0
CLASS
  1
IMAGEDEF_REACTOR
  2
AcDbRasterImageDefReactor
  3
ISM
 90
        1
280
     0
281
     0
  0
CLASS
  1
IDBUFFER
  2
AcDbIdBuffer
  3
ObjectDBX Classes
 90
        0
280
     0
281
     0
  0
CLASS
  1
SPATIAL_FILTER
  2
AcDbSpatialFilter
  3
ObjectDBX Classes
 90
        0
280
     0
281
     0
  0
CLASS
  1
SORTENTSTABLE
  2
AcDbSortentsTable
  3
ObjectDBX Classes
 90
        0
280
     0
281
     0
  0
CLASS
  1
LAYER_INDEX
  2
AcDbLayerIndex
  3
ObjectDBX Classes
 90
        0
280
     0
281
     0
  0
CLASS
  1
SPATIAL_INDEX
  2
AcDbSpatialIndex
  3
AutoCAD 2000
 90
        0
280
     0
281
     0
  0
CLASS
  1
OBJECT_PTR
  2
CAseDLPNTableRecord
  3
ASE-LPNTableRecord
 90
        1
280
     0
281
     0
  0
CLASS
  1
LAYOUT
  2
AcDbLayout
  3
ObjectDBX Classes
 90
        0
280
     0
281
     0
  0
CLASS
  1
PLOTSETTINGS
  2
AcDbPlotSettings
  3
ObjectDBX Classes
 90
        0
280
     0
281
     0
  0
CLASS
  1
ACDBDICTIONARYWDFLT
  2
AcDbDictionaryWithDefault
  3
ObjectDBX Classes
 90
        0
280
     0
281
     0
  0
CLASS
  1
ACDBPLACEHOLDER
  2
AcDbPlaceHolder
  3
ObjectDBX Classes
 90
        0
280
     0
281
     0
  0
CLASS
  1
VBA_PROJECT
  2
AcDbVbaProject
  3
ObjectDBX Classes
 90
        0
280
     0
281
     0
  0
CLASS
  1
WIPEOUT
  2
AcDbWipeout
  3
WipeOut|AutoCAD Express Tool|expresstools@autodesk.com
 90
      127
280
     0
281
     1
  0
CLASS
  1
WIPEOUTVARIABLES
  2
AcDbWipeoutVariables
  3
WipeOut|AutoCAD Express Tool|expresstools@autodesk.com
 90
        0
280
     0
281
     0
  0
CLASS
  1
RTEXT
  2
RText
  3
RText|AutoCAD Express Tool|expresstools@autodesk.com
 90
        0
280
     0
281
     1
  0
CLASS
  1
ARCALIGNEDTEXT
  2
AcDbArcAlignedText
  3
ATEXT|AutoCAD Express Tool|expresstools@autodesk.com
 90
        0
280
     0
281
     1
  0
CLASS
  1
MATERIAL
  2
AcDbMaterial
  3
ObjectDBX Classes
 90
     1153
280
     0
281
     0
  0
CLASS
  1
VISUALSTYLE
  2
AcDbVisualStyle
  3
ObjectDBX Classes
 90
     4095
280
     0
281
     0
  0
CLASS
  1
TABLESTYLE
  2
AcDbTableStyle
  3
ObjectDBX Classes
 90
     4095
280
     0
281
     0
  0
CLASS
  1
SCALE
  2
AcDbScale
  3
ObjectDBX Classes
 90
     1153
280
     0
281
     0
  0
CLASS
  1
MLEADERSTYLE
  2
AcDbMLeaderStyle
  3
ACDB_MLEADERSTYLE_CLASS
 90
     4095
280
     0
281
     0
  0
CLASS
  1
CELLSTYLEMAP
  2
AcDbCellStyleMap
  3
ObjectDBX Classes
 90
     1152
280
     0
281
     0
  0
CLASS
  1
XRECORD
  2
AcDbXrecord
  3
AutoCAD 2000
 90
        0
280
     0
281
     0
  0
CLASS
  1
LWPOLYLINE
  2
AcDbPolyline
  3
AutoCAD 2000
 90
        0
280
     0
281
     1
  0
CLASS
  1
HATCH
  2
AcDbHatch
  3
AutoCAD 2000
 90
        0
280
     0
281
     1
  0
ENDSEC
  0
SECTION
  2
TABLES
  0
TABLE
  2
VPORT
  5
7
330
0
100
AcDbSymbolTable
 70
     1
  0
VPORT
  5
15
330
7
100
AcDbSymbolTableRecord
100
AcDbViewportTableRecord
  2
*ACTIVE
 70
     0
 10
0.0
 20
0.0
 11
1.0
 21
1.0
 12
25.81721408191174
 22
35.14911557958659
 13
0.0
 23
0.0
 14
1.0
 24
1.0
 15
0.0
 25
0.0
 16
0.0
 26
0.0
 36
1.0
 17
0.0
 27
0.0
 37
0.0
 40
175.6986338505137
 41
1.626168224299065
 42
50.0
 43
0.0
 44
0.0
 50
0.0
 51
0.0
 71
    16
 72
   100
 73
     1
 74
     1
 75
     0
 76
     0
 77
     0
 78
     0
281
     0
 65
     1
110
0.0
120
0.0
130
0.0
111
1.0
121
0.0
131
0.0
112
0.0
122
1.0
132
0.0
 79
     0
146
0.0
  0
ENDTAB
  0
TABLE
  2
LTYPE
  5
4
330
0
100
AcDbSymbolTable
 70
     5
  0
LTYPE
  5
11
330
4
100
AcDbSymbolTableRecord
100
AcDbLinetypeTableRecord
  2
BYBLOCK
 70
     0
  3

 72
    65
 73
     0
 40
0.0
  0
LTYPE
  5
12
330
4
100
AcDbSymbolTableRecord
100
AcDbLinetypeTableRecord
  2
BYLAYER
 70
     0
  3

 72
    65
 73
     0
 40
0.0
  0
LTYPE
  5
13
330
4
100
AcDbSymbolTableRecord
100
AcDbLinetypeTableRecord
  2
CONTINUOUS
 70
     0
  3
Solid line
 72
    65
 73
     0
 40
0.0
  0
LTYPE
  5
1E4
330
4
100
AcDbSymbolTableRecord
100
AcDbLinetypeTableRecord
  2
CENTER
 70
     0
  3
____ _ ____ _ ____ _ ____ _ ____ _ ____ _ ____
 72
    65
 73
     4
 40
2.0
 49
1.25
 74
     0
 49
-0.25
 74
     0
 49
0.25
 74
     0
 49
-0.25
 74
     0
  0
LTYPE
  5
63BB
330
4
100
AcDbSymbolTableRecord
100
AcDbLinetypeTableRecord
  2
________________
 70
     0
  3

 72
    65
 73
     0
 40
0.0
  0
LTYPE
  5
63D8
330
4
100
AcDbSymbolTableRecord
100
AcDbLinetypeTableRecord
  2
_..__..__..__.._
 70
     0
  3

 72
    65
 73
     2
 40
1.8
 49
0.8999999999999999
 74
     0
 49
-0.8999999999999999
 74
     0
  0
LTYPE
  5
652B
330
4
100
AcDbSymbolTableRecord
100
AcDbLinetypeTableRecord
  2
______....__....
 70
     0
  3

 72
    65
 73
     4
 40
7.2
 49
2.7
 74
     0
 49
-1.8
 74
     0
 49
0.8999999999999999
 74
     0
 49
-1.8
 74
     0
  0
ENDTAB
  0
TABLE
  2
LAYER
  5
2
330
0
100
AcDbSymbolTable
 70
     2
  0
LAYER
  5
14
102
{ACAD_XDICTIONARY
360
5E41
102
}
330
2
100
AcDbSymbolTableRecord
100
AcDbLayerTableRecord
  2
0
 70
     0
 62
     7
  6
CONTINUOUS
370
    -3
390
63B9
  0
LAYER
  5
63F8
330
2
100
AcDbSymbolTableRecord
100
AcDbLayerTableRecord
  2
Defpoints
 70
     0
 62
     7
  6
CONTINUOUS
290
     0
370
    -3
390
63B9
  0
ENDTAB
  0
TABLE
  2
STYLE
  5
3
330
0
100
AcDbSymbolTable
 70
     1
  0
STYLE
  5
17
330
3
100
AcDbSymbolTableRecord
100
AcDbTextStyleTableRecord
  2
STANDARD
 70
     0
 40
0.0
 41
1.0
 50
0.0
 71
     0
 42
0.0
  3
I011000D.TTF
  4

1001
ACAD
1000
IsonormD
1071
        0
  0
ENDTAB
  0
TABLE
  2
VIEW
  5
5
330
0
100
AcDbSymbolTable
 70
     0
  0
ENDTAB
  0
TABLE
  2
UCS
  5
6
330
0
100
AcDbSymbolTable
 70
     0
  0
ENDTAB
  0
TABLE
  2
APPID
  5
8
330
0
100
AcDbSymbolTable
 70
     6
  0
APPID
  5
16
330
8
100
AcDbSymbolTableRecord
100
AcDbRegAppTableRecord
  2
ACAD
 70
     0
  0
APPID
  5
26
330
8
100
AcDbSymbolTableRecord
100
AcDbRegAppTableRecord
  2
TOPSOLID_DRAFT
 70
     0
  0
APPID
  5
319D
330
8
100
AcDbSymbolTableRecord
100
AcDbRegAppTableRecord
  2
ACAD_MLEADERVER
 70
     0
  0
APPID
  5
5E45
330
8
100
AcDbSymbolTableRecord
100
AcDbRegAppTableRecord
  2
DCO15
 70
     0
  0
APPID
  5
6374
330
8
100
AcDbSymbolTableRecord
100
AcDbRegAppTableRecord
  2
ACAD_EXEMPT_FROM_CAD_STAND
 70
     0
  0
APPID
  5
63F7
330
8
100
AcDbSymbolTableRecord
100
AcDbRegAppTableRecord
  2
ACAD_DSTYLE_DIMRADIAL_EXTENSION
 70
     0
  0
ENDTAB
  0
TABLE
  2
DIMSTYLE
  5
9
330
0
100
AcDbSymbolTable
 70
     1
100
AcDbDimStyleTable
  0
DIMSTYLE
105
18
330
9
100
AcDbSymbolTableRecord
100
AcDbDimStyleTableRecord
  2
STANDARD
 70
     0
 41
1.25
 42
0.0
 44
0.75
 73
     0
 74
     0
 77
     1
140
2.5
146
0.8
147
1.25
176
     7
177
     7
178
     7
271
     2
340
17
  0
ENDTAB
  0
TABLE
  2
BLOCK_RECORD
  5
1
330
0
100
AcDbSymbolTable
 70
     3
  0
BLOCK_RECORD
  5
A
102
{ACAD_XDICTIONARY
360
31A7
102
}
330
1
100
AcDbSymbolTableRecord
100
AcDbBlockTableRecord
  2
*MODEL_SPACE
340
63B3
  0
BLOCK_RECORD
  5
B
330
1
100
AcDbSymbolTableRecord
100
AcDbBlockTableRecord
  2
*PAPER_SPACE
340
63B4
  0
BLOCK_RECORD
  5
640D
330
1
100
AcDbSymbolTableRecord
100
AcDbBlockTableRecord
  2
D_FRAME_VIEW@400
340
0
102
{BLKREFS
331
640B
102
}
  0
BLOCK_RECORD
  5
64AF
330
1
100
AcDbSymbolTableRecord
100
AcDbBlockTableRecord
  2
D_FRAME_VIEW@500
340
0
102
{BLKREFS
331
64AE
102
}
  0
BLOCK_RECORD
  5
6503
330
1
100
AcDbSymbolTableRecord
100
AcDbBlockTableRecord
  2
D_FRAME_VIEW@403
340
0
102
{BLKREFS
331
6502
102
}
  0
ENDTAB
  0
ENDSEC
  0
SECTION
  2
BLOCKS
  0
BLOCK
  5
D
330
A
100
AcDbEntity
  8
0
100
AcDbBlockBegin
  2
*MODEL_SPACE
 70
     0
 10
0.0
 20
0.0
 30
0.0
  3
*MODEL_SPACE
  1

  0
ENDBLK
  5
E
330
A
100
AcDbEntity
  8
0
100
AcDbBlockEnd
  0
BLOCK
  5
F
330
B
100
AcDbEntity
 67
     1
  8
0
100
AcDbBlockBegin
  2
*PAPER_SPACE
 70
     0
 10
0.0
 20
0.0
 30
0.0
  3
*PAPER_SPACE
  1

  0
ENDBLK
  5
10
330
B
100
AcDbEntity
 67
     1
  8
0
100
AcDbBlockEnd
  0
BLOCK
  5
640E
330
640D
100
AcDbEntity
  8
0
100
AcDbBlockBegin
  2
D_FRAME_VIEW@400
 70
     0
 10
0.0
 20
0.0
 30
0.0
  3
D_FRAME_VIEW@400
  1

  0
LINE
  5
640F
330
640D
100
AcDbEntity
  8
0
  6
________________
 62
   253
370
     9
100
AcDbLine
 10
34.00000000000454
 20
183.4000000000008
 30
0.0
 11
33.50000000000454
 21
183.4000000000008
 31
0.0
  0
ARC
  5
6410
330
640D
100
AcDbEntity
  8
0
  6
________________
 62
     7
370
     9
100
AcDbCircle
 10
34.00000000000454
 20
183.4000000000008
 30
0.0
 40
0.5000000000000004
100
AcDbArc
 50
89.99999999999841
 51
180.0
  0
LINE
  5
6411
330
640D
100
AcDbEntity
  8
0
  6
________________
 62
   253
370
     9
100
AcDbLine
 10
34.00000000000455
 20
183.9000000000008
 30
0.0
 11
34.00000000000454
 21
183.4000000000008
 31
0.0
  0
LINE
  5
6412
330
640D
100
AcDbEntity
  8
0
  6
________________
 62
   253
370
     9
100
AcDbLine
 10
34.00000000000454
 20
183.4000000000008
 30
0.0
 11
182.5000000000045
 21
183.3999999999994
 31
0.0
  0
LINE
  5
6413
330
640D
100
AcDbEntity
  8
0
  6
________________
 62
     7
370
     9
100
AcDbLine
 10
182.5000000000045
 20
183.8999999999994
 30
0.0
 11
34.00000000000455
 21
183.9000000000008
 31
0.0
  0
LINE
  5
6414
330
640D
100
AcDbEntity
  8
0
  6
________________
 62
   253
370
     9
100
AcDbLine
 10
182.5000000000045
 20
183.3999999999994
 30
0.0
 11
182.5000000000045
 21
183.8999999999994
 31
0.0
  0
LINE
  5
6415
330
640D
100
AcDbEntity
  8
0
  6
________________
 62
     7
370
     9
100
AcDbLine
 10
33.50000000000454
 20
183.4000000000008
 30
0.0
 11
33.50000000000447
 21
175.4000000000008
 31
0.0
  0
LINE
  5
6416
330
640D
100
AcDbEntity
  8
0
  6
________________
 62
   253
370
     9
100
AcDbLine
 10
34.00000000000447
 20
175.4000000000008
 30
0.0
 11
34.00000000000454
 21
183.4000000000008
 31
0.0
  0
LINE
  5
6417
330
640D
100
AcDbEntity
  8
0
  6
________________
 62
     7
370
     9
100
AcDbLine
 10
33.50000000000447
 20
175.4000000000008
 30
0.0
 11
34.00000000000447
 21
175.4000000000008
 31
0.0
  0
LINE
  5
6418
330
640D
100
AcDbEntity
  8
0
  6
________________
 62
     7
370
     9
100
AcDbLine
 10
79.00000000000453
 20
182.2000000000004
 30
0.0
 11
79.00000000000445
 21
175.4000000000004
 31
0.0
  0
LINE
  5
6419
330
640D
100
AcDbEntity
  8
0
  6
________________
 62
     7
370
     9
100
AcDbLine
 10
79.00000000000445
 20
175.4000000000004
 30
0.0
 11
78.00000000000453
 21
175.4000000000004
 31
0.0
  0
LINE
  5
641A
330
640D
100
AcDbEntity
  8
0
  6
________________
 62
     7
370
     9
100
AcDbLine
 10
78.00000000000453
 20
175.4000000000004
 30
0.0
 11
54.50000000000454
 21
175.4000000000006
 31
0.0
  0
LINE
  5
641B
330
640D
100
AcDbEntity
  8
0
  6
________________
 62
     7
370
     9
100
AcDbLine
 10
54.50000000000454
 20
175.4000000000006
 30
0.0
 11
34.00000000000447
 21
175.4000000000008
 31
0.0
  0
LINE
  5
641C
330
640D
100
AcDbEntity
  8
0
  6
________________
 62
   253
370
     9
100
AcDbLine
 10
182.5000000000045
 20
183.3999999999994
 30
0.0
 11
182.5000000000045
 21
175.3999999999994
 31
0.0
  0
LINE
  5
641D
330
640D
100
AcDbEntity
  8
0
  6
________________
 62
     7
370
     9
100
AcDbLine
 10
182.5000000000045
 20
175.3999999999994
 30
0.0
 11
164.0000000000045
 21
175.3999999999996
 31
0.0
  0
LINE
  5
641E
330
640D
100
AcDbEntity
  8
0
  6
________________
 62
     7
370
     9
100
AcDbLine
 10
164.0000000000045
 20
175.3999999999996
 30
0.0
 11
163.0000000000044
 21
175.3999999999996
 31
0.0
  0
LINE
  5
641F
330
640D
100
AcDbEntity
  8
0
  6
________________
 62
     7
370
     9
100
AcDbLine
 10
163.0000000000044
 20
175.3999999999996
 30
0.0
 11
163.0000000000045
 21
182.1999999999996
 31
0.0
  0
LINE
  5
6420
330
640D
100
AcDbEntity
  8
0
  6
________________
 62
     7
370
     9
100
AcDbLine
 10
163.0000000000045
 20
182.1999999999996
 30
0.0
 11
79.00000000000453
 21
182.2000000000004
 31
0.0
  0
ARC
  5
6421
330
640D
100
AcDbEntity
  8
0
  6
________________
 62
     7
370
     9
100
AcDbCircle
 10
182.5000000000045
 20
183.3999999999994
 30
0.0
 40
0.5000000000000004
100
AcDbArc
 50
0.0
 51
89.99999999999841
  0
LINE
  5
6422
330
640D
100
AcDbEntity
  8
0
  6
________________
 62
   253
370
     9
100
AcDbLine
 10
183.0000000000045
 20
183.3999999999994
 30
0.0
 11
182.5000000000045
 21
183.3999999999994
 31
0.0
  0
LINE
  5
6423
330
640D
100
AcDbEntity
  8
0
  6
________________
 62
     7
370
     9
100
AcDbLine
 10
183.0000000000045
 20
175.3999999999994
 30
0.0
 11
183.0000000000045
 21
183.3999999999994
 31
0.0
  0
LINE
  5
6424
330
640D
100
AcDbEntity
  8
0
  6
________________
 62
     7
370
     9
100
AcDbLine
 10
182.5000000000045
 20
175.3999999999994
 30
0.0
 11
183.0000000000045
 21
175.3999999999994
 31
0.0
  0
ARC
  5
6425
330
640D
100
AcDbEntity
  8
0
  6
________________
 62
     7
370
     9
100
AcDbCircle
 10
-34.00000000000429
 20
156.6000000000002
 30
0.0
 40
0.5000000000000004
210
0.0
220
0.0
230
-1.0
100
AcDbArc
 50
270.0
 51
0.0000000000015916
  0
LINE
  5
6426
330
640D
100
AcDbEntity
  8
0
  6
________________
 62
   253
370
     9
100
AcDbLine
 10
34.00000000000429
 20
156.6000000000002
 30
0.0
 11
33.50000000000429
 21
156.6000000000002
 31
0.0
  0
LINE
  5
6427
330
640D
100
AcDbEntity
  8
0
  6
________________
 62
   253
370
     9
100
AcDbLine
 10
34.00000000000429
 20
156.1000000000002
 30
0.0
 11
34.00000000000429
 21
156.6000000000002
 31
0.0
  0
LINE
  5
6428
330
640D
100
AcDbEntity
  8
0
  6
________________
 62
     7
370
     9
100
AcDbLine
 10
163.0000000000043
 20
164.599999999999
 30
0.0
 11
163.0000000000043
 21
157.799999999999
 31
0.0
  0
LINE
  5
6429
330
640D
100
AcDbEntity
  8
0
  6
________________
 62
     7
370
     9
100
AcDbLine
 10
182.5000000000044
 20
164.5999999999988
 30
0.0
 11
163.0000000000043
 21
164.599999999999
 31
0.0
  0
LINE
  5
642A
330
640D
100
AcDbEntity
  8
0
  6
________________
 62
   253
370
     9
100
AcDbLine
 10
182.5000000000043
 20
156.5999999999988
 30
0.0
 11
182.5000000000044
 21
164.5999999999988
 31
0.0
  0
LINE
  5
642B
330
640D
100
AcDbEntity
  8
0
  6
________________
 62
   253
370
     9
100
AcDbLine
 10
34.00000000000429
 20
156.6000000000002
 30
0.0
 11
182.5000000000043
 21
156.5999999999988
 31
0.0
  0
LINE
  5
642C
330
640D
100
AcDbEntity
  8
0
  6
________________
 62
   253
370
     9
100
AcDbLine
 10
34.00000000000437
 20
164.6000000000003
 30
0.0
 11
34.00000000000429
 21
156.6000000000002
 31
0.0
  0
LINE
  5
642D
330
640D
100
AcDbEntity
  8
0
  6
________________
 62
     7
370
     9
100
AcDbLine
 10
79.00000000000438
 20
164.5999999999998
 30
0.0
 11
34.0000000000044
 21
164.6000000000003
 31
0.0
  0
LINE
  5
642E
330
640D
100
AcDbEntity
  8
0
  6
________________
 62
     7
370
     9
100
AcDbLine
 10
79.00000000000432
 20
157.7999999999998
 30
0.0
 11
79.00000000000438
 21
164.5999999999998
 31
0.0
  0
LINE
  5
642F
330
640D
100
AcDbEntity
  8
0
  6
________________
 62
     7
370
     9
100
AcDbLine
 10
163.0000000000043
 20
157.799999999999
 30
0.0
 11
79.00000000000432
 21
157.7999999999998
 31
0.0
  0
LINE
  5
6430
330
640D
100
AcDbEntity
  8
0
  6
________________
 62
     7
370
     9
100
AcDbLine
 10
33.50000000000429
 20
156.6000000000002
 30
0.0
 11
33.50000000000437
 21
164.6000000000003
 31
0.0
  0
LINE
  5
6431
330
640D
100
AcDbEntity
  8
0
  6
________________
 62
     7
370
     9
100
AcDbLine
 10
33.50000000000437
 20
164.6000000000003
 30
0.0
 11
34.00000000000437
 21
164.6000000000003
 31
0.0
  0
LINE
  5
6432
330
640D
100
AcDbEntity
  8
0
  6
________________
 62
     7
370
     9
100
AcDbLine
 10
182.5000000000043
 20
156.0999999999988
 30
0.0
 11
34.00000000000431
 21
156.1000000000002
 31
0.0
  0
LINE
  5
6433
330
640D
100
AcDbEntity
  8
0
  6
________________
 62
   253
370
     9
100
AcDbLine
 10
182.5000000000043
 20
156.5999999999988
 30
0.0
 11
182.5000000000043
 21
156.0999999999988
 31
0.0
  0
LINE
  5
6434
330
640D
100
AcDbEntity
  8
0
  6
________________
 62
     7
370
     9
100
AcDbLine
 10
183.0000000000044
 20
164.5999999999988
 30
0.0
 11
183.0000000000043
 21
156.5999999999988
 31
0.0
  0
LINE
  5
6435
330
640D
100
AcDbEntity
  8
0
  6
________________
 62
   253
370
     9
100
AcDbLine
 10
183.0000000000043
 20
156.5999999999988
 30
0.0
 11
182.5000000000043
 21
156.5999999999988
 31
0.0
  0
LINE
  5
6436
330
640D
100
AcDbEntity
  8
0
  6
________________
 62
     7
370
     9
100
AcDbLine
 10
182.5000000000044
 20
164.5999999999988
 30
0.0
 11
183.0000000000044
 21
164.5999999999988
 31
0.0
  0
ARC
  5
6437
330
640D
100
AcDbEntity
  8
0
  6
________________
 62
     7
370
     9
100
AcDbCircle
 10
-182.5000000000043
 20
156.5999999999988
 30
0.0
 40
0.5000000000000004
210
0.0
220
0.0
230
-1.0
100
AcDbArc
 50
180.0
 51
270.0
  0
LINE
  5
6438
330
640D
100
AcDbEntity
  8
0
  6
________________
 62
     7
370
     9
100
AcDbLine
 10
34.99999999981632
 20
164.6000000000002
 30
0.0
 11
34.99999999981632
 21
165.0000000000001
 31
0.0
  0
LINE
  5
6439
330
640D
100
AcDbEntity
  8
0
  6
________________
 62
     7
370
     9
100
AcDbLine
 10
34.9999999998163
 20
165.0000000000001
 30
0.0
 11
39.99999999996005
 21
165.0000000000001
 31
0.0
  0
LINE
  5
643A
330
640D
100
AcDbEntity
  8
0
  6
________________
 62
   253
370
     9
100
AcDbLine
 10
39.99999999996005
 20
165.0000000000001
 30
0.0
 11
39.99999999996005
 21
164.6000000000002
 31
0.0
  0
LINE
  5
643B
330
640D
100
AcDbEntity
  8
0
  6
________________
 62
   253
370
     9
100
AcDbLine
 10
47.99999999996005
 20
164.6000000000002
 30
0.0
 11
47.99999999996005
 21
165.0000000000001
 31
0.0
  0
LINE
  5
643C
330
640D
100
AcDbEntity
  8
0
  6
________________
 62
     7
370
     9
100
AcDbLine
 10
47.99999999996005
 20
165.0000000000001
 30
0.0
 11
39.99999999996005
 21
165.0000000000001
 31
0.0
  0
LINE
  5
643D
330
640D
100
AcDbEntity
  8
0
  6
________________
 62
     7
370
     9
100
AcDbLine
 10
52.99999999981632
 20
165.0000000000001
 30
0.0
 11
52.99999999981632
 21
164.6000000000002
 31
0.0
  0
LINE
  5
643E
330
640D
100
AcDbEntity
  8
0
  6
________________
 62
     7
370
     9
100
AcDbLine
 10
47.99999999996005
 20
165.0000000000001
 30
0.0
 11
52.99999999981632
 21
165.0000000000001
 31
0.0
  0
LINE
  5
643F
330
640D
100
AcDbEntity
  8
0
  6
________________
 62
   253
370
     9
100
AcDbLine
 10
53.99999999904013
 20
164.6000000000002
 30
0.0
 11
53.99999999904013
 21
165.0000000000001
 31
0.0
  0
LINE
  5
6440
330
640D
100
AcDbEntity
  8
0
  6
________________
 62
     7
370
     9
100
AcDbLine
 10
52.99999999906888
 20
165.0000000000001
 30
0.0
 11
53.99999999904013
 21
165.0000000000001
 31
0.0
  0
LINE
  5
6441
330
640D
100
AcDbEntity
  8
0
  6
________________
 62
   253
370
     9
100
AcDbLine
 10
173.9999999990401
 20
164.6000000000002
 30
0.0
 11
173.9999999990401
 21
165.0000000000001
 31
0.0
  0
LINE
  5
6442
330
640D
100
AcDbEntity
  8
0
  6
________________
 62
     7
370
     9
100
AcDbLine
 10
173.9999999990401
 20
165.0000000000001
 30
0.0
 11
172.4999999999846
 21
165.0000000000002
 31
0.0
  0
LINE
  5
6443
330
640D
100
AcDbEntity
  8
0
  6
________________
 62
     7
370
     9
100
AcDbLine
 10
54.49999999998453
 20
165.0000000000001
 30
0.0
 11
53.99999999904013
 21
165.0000000000001
 31
0.0
  0
LINE
  5
6444
330
640D
100
AcDbEntity
  8
0
  6
________________
 62
     7
370
     9
100
AcDbLine
 10
178.9999999988964
 20
165.0000000000001
 30
0.0
 11
178.9999999988964
 21
164.6000000000002
 31
0.0
  0
LINE
  5
6445
330
640D
100
AcDbEntity
  8
0
  6
________________
 62
     7
370
     9
100
AcDbLine
 10
173.9999999990401
 20
165.0000000000001
 30
0.0
 11
178.9999999988964
 21
165.0000000000001
 31
0.0
  0
LINE
  5
6446
330
640D
100
AcDbEntity
  8
0
  6
________________
 62
     7
370
     9
100
AcDbLine
 10
34.99999999980584
 20
175.0000000000001
 30
0.0
 11
34.99999999980584
 21
175.4000000000002
 31
0.0
  0
LINE
  5
6447
330
640D
100
AcDbEntity
  8
0
  6
________________
 62
   253
370
     9
100
AcDbLine
 10
39.9999999999791
 20
175.4000000000002
 30
0.0
 11
39.9999999999791
 21
175.0000000000001
 31
0.0
  0
LINE
  5
6448
330
640D
100
AcDbEntity
  8
0
  6
________________
 62
     7
370
     9
100
AcDbLine
 10
39.9999999999791
 20
175.0000000000001
 30
0.0
 11
34.99999999980582
 21
175.0000000000001
 31
0.0
  0
LINE
  5
6449
330
640D
100
AcDbEntity
  8
0
  6
________________
 62
   253
370
     9
100
AcDbLine
 10
47.99999999997909
 20
175.0000000000001
 30
0.0
 11
47.99999999997909
 21
175.4000000000002
 31
0.0
  0
LINE
  5
644A
330
640D
100
AcDbEntity
  8
0
  6
________________
 62
     7
370
     9
100
AcDbLine
 10
47.99999999997909
 20
175.0000000000001
 30
0.0
 11
39.9999999999791
 21
175.0000000000001
 31
0.0
  0
LINE
  5
644B
330
640D
100
AcDbEntity
  8
0
  6
________________
 62
     7
370
     9
100
AcDbLine
 10
52.99999999980584
 20
175.4000000000002
 30
0.0
 11
52.99999999980584
 21
175.0000000000001
 31
0.0
  0
LINE
  5
644C
330
640D
100
AcDbEntity
  8
0
  6
________________
 62
     7
370
     9
100
AcDbLine
 10
52.99999999980584
 20
175.0000000000001
 30
0.0
 11
47.99999999997909
 21
175.0000000000001
 31
0.0
  0
LINE
  5
644D
330
640D
100
AcDbEntity
  8
0
  6
________________
 62
   253
370
     9
100
AcDbLine
 10
53.99999999887027
 20
175.0000000000001
 30
0.0
 11
53.99999999887027
 21
175.4000000000002
 31
0.0
  0
LINE
  5
644E
330
640D
100
AcDbEntity
  8
0
  6
________________
 62
     7
370
     9
100
AcDbLine
 10
52.99999999890491
 20
175.0000000000001
 30
0.0
 11
53.99999999887027
 21
175.0000000000001
 31
0.0
  0
LINE
  5
644F
330
640D
100
AcDbEntity
  8
0
  6
________________
 62
     7
370
     9
100
AcDbLine
 10
54.50000000000453
 20
175.0000000000001
 30
0.0
 11
53.99999999887027
 21
175.0000000000001
 31
0.0
  0
CIRCLE
  5
6450
330
640D
100
AcDbEntity
  8
0
  6
________________
 62
   253
370
     9
100
AcDbCircle
 10
125.9999999997995
 20
170.449999999919
 30
0.0
 40
8.000000000000007
  0
CIRCLE
  5
6451
330
640D
100
AcDbEntity
  8
0
  6
________________
 62
   253
370
     9
100
AcDbCircle
 10
-125.9999999997995
 20
170.449999999919
 30
0.0
 40
7.000000000000006
210
0.0
220
0.0
230
-1.0
  0
ARC
  5
6452
330
640D
100
AcDbEntity
  8
0
  6
________________
 62
     7
370
     9
100
AcDbCircle
 10
125.9999999997995
 20
170.449999999919
 30
0.0
 40
5.999999999999988
100
AcDbArc
 50
180.4474580861393
 51
0.4474580861395338
  0
ARC
  5
6453
330
640D
100
AcDbEntity
  8
0
  6
________________
 62
     7
370
     9
100
AcDbCircle
 10
125.9999999997995
 20
170.449999999919
 30
0.0
 40
6.000000000000028
100
AcDbArc
 50
0.4474580861395376
 51
180.4474580861393
  0
CIRCLE
  5
6454
330
640D
100
AcDbEntity
  8
0
  6
________________
 62
     7
370
     9
100
AcDbCircle
 10
125.9999999999273
 20
170.4500000000002
 30
0.0
 40
8.99999999999998
  0
LINE
  5
6455
330
640D
100
AcDbEntity
  8
0
  6
________________
 62
     7
370
     9
100
AcDbLine
 10
117.9999999999273
 20
159.5500000000001
 30
0.0
 11
155.9999999999273
 21
159.5500000000002
 31
0.0
  0
ARC
  5
6456
330
640D
100
AcDbEntity
  8
0
  6
________________
 62
     7
370
     9
100
AcDbCircle
 10
117.9999999999273
 20
163.5500000000001
 30
0.0
 40
3.99999999999999
100
AcDbArc
 50
180.0
 51
270.0
  0
LINE
  5
6457
330
640D
100
AcDbEntity
  8
0
  6
________________
 62
     7
370
     9
100
AcDbLine
 10
113.9999999999274
 20
166.3500000000002
 30
0.0
 11
113.9999999999274
 21
163.5500000000001
 31
0.0
  0
ARC
  5
6458
330
640D
100
AcDbEntity
  8
0
  6
________________
 62
     7
370
     9
100
AcDbCircle
 10
-105.9999999999273
 20
166.3500000000002
 30
0.0
 40
7.99999999999998
210
0.0
220
0.0
230
-1.0
100
AcDbArc
 50
90.0
 51
180.0
  0
LINE
  5
6459
330
640D
100
AcDbEntity
  8
0
  6
________________
 62
     7
370
     9
100
AcDbLine
 10
81.99999999992737
 20
174.3500000000002
 30
0.0
 11
100.0000000000045
 21
174.3500000000001
 31
0.0
  0
LINE
  5
645A
330
640D
100
AcDbEntity
  8
0
  6
________________
 62
     7
370
     9
100
AcDbLine
 10
100.0000000000045
 20
174.3500000000001
 30
0.0
 11
105.9999999999273
 21
174.3500000000002
 31
0.0
  0
LINE
  5
645B
330
640D
100
AcDbEntity
  8
0
  6
________________
 62
     7
370
     9
100
AcDbLine
 10
81.99999999992737
 20
177.3500000000001
 30
0.0
 11
81.99999999992737
 21
174.3500000000002
 31
0.0
  0
LINE
  5
645C
330
640D
100
AcDbEntity
  8
0
  6
________________
 62
     7
370
     9
100
AcDbLine
 10
85.99999999992737
 20
181.3500000000001
 30
0.0
 11
81.99999999992737
 21
177.3500000000001
 31
0.0
  0
LINE
  5
645D
330
640D
100
AcDbEntity
  8
0
  6
________________
 62
     7
370
     9
100
AcDbLine
 10
133.9999999999274
 20
181.3500000000002
 30
0.0
 11
85.99999999992738
 21
181.3500000000001
 31
0.0
  0
ARC
  5
645E
330
640D
100
AcDbEntity
  8
0
  6
________________
 62
     7
370
     9
100
AcDbCircle
 10
133.9999999999274
 20
177.3500000000002
 30
0.0
 40
4.000000000000004
100
AcDbArc
 50
0.0
 51
90.0
  0
LINE
  5
645F
330
640D
100
AcDbEntity
  8
0
  6
________________
 62
     7
370
     9
100
AcDbLine
 10
137.9999999999274
 20
166.7500000000002
 30
0.0
 11
137.9999999999274
 21
177.3500000000002
 31
0.0
  0
ARC
  5
6460
330
640D
100
AcDbEntity
  8
0
  6
________________
 62
     7
370
     9
100
AcDbCircle
 10
-138.1999999999273
 20
166.7500000000002
 30
0.0
 40
0.2000000000000335
210
0.0
220
0.0
230
-1.0
100
AcDbArc
 50
269.999999999999
 51
0.0
  0
LINE
  5
6461
330
640D
100
AcDbEntity
  8
0
  6
________________
 62
     7
370
     9
100
AcDbLine
 10
159.9999999999273
 20
166.5500000000001
 30
0.0
 11
138.1999999999273
 21
166.5500000000001
 31
0.0
  0
LINE
  5
6462
330
640D
100
AcDbEntity
  8
0
  6
________________
 62
     7
370
     9
100
AcDbLine
 10
159.9999999999273
 20
163.5500000000002
 30
0.0
 11
159.9999999999273
 21
166.5500000000001
 31
0.0
  0
LINE
  5
6463
330
640D
100
AcDbEntity
  8
0
  6
________________
 62
     7
370
     9
100
AcDbLine
 10
155.9999999999273
 20
159.5500000000002
 30
0.0
 11
159.9999999999273
 21
163.5500000000002
 31
0.0
  0
LINE
  5
6464
330
640D
100
AcDbEntity
  8
0
  6
________________
 62
     7
370
     9
100
AcDbLine
 10
156.4999999999269
 20
175.9500000000002
 30
0.0
 11
145.4999999999269
 21
175.9500000000002
 31
0.0
  0
LINE
  5
6465
330
640D
100
AcDbEntity
  8
0
  6
________________
 62
     7
370
     9
100
AcDbLine
 10
85.4999999999273
 20
165.0500000000017
 30
0.0
 11
96.49977443554641
 21
165.0499999999987
 31
0.0
  0
LINE
  5
6466
330
640D
100
AcDbEntity
  8
0
  6
________________
 62
     7
370
     9
100
AcDbLine
 10
155.9997949414019
 20
181.9499999999996
 30
0.0
 11
145.9999999999271
 21
181.9500000000023
 31
0.0
  0
LINE
  5
6467
330
640D
100
AcDbEntity
  8
0
  6
________________
 62
     7
370
     9
100
AcDbLine
 10
85.9999999999273
 20
159.0500000000002
 30
0.0
 11
95.99999999992731
 21
159.0500000000002
 31
0.0
  0
LINE
  5
6468
330
640D
100
AcDbEntity
  8
0
  6
________________
 62
     7
370
     9
100
AcDbLine
 10
32.99999999988658
 20
162.5999999997125
 30
0.0
 11
33.00000000007832
 21
159.5999999997125
 31
0.0
  0
LINE
  5
6469
330
640D
100
AcDbEntity
  8
0
  6
________________
 62
     7
370
     9
100
AcDbLine
 10
32.49999999989514
 20
162.466025403465
 30
0.0
 11
32.50000000006973
 21
159.7339745958962
 31
0.0
  0
LINE
  5
646A
330
640D
100
AcDbEntity
  8
0
  6
________________
 62
     7
370
     9
100
AcDbLine
 10
183.4999999999047
 20
159.8500000000002
 30
0.0
 11
183.5000000000644
 21
162.3500000000002
 31
0.0
  0
LINE
  5
646B
330
640D
100
AcDbEntity
  8
0
  6
________________
 62
     7
370
     9
100
AcDbLine
 10
183.4249999998951
 20
159.7000000000049
 30
0.0
 11
183.425000000074
 21
162.5000000000049
 31
0.0
  0
LINE
  5
646C
330
640D
100
AcDbEntity
  8
0
  6
________________
 62
     7
370
     9
100
AcDbLine
 10
66.49999999998454
 20
164.6000000000002
 30
0.0
 11
66.49999999998454
 21
165.6000000000001
 31
0.0
  0
LINE
  5
646D
330
640D
100
AcDbEntity
  8
0
  6
________________
 62
   253
370
     9
100
AcDbLine
 10
63.69999999998455
 20
164.6000000000002
 30
0.0
 11
63.69999999998453
 21
165.6000000000001
 31
0.0
  0
LINE
  5
646E
330
640D
100
AcDbEntity
  8
0
  6
________________
 62
     7
370
     9
100
AcDbLine
 10
54.49999999998453
 20
164.6000000000002
 30
0.0
 11
54.49999999998453
 21
165.6000000000001
 31
0.0
  0
LINE
  5
646F
330
640D
100
AcDbEntity
  8
0
  6
________________
 62
   253
370
     9
100
AcDbLine
 10
79.00000000000432
 20
158.6000000000002
 30
0.0
 11
163.0000000000043
 21
158.6000000000002
 31
0.0
  0
LINE
  5
6470
330
640D
100
AcDbEntity
  8
0
  6
________________
 62
     7
370
     9
100
AcDbLine
 10
162.999999999975
 20
164.6000000000002
 30
0.0
 11
159.9999999999273
 21
164.6000000000002
 31
0.0
  0
LINE
  5
6471
330
640D
100
AcDbEntity
  8
0
  6
________________
 62
     7
370
     9
100
AcDbLine
 10
127.3332291627527
 20
164.6000000000002
 30
0.0
 11
124.6667708368463
 21
164.6000000000002
 31
0.0
  0
LINE
  5
6472
330
640D
100
AcDbEntity
  8
0
  6
________________
 62
     7
370
     9
100
AcDbLine
 10
113.9999999999273
 20
164.6000000000002
 30
0.0
 11
95.99999999992731
 21
164.6000000000002
 31
0.0
  0
LINE
  5
6473
330
640D
100
AcDbEntity
  8
0
  6
________________
 62
     7
370
     9
100
AcDbLine
 10
85.99999999992731
 20
164.6000000000002
 30
0.0
 11
79.00000000000438
 21
164.6000000000002
 31
0.0
  0
LINE
  5
6474
330
640D
100
AcDbEntity
  8
0
  6
________________
 62
   253
370
     9
100
AcDbLine
 10
169.6999999999846
 20
164.6000000000002
 30
0.0
 11
169.6999999999846
 21
165.6000000000001
 31
0.0
  0
LINE
  5
6475
330
640D
100
AcDbEntity
  8
0
  6
________________
 62
     7
370
     9
100
AcDbLine
 10
172.4999999999846
 20
164.6000000000002
 30
0.0
 11
172.4999999999845
 21
165.6000000000001
 31
0.0
  0
LINE
  5
6476
330
640D
100
AcDbEntity
  8
0
  6
________________
 62
   253
370
     9
100
AcDbLine
 10
69.29999999998454
 20
164.6000000000002
 30
0.0
 11
69.29999999998454
 21
165.6000000000001
 31
0.0
  0
LINE
  5
6477
330
640D
100
AcDbEntity
  8
0
  6
________________
 62
     7
370
     9
100
AcDbLine
 10
183.4999999999245
 20
177.6500000000002
 30
0.0
 11
183.5000000000846
 21
180.1500000000002
 31
0.0
  0
LINE
  5
6478
330
640D
100
AcDbEntity
  8
0
  6
________________
 62
     7
370
     9
100
AcDbLine
 10
183.4249999999149
 20
177.500000000005
 30
0.0
 11
183.4250000000942
 21
180.300000000005
 31
0.0
  0
LINE
  5
6479
330
640D
100
AcDbEntity
  8
0
  6
________________
 62
     7
370
     9
100
AcDbLine
 10
32.99999999990687
 20
180.3999899997121
 30
0.0
 11
33.00000000009888
 21
177.3999899997121
 31
0.0
  0
LINE
  5
647A
330
640D
100
AcDbEntity
  8
0
  6
________________
 62
     7
370
     9
100
AcDbLine
 10
32.49999999991545
 20
180.2660154034646
 30
0.0
 11
32.50000000009027
 21
177.5339645958957
 31
0.0
  0
LINE
  5
647B
330
640D
100
AcDbEntity
  8
0
  6
________________
 62
     7
370
     9
100
AcDbLine
 10
78.00000000000455
 20
165.6000000000001
 30
0.0
 11
78.00000000000455
 21
166.6500000000001
 31
0.0
  0
LINE
  5
647C
330
640D
100
AcDbEntity
  8
0
  6
________________
 62
     7
370
     9
100
AcDbLine
 10
54.50000000000454
 20
165.6000000000001
 30
0.0
 11
78.00000000000455
 21
165.6000000000001
 31
0.0
  0
LINE
  5
647D
330
640D
100
AcDbEntity
  8
0
  6
________________
 62
     7
370
     9
100
AcDbLine
 10
54.50000000000454
 20
175.4000000000002
 30
0.0
 11
54.50000000000454
 21
165.6000000000001
 31
0.0
  0
LINE
  5
647E
330
640D
100
AcDbEntity
  8
0
  6
________________
 62
     7
370
     9
100
AcDbLine
 10
54.50000000000454
 20
175.4000000000002
 30
0.0
 11
78.00000000000453
 21
175.4000000000002
 31
0.0
  0
LINE
  5
647F
330
640D
100
AcDbEntity
  8
0
  6
________________
 62
     7
370
     9
100
AcDbLine
 10
78.00000000000453
 20
175.4000000000002
 30
0.0
 11
78.00000000000453
 21
174.3500000000002
 31
0.0
  0
LINE
  5
6480
330
640D
100
AcDbEntity
  8
0
  6
________________
 62
     7
370
     9
100
AcDbLine
 10
78.00000000000453
 20
174.3500000000002
 30
0.0
 11
81.99999999992737
 21
174.3500000000002
 31
0.0
  0
LINE
  5
6481
330
640D
100
AcDbEntity
  8
0
  6
________________
 62
     7
370
     9
100
AcDbLine
 10
81.99999999992737
 20
174.3500000000002
 30
0.0
 11
100.0000000000045
 21
174.3500000000002
 31
0.0
  0
LINE
  5
6482
330
640D
100
AcDbEntity
  8
0
  6
________________
 62
     7
370
     9
100
AcDbLine
 10
100.0000000000045
 20
174.3500000000002
 30
0.0
 11
100.0000000000045
 21
166.6500000000001
 31
0.0
  0
LINE
  5
6483
330
640D
100
AcDbEntity
  8
0
  6
________________
 62
     7
370
     9
100
AcDbLine
 10
78.00000000000455
 20
166.6500000000001
 30
0.0
 11
100.0000000000045
 21
166.6500000000001
 31
0.0
  0
LINE
  5
6484
330
640D
100
AcDbEntity
  8
0
  6
________________
 62
     7
370
     9
100
AcDbLine
 10
142.0000000000045
 20
174.3500000000002
 30
0.0
 11
164.0000000000045
 21
174.3500000000002
 31
0.0
  0
LINE
  5
6485
330
640D
100
AcDbEntity
  8
0
  6
________________
 62
     7
370
     9
100
AcDbLine
 10
164.0000000000045
 20
175.4000000000002
 30
0.0
 11
164.0000000000045
 21
174.3500000000002
 31
0.0
  0
LINE
  5
6486
330
640D
100
AcDbEntity
  8
0
  6
________________
 62
     7
370
     9
100
AcDbLine
 10
164.0000000000045
 20
175.4000000000002
 30
0.0
 11
182.5000000000045
 21
175.3999999999994
 31
0.0
  0
LINE
  5
6487
330
640D
100
AcDbEntity
  8
0
  6
________________
 62
     7
370
     9
100
AcDbLine
 10
182.5000000000045
 20
175.3999999999994
 30
0.0
 11
183.0000000000046
 21
175.4000000000002
 31
0.0
  0
LINE
  5
6488
330
640D
100
AcDbEntity
  8
0
  6
________________
 62
     7
370
     9
100
AcDbLine
 10
183.0000000000046
 20
175.4000000000002
 30
0.0
 11
183.0000000000046
 21
165.6000000000001
 31
0.0
  0
LINE
  5
6489
330
640D
100
AcDbEntity
  8
0
  6
________________
 62
     7
370
     9
100
AcDbLine
 10
164.0000000000045
 20
165.6000000000001
 30
0.0
 11
183.0000000000046
 21
165.6000000000001
 31
0.0
  0
LINE
  5
648A
330
640D
100
AcDbEntity
  8
0
  6
________________
 62
     7
370
     9
100
AcDbLine
 10
164.0000000000045
 20
165.6000000000001
 30
0.0
 11
164.0000000000045
 21
166.6500000000001
 31
0.0
  0
LINE
  5
648B
330
640D
100
AcDbEntity
  8
0
  6
________________
 62
     7
370
     9
100
AcDbLine
 10
142.0000000000045
 20
166.6500000000001
 30
0.0
 11
164.0000000000045
 21
166.6500000000001
 31
0.0
  0
LINE
  5
648C
330
640D
100
AcDbEntity
  8
0
  6
________________
 62
     7
370
     9
100
AcDbLine
 10
142.0000000000045
 20
174.3500000000002
 30
0.0
 11
142.0000000000045
 21
166.6500000000001
 31
0.0
  0
LINE
  5
648D
330
640D
100
AcDbEntity
  8
0
  6
________________
 62
     7
370
     9
100
AcDbLine
 10
164.0000000000045
 20
165.6000000000001
 30
0.0
 11
159.9999999999273
 21
165.6000000000001
 31
0.0
  0
LINE
  5
648E
330
640D
100
AcDbEntity
  8
0
  6
________________
 62
     7
370
     9
100
AcDbLine
 10
129.5323504921468
 20
165.6000000000001
 30
0.0
 11
122.4676495074522
 21
165.6000000000001
 31
0.0
  0
LINE
  5
648F
330
640D
100
AcDbEntity
  8
0
  6
________________
 62
     7
370
     9
100
AcDbLine
 10
113.9999999999274
 20
165.6000000000001
 30
0.0
 11
96.49999999992745
 21
165.6000000000001
 31
0.0
  0
LINE
  5
6490
330
640D
100
AcDbEntity
  8
0
  6
________________
 62
     7
370
     9
100
AcDbLine
 10
85.49999999992747
 20
165.6000000000001
 30
0.0
 11
78.00000000000455
 21
165.6000000000001
 31
0.0
  0
LINE
  5
6491
330
640D
100
AcDbEntity
  8
0
  6
________________
 62
   253
370
     9
100
AcDbLine
 10
153.4999999999244
 20
166.5500000000001
 30
0.0
 11
153.4999999999244
 21
166.6500000000001
 31
0.0
  0
LINE
  5
6492
330
640D
100
AcDbEntity
  8
0
  6
________________
 62
   253
370
     9
100
AcDbLine
 10
148.4999999999244
 20
166.6500000000001
 30
0.0
 11
148.4999999999244
 21
166.5500000000001
 31
0.0
  0
LINE
  5
6493
330
640D
100
AcDbEntity
  8
0
  6
________________
 62
     7
370
     9
100
AcDbLine
 10
145.4999999999269
 20
175.9500000000002
 30
0.0
 11
145.4999999999269
 21
174.3500000000002
 31
0.0
  0
LINE
  5
6494
330
640D
100
AcDbEntity
  8
0
  6
________________
 62
     7
370
     9
100
AcDbLine
 10
156.4999999999269
 20
174.3500000000002
 30
0.0
 11
156.4999999999269
 21
175.9500000000002
 31
0.0
  0
LINE
  5
6495
330
640D
100
AcDbEntity
  8
0
  6
________________
 62
     7
370
     9
100
AcDbLine
 10
96.49999999992731
 20
165.0499999999987
 30
0.0
 11
96.49999999992774
 21
166.6499999999987
 31
0.0
  0
LINE
  5
6496
330
640D
100
AcDbEntity
  8
0
  6
________________
 62
     7
370
     9
100
AcDbLine
 10
85.49999999992774
 20
166.6500000000017
 30
0.0
 11
85.4999999999273
 21
165.0500000000017
 31
0.0
  0
LINE
  5
6497
330
640D
100
AcDbEntity
  8
0
  6
________________
 62
     7
370
     9
100
AcDbLine
 10
145.9999999999285
 20
181.9500000000023
 30
0.0
 11
145.9999999999269
 21
175.9500000000014
 31
0.0
  0
LINE
  5
6498
330
640D
100
AcDbEntity
  8
0
  6
________________
 62
     7
370
     9
100
AcDbLine
 10
155.999999999927
 20
175.9499999999987
 30
0.0
 11
155.9999999999286
 21
181.9499999999996
 31
0.0
  0
LINE
  5
6499
330
640D
100
AcDbEntity
  8
0
  6
________________
 62
     7
370
     9
100
AcDbLine
 10
153.9999999999244
 20
166.5500000000001
 30
0.0
 11
153.9999999999245
 21
166.6500000000001
 31
0.0
  0
LINE
  5
649A
330
640D
100
AcDbEntity
  8
0
  6
________________
 62
     7
370
     9
100
AcDbLine
 10
147.9999999999244
 20
166.6500000000001
 30
0.0
 11
147.9999999999244
 21
166.5500000000001
 31
0.0
  0
LINE
  5
649B
330
640D
100
AcDbEntity
  8
0
  6
________________
 62
     7
370
     9
100
AcDbLine
 10
95.99999999992731
 20
159.0500000000002
 30
0.0
 11
95.99999999992731
 21
165.0500000000002
 31
0.0
  0
LINE
  5
649C
330
640D
100
AcDbEntity
  8
0
  6
________________
 62
     7
370
     9
100
AcDbLine
 10
85.9999999999273
 20
165.0500000000002
 30
0.0
 11
85.9999999999273
 21
159.0500000000002
 31
0.0
  0
LINE
  5
649D
330
640D
100
AcDbEntity
  8
0
  6
________________
 62
     7
370
     9
100
AcDbLine
 10
33.50000000000436
 20
162.5999999997445
 30
0.0
 11
32.99999999988658
 21
162.5999999997125
 31
0.0
  0
LINE
  5
649E
330
640D
100
AcDbEntity
  8
0
  6
________________
 62
     7
370
     9
100
AcDbLine
 10
33.00000000007832
 20
159.5999999997125
 30
0.0
 11
33.50000000000433
 21
159.5999999997445
 31
0.0
  0
LINE
  5
649F
330
640D
100
AcDbEntity
  8
0
  6
________________
 62
     7
370
     9
100
AcDbLine
 10
32.99999999988658
 20
162.5999999997125
 30
0.0
 11
32.49999999989514
 21
162.466025403465
 31
0.0
  0
LINE
  5
64A0
330
640D
100
AcDbEntity
  8
0
  6
________________
 62
     7
370
     9
100
AcDbLine
 10
32.50000000006974
 20
159.7339745958962
 30
0.0
 11
33.00000000007832
 21
159.5999999997125
 31
0.0
  0
LINE
  5
64A1
330
640D
100
AcDbEntity
  8
0
  6
________________
 62
     7
370
     9
100
AcDbLine
 10
183.4249999998951
 20
159.7000000000049
 30
0.0
 11
183.4999999999047
 21
159.8500000000002
 31
0.0
  0
LINE
  5
64A2
330
640D
100
AcDbEntity
  8
0
  6
________________
 62
     7
370
     9
100
AcDbLine
 10
183.5000000000644
 20
162.3500000000002
 30
0.0
 11
183.425000000074
 21
162.5000000000049
 31
0.0
  0
LINE
  5
64A3
330
640D
100
AcDbEntity
  8
0
  6
________________
 62
     7
370
     9
100
AcDbLine
 10
183.0000000000043
 20
159.7000000000321
 30
0.0
 11
183.4249999998951
 21
159.7000000000049
 31
0.0
  0
LINE
  5
64A4
330
640D
100
AcDbEntity
  8
0
  6
________________
 62
     7
370
     9
100
AcDbLine
 10
183.425000000074
 20
162.5000000000049
 30
0.0
 11
183.0000000000043
 21
162.5000000000321
 31
0.0
  0
LINE
  5
64A5
330
640D
100
AcDbEntity
  8
0
  6
________________
 62
     7
370
     9
100
AcDbLine
 10
183.0000000000045
 20
177.5000000000322
 30
0.0
 11
183.4249999999149
 21
177.500000000005
 31
0.0
  0
LINE
  5
64A6
330
640D
100
AcDbEntity
  8
0
  6
________________
 62
     7
370
     9
100
AcDbLine
 10
183.4250000000942
 20
180.300000000005
 30
0.0
 11
183.0000000000045
 21
180.3000000000322
 31
0.0
  0
LINE
  5
64A7
330
640D
100
AcDbEntity
  8
0
  6
________________
 62
     7
370
     9
100
AcDbLine
 10
183.4249999999149
 20
177.500000000005
 30
0.0
 11
183.4999999999245
 21
177.6500000000002
 31
0.0
  0
LINE
  5
64A8
330
640D
100
AcDbEntity
  8
0
  6
________________
 62
     7
370
     9
100
AcDbLine
 10
183.5000000000846
 20
180.1500000000002
 30
0.0
 11
183.4250000000942
 21
180.300000000005
 31
0.0
  0
LINE
  5
64A9
330
640D
100
AcDbEntity
  8
0
  6
________________
 62
     7
370
     9
100
AcDbLine
 10
33.50000000000451
 20
180.3999899997442
 30
0.0
 11
32.99999999990687
 21
180.3999899997121
 31
0.0
  0
LINE
  5
64AA
330
640D
100
AcDbEntity
  8
0
  6
________________
 62
     7
370
     9
100
AcDbLine
 10
33.00000000009886
 20
177.3999899997121
 30
0.0
 11
33.5000000000045
 21
177.3999899997442
 31
0.0
  0
LINE
  5
64AB
330
640D
100
AcDbEntity
  8
0
  6
________________
 62
     7
370
     9
100
AcDbLine
 10
32.99999999990687
 20
180.3999899997121
 30
0.0
 11
32.49999999991545
 21
180.2660154034646
 31
0.0
  0
LINE
  5
64AC
330
640D
100
AcDbEntity
  8
0
  6
________________
 62
     7
370
     9
100
AcDbLine
 10
32.50000000009029
 20
177.5339645958957
 30
0.0
 11
33.00000000009886
 21
177.3999899997121
 31
0.0
  0
ENDBLK
  5
64AD
330
640D
100
AcDbEntity
  8
0
100
AcDbBlockEnd
  0
BLOCK
  5
64B0
330
64AF
100
AcDbEntity
  8
0
100
AcDbBlockBegin
  2
D_FRAME_VIEW@500
 70
     0
 10
0.0
 20
0.0
 30
0.0
  3
D_FRAME_VIEW@500
  1

  0
LINE
  5
64B1
330
64AF
100
AcDbEntity
  8
0
  6
________________
 62
   253
370
     9
100
AcDbLine
 10
227.0999999999992
 20
267.5000000000001
 30
0.0
 11
235.0999999999992
 21
267.5000000000001
 31
0.0
  0
LINE
  5
64B2
330
64AF
100
AcDbEntity
  8
0
  6
________________
 62
     7
370
     9
100
AcDbLine
 10
235.0999999999992
 20
267.5000000000001
 30
0.0
 11
235.0999999999989
 21
219.5000000000001
 31
0.0
  0
LINE
  5
64B3
330
64AF
100
AcDbEntity
  8
0
  6
________________
 62
   253
370
     9
100
AcDbLine
 10
235.0999999999989
 20
219.5000000000001
 30
0.0
 11
227.0999999999989
 21
219.5000000000001
 31
0.0
  0
LINE
  5
64B4
330
64AF
100
AcDbEntity
  8
0
  6
________________
 62
   253
370
     9
100
AcDbLine
 10
227.0999999999989
 20
219.5000000000001
 30
0.0
 11
227.0999999999992
 21
267.5000000000001
 31
0.0
  0
ARC
  5
64B5
330
64AF
100
AcDbEntity
  8
0
  6
________________
 62
     7
370
     9
100
AcDbCircle
 10
-231.599999999999
 20
243.5000000000001
 30
0.0
 40
1.500000000000001
210
0.0
220
0.0
230
-1.0
100
AcDbArc
 50
90.00000000000054
 51
189.5929238148645
  0
ARC
  5
64B6
330
64AF
100
AcDbEntity
  8
0
  6
________________
 62
     7
370
     9
100
AcDbCircle
 10
-231.599999999999
 20
243.5000000000001
 30
0.0
 40
1.499999999999996
210
0.0
220
0.0
230
-1.0
100
AcDbArc
 50
350.4047842595642
 51
90.00000000000055
  0
LINE
  5
64B7
330
64AF
100
AcDbEntity
  8
0
  6
________________
 62
     7
370
     9
100
AcDbLine
 10
227.0999999999989
 20
219.0000000000001
 30
0.0
 11
235.0999999999989
 21
219.0000000000001
 31
0.0
  0
LINE
  5
64B8
330
64AF
100
AcDbEntity
  8
0
  6
________________
 62
   253
370
     9
100
AcDbLine
 10
227.0999999999989
 20
219.5000000000001
 30
0.0
 11
227.0999999999989
 21
219.0000000000001
 31
0.0
  0
LINE
  5
64B9
330
64AF
100
AcDbEntity
  8
0
  6
________________
 62
     7
370
     9
100
AcDbLine
 10
235.0999999999989
 20
219.0000000000001
 30
0.0
 11
235.0999999999989
 21
219.5000000000001
 31
0.0
  0
LINE
  5
64BA
330
64AF
100
AcDbEntity
  8
0
  6
________________
 62
   253
370
     9
100
AcDbLine
 10
227.0999999999992
 20
268.0000000000001
 30
0.0
 11
227.0999999999992
 21
267.5000000000001
 31
0.0
  0
LINE
  5
64BB
330
64AF
100
AcDbEntity
  8
0
  6
________________
 62
     7
370
     9
100
AcDbLine
 10
235.0999999999992
 20
268.0000000000001
 30
0.0
 11
227.0999999999992
 21
268.0000000000001
 31
0.0
  0
LINE
  5
64BC
330
64AF
100
AcDbEntity
  8
0
  6
________________
 62
     7
370
     9
100
AcDbLine
 10
235.0999999999992
 20
267.5000000000001
 30
0.0
 11
235.0999999999992
 21
268.0000000000001
 31
0.0
  0
ARC
  5
64BD
330
64AF
100
AcDbEntity
  8
0
  6
________________
 62
     7
370
     9
100
AcDbCircle
 10
227.0999999999989
 20
219.5000000000001
 30
0.0
 40
0.5000000000000004
100
AcDbArc
 50
180.0
 51
270.0
  0
LINE
  5
64BE
330
64AF
100
AcDbEntity
  8
0
  6
________________
 62
   253
370
     9
100
AcDbLine
 10
226.5999999999989
 20
219.5000000000001
 30
0.0
 11
227.0999999999989
 21
219.5000000000001
 31
0.0
  0
LINE
  5
64BF
330
64AF
100
AcDbEntity
  8
0
  6
________________
 62
     7
370
     9
100
AcDbLine
 10
226.5999999999992
 20
267.5000000000001
 30
0.0
 11
226.5999999999989
 21
219.5000000000001
 31
0.0
  0
LINE
  5
64C0
330
64AF
100
AcDbEntity
  8
0
  6
________________
 62
   253
370
     9
100
AcDbLine
 10
226.5999999999992
 20
267.5000000000001
 30
0.0
 11
227.0999999999992
 21
267.5000000000001
 31
0.0
  0
ARC
  5
64C1
330
64AF
100
AcDbEntity
  8
0
  6
________________
 62
     7
370
     9
100
AcDbCircle
 10
-227.0999999999992
 20
267.5000000000001
 30
0.0
 40
0.5000000000000004
210
0.0
220
0.0
230
-1.0
100
AcDbArc
 50
0.0000000000003976
 51
90.0
  0
LINE
  5
64C2
330
64AF
100
AcDbEntity
  8
0
  6
________________
 62
   253
370
     9
100
AcDbLine
 10
245.8999999999997
 20
219.5
 30
0.0
 11
253.8999999999998
 21
219.5
 31
0.0
  0
LINE
  5
64C3
330
64AF
100
AcDbEntity
  8
0
  6
________________
 62
   253
370
     9
100
AcDbLine
 10
253.8999999999998
 20
219.5
 30
0.0
 11
253.8999999999998
 21
219.0
 31
0.0
  0
LINE
  5
64C4
330
64AF
100
AcDbEntity
  8
0
  6
________________
 62
     7
370
     9
100
AcDbLine
 10
253.8999999999998
 20
219.0
 30
0.0
 11
245.8999999999998
 21
219.0
 31
0.0
  0
LINE
  5
64C5
330
64AF
100
AcDbEntity
  8
0
  6
________________
 62
     7
370
     9
100
AcDbLine
 10
245.8999999999997
 20
219.0
 30
0.0
 11
245.8999999999997
 21
219.5
 31
0.0
  0
LINE
  5
64C6
330
64AF
100
AcDbEntity
  8
0
  6
________________
 62
     7
370
     9
100
AcDbLine
 10
254.3999999999997
 20
267.5
 30
0.0
 11
254.3999999999997
 21
219.5
 31
0.0
  0
LINE
  5
64C7
330
64AF
100
AcDbEntity
  8
0
  6
________________
 62
   253
370
     9
100
AcDbLine
 10
254.3999999999997
 20
219.5
 30
0.0
 11
253.8999999999997
 21
219.5
 31
0.0
  0
LINE
  5
64C8
330
64AF
100
AcDbEntity
  8
0
  6
________________
 62
   253
370
     9
100
AcDbLine
 10
253.8999999999998
 20
219.5
 30
0.0
 11
253.8999999999998
 21
267.5
 31
0.0
  0
LINE
  5
64C9
330
64AF
100
AcDbEntity
  8
0
  6
________________
 62
   253
370
     9
100
AcDbLine
 10
254.3999999999997
 20
267.5
 30
0.0
 11
253.8999999999997
 21
267.5
 31
0.0
  0
ARC
  5
64CA
330
64AF
100
AcDbEntity
  8
0
  6
________________
 62
     7
370
     9
100
AcDbCircle
 10
-253.8999999999998
 20
219.5
 30
0.0
 40
0.5000000000000004
210
0.0
220
0.0
230
-1.0
100
AcDbArc
 50
180.0
 51
270.0
  0
LINE
  5
64CB
330
64AF
100
AcDbEntity
  8
0
  6
________________
 62
     7
370
     9
100
AcDbLine
 10
245.8999999999997
 20
267.5
 30
0.0
 11
245.8999999999997
 21
219.5
 31
0.0
  0
LINE
  5
64CC
330
64AF
100
AcDbEntity
  8
0
  6
________________
 62
   253
370
     9
100
AcDbLine
 10
253.8999999999998
 20
267.5
 30
0.0
 11
245.8999999999998
 21
267.5
 31
0.0
  0
ARC
  5
64CD
330
64AF
100
AcDbEntity
  8
0
  6
________________
 62
     7
370
     9
100
AcDbCircle
 10
-249.3999999999997
 20
243.5
 30
0.0
 40
1.500000000000001
210
0.0
220
0.0
230
-1.0
100
AcDbArc
 50
180.0
 51
189.5940672312923
  0
ARC
  5
64CE
330
64AF
100
AcDbEntity
  8
0
  6
________________
 62
     7
370
     9
100
AcDbCircle
 10
-249.3999999999997
 20
243.5
 30
0.0
 40
1.499999999999982
210
0.0
220
0.0
230
-1.0
100
AcDbArc
 50
350.4059328456516
 51
180.0
  0
LINE
  5
64CF
330
64AF
100
AcDbEntity
  8
0
  6
________________
 62
   253
370
     9
100
AcDbLine
 10
253.8999999999998
 20
268.0
 30
0.0
 11
253.8999999999998
 21
267.5
 31
0.0
  0
ARC
  5
64D0
330
64AF
100
AcDbEntity
  8
0
  6
________________
 62
     7
370
     9
100
AcDbCircle
 10
253.8999999999998
 20
267.5
 30
0.0
 40
0.5000000000000004
100
AcDbArc
 50
0.0
 51
90.0
  0
LINE
  5
64D1
330
64AF
100
AcDbEntity
  8
0
  6
________________
 62
     7
370
     9
100
AcDbLine
 10
245.8999999999997
 20
268.0
 30
0.0
 11
253.8999999999998
 21
268.0
 31
0.0
  0
LINE
  5
64D2
330
64AF
100
AcDbEntity
  8
0
  6
________________
 62
     7
370
     9
100
AcDbLine
 10
245.8999999999997
 20
267.5
 30
0.0
 11
245.8999999999997
 21
268.0
 31
0.0
  0
LINE
  5
64D3
330
64AF
100
AcDbEntity
  8
0
  6
________________
 62
     7
370
     9
100
AcDbLine
 10
245.8999999999999
 20
220.5000000003681
 30
0.0
 11
245.4999999999999
 21
220.5000000003681
 31
0.0
  0
LINE
  5
64D4
330
64AF
100
AcDbEntity
  8
0
  6
________________
 62
     7
370
     9
100
AcDbLine
 10
245.4999999999999
 20
220.5000000003681
 30
0.0
 11
245.4999999999999
 21
225.5000000005119
 31
0.0
  0
LINE
  5
64D5
330
64AF
100
AcDbEntity
  8
0
  6
________________
 62
   253
370
     9
100
AcDbLine
 10
245.4999999999999
 20
225.5000000005119
 30
0.0
 11
245.8999999999999
 21
225.5000000005119
 31
0.0
  0
LINE
  5
64D6
330
64AF
100
AcDbEntity
  8
0
  6
________________
 62
   253
370
     9
100
AcDbLine
 10
245.8999999999999
 20
259.5000000005119
 30
0.0
 11
245.4999999999999
 21
259.5000000005119
 31
0.0
  0
LINE
  5
64D7
330
64AF
100
AcDbEntity
  8
0
  6
________________
 62
     7
370
     9
100
AcDbLine
 10
245.4999999999999
 20
259.5000000005119
 30
0.0
 11
245.4999999999999
 21
225.5000000005119
 31
0.0
  0
LINE
  5
64D8
330
64AF
100
AcDbEntity
  8
0
  6
________________
 62
     7
370
     9
100
AcDbLine
 10
245.4999999999999
 20
264.5000000003682
 30
0.0
 11
245.8999999999999
 21
264.5000000003682
 31
0.0
  0
LINE
  5
64D9
330
64AF
100
AcDbEntity
  8
0
  6
________________
 62
     7
370
     9
100
AcDbLine
 10
245.4999999999999
 20
259.5000000005119
 30
0.0
 11
245.4999999999999
 21
264.5000000003682
 31
0.0
  0
LINE
  5
64DA
330
64AF
100
AcDbEntity
  8
0
  6
________________
 62
     7
370
     9
100
AcDbLine
 10
235.4999999999998
 20
220.5000000004344
 30
0.0
 11
235.0999999999999
 21
220.5000000004344
 31
0.0
  0
LINE
  5
64DB
330
64AF
100
AcDbEntity
  8
0
  6
________________
 62
   253
370
     9
100
AcDbLine
 10
235.0999999999999
 20
225.5000000006077
 30
0.0
 11
235.4999999999998
 21
225.5000000006077
 31
0.0
  0
LINE
  5
64DC
330
64AF
100
AcDbEntity
  8
0
  6
________________
 62
     7
370
     9
100
AcDbLine
 10
235.4999999999998
 20
225.5000000006077
 30
0.0
 11
235.4999999999998
 21
220.5000000004344
 31
0.0
  0
LINE
  5
64DD
330
64AF
100
AcDbEntity
  8
0
  6
________________
 62
   253
370
     9
100
AcDbLine
 10
235.4999999999998
 20
259.5000000006077
 30
0.0
 11
235.0999999999999
 21
259.5000000006077
 31
0.0
  0
LINE
  5
64DE
330
64AF
100
AcDbEntity
  8
0
  6
________________
 62
     7
370
     9
100
AcDbLine
 10
235.4999999999998
 20
259.5000000006077
 30
0.0
 11
235.4999999999998
 21
225.5000000006077
 31
0.0
  0
LINE
  5
64DF
330
64AF
100
AcDbEntity
  8
0
  6
________________
 62
     7
370
     9
100
AcDbLine
 10
235.0999999999999
 20
264.5000000004345
 30
0.0
 11
235.4999999999998
 21
264.5000000004345
 31
0.0
  0
LINE
  5
64E0
330
64AF
100
AcDbEntity
  8
0
  6
________________
 62
     7
370
     9
100
AcDbLine
 10
235.4999999999998
 20
264.5000000004345
 30
0.0
 11
235.4999999999998
 21
259.5000000006077
 31
0.0
  0
LINE
  5
64E1
330
64AF
100
AcDbEntity
  8
0
  6
________________
 62
     7
370
     9
100
AcDbLine
 10
244.8999999999999
 20
267.9999999999999
 30
0.0
 11
245.900000000001
 21
267.9999999999999
 31
0.0
  0
LINE
  5
64E2
330
64AF
100
AcDbEntity
  8
0
  6
________________
 62
     7
370
     9
100
AcDbLine
 10
245.4499999997309
 20
262.5000000000055
 30
0.0
 11
245.449999999698
 21
263.1
 31
0.0
  0
CIRCLE
  5
64E3
330
64AF
100
AcDbEntity
  8
0
  6
________________
 62
     7
370
     9
100
AcDbCircle
 10
-249.4000000002875
 20
243.0000000000055
 30
0.0
 40
1.500000000000001
210
0.0
220
0.0
230
-1.0
  0
CIRCLE
  5
64E4
330
64AF
100
AcDbEntity
  8
0
  6
________________
 62
     7
370
     9
100
AcDbCircle
 10
-249.4000000003194
 20
243.0000000000055
 30
0.0
 40
1.366025403784443
210
0.0
220
0.0
230
-1.0
  0
LINE
  5
64E5
330
64AF
100
AcDbEntity
  8
0
  6
________________
 62
     7
370
     9
100
AcDbLine
 10
245.4999999999999
 20
262.5000000000055
 30
0.0
 11
240.8999999999999
 21
262.5000000000055
 31
0.0
  0
LINE
  5
64E6
330
64AF
100
AcDbEntity
  8
0
  6
________________
 62
   253
370
     9
100
AcDbLine
 10
240.8999999999999
 20
238.0000000000055
 30
0.0
 11
245.4999999999999
 21
238.0000000000055
 31
0.0
  0
LINE
  5
64E7
330
64AF
100
AcDbEntity
  8
0
  6
________________
 62
     7
370
     9
100
AcDbLine
 10
240.8999999999999
 20
238.0000000000055
 30
0.0
 11
240.8999999999999
 21
262.5000000000055
 31
0.0
  0
LINE
  5
64E8
330
64AF
100
AcDbEntity
  8
0
  6
________________
 62
     7
370
     9
100
AcDbLine
 10
245.4999999999999
 20
234.0000000000055
 30
0.0
 11
240.8999999999999
 21
234.0000000000055
 31
0.0
  0
LINE
  5
64E9
330
64AF
100
AcDbEntity
  8
0
  6
________________
 62
     7
370
     9
100
AcDbLine
 10
240.8999999999999
 20
234.0000000000055
 30
0.0
 11
240.8999999999999
 21
238.0000000000055
 31
0.0
  0
CIRCLE
  5
64EA
330
64AF
100
AcDbEntity
  8
0
  6
________________
 62
     7
370
     9
100
AcDbCircle
 10
-231.6000100002879
 20
243.0
 30
0.0
 40
1.500000000000001
210
0.0
220
0.0
230
-1.0
  0
CIRCLE
  5
64EB
330
64AF
100
AcDbEntity
  8
0
  6
________________
 62
     7
370
     9
100
AcDbCircle
 10
-231.6000100003199
 20
243.0
 30
0.0
 40
1.366025403784443
210
0.0
220
0.0
230
-1.0
  0
LINE
  5
64EC
330
64AF
100
AcDbEntity
  8
0
  6
________________
 62
   253
370
     9
100
AcDbLine
 10
235.4999999999998
 20
238.0
 30
0.0
 11
239.8999999999999
 21
238.0
 31
0.0
  0
LINE
  5
64ED
330
64AF
100
AcDbEntity
  8
0
  6
________________
 62
     7
370
     9
100
AcDbLine
 10
244.8999999999999
 20
264.9999999999999
 30
0.0
 11
244.8999999999999
 21
267.9999999999999
 31
0.0
  0
LINE
  5
64EE
330
64AF
100
AcDbEntity
  8
0
  6
________________
 62
     7
370
     9
100
AcDbLine
 10
244.8999999999999
 20
264.9999999999999
 30
0.0
 11
239.8999999999999
 21
264.9999999999999
 31
0.0
  0
LINE
  5
64EF
330
64AF
100
AcDbEntity
  8
0
  6
________________
 62
     7
370
     9
100
AcDbLine
 10
239.8999999999999
 20
238.0
 30
0.0
 11
239.8999999999999
 21
264.9999999999999
 31
0.0
  0
LINE
  5
64F0
330
64AF
100
AcDbEntity
  8
0
  6
________________
 62
     7
370
     9
100
AcDbLine
 10
235.0999999999999
 20
267.9999999999999
 30
0.0
 11
244.8999999999999
 21
267.9999999999999
 31
0.0
  0
LINE
  5
64F1
330
64AF
100
AcDbEntity
  8
0
  6
________________
 62
     7
370
     9
100
AcDbLine
 10
239.8999999999999
 20
234.0
 30
0.0
 11
239.8999999999999
 21
238.0
 31
0.0
  0
LINE
  5
64F2
330
64AF
100
AcDbEntity
  8
0
  6
________________
 62
     7
370
     9
100
AcDbLine
 10
235.4999999999998
 20
234.0
 30
0.0
 11
239.8999999999999
 21
234.0
 31
0.0
  0
LINE
  5
64F3
330
64AF
100
AcDbEntity
  8
0
  6
________________
 62
   253
370
     9
100
AcDbLine
 10
240.8999999999999
 20
262.2
 30
0.0
 11
239.8999999999999
 21
262.2
 31
0.0
  0
LINE
  5
64F4
330
64AF
100
AcDbEntity
  8
0
  6
________________
 62
     7
370
     9
100
AcDbLine
 10
244.8999999999999
 20
262.5000000000055
 30
0.0
 11
244.8999999999999
 21
264.9999999999999
 31
0.0
  0
LINE
  5
64F5
330
64AF
100
AcDbEntity
  8
0
  6
________________
 62
   253
370
     9
100
AcDbLine
 10
240.8999999999999
 20
243.1
 30
0.0
 11
239.8999999999999
 21
243.1
 31
0.0
  0
LINE
  5
64F6
330
64AF
100
AcDbEntity
  8
0
  6
________________
 62
     7
370
     9
100
AcDbLine
 10
240.8999999999999
 20
233.9999999999999
 30
0.0
 11
239.8999999999999
 21
233.9999999999999
 31
0.0
  0
LINE
  5
64F7
330
64AF
100
AcDbEntity
  8
0
  6
________________
 62
   253
370
     9
100
AcDbLine
 10
240.8999999999999
 20
258.9999999992107
 30
0.0
 11
239.8999999999999
 21
258.9999999992745
 31
0.0
  0
LINE
  5
64F8
330
64AF
100
AcDbEntity
  8
0
  6
________________
 62
   253
370
     9
100
AcDbLine
 10
239.8999999999999
 20
253.9999999992745
 30
0.0
 11
240.8999999999999
 21
253.9999999992107
 31
0.0
  0
LINE
  5
64F9
330
64AF
100
AcDbEntity
  8
0
  6
________________
 62
   253
370
     9
100
AcDbLine
 10
239.8999999999999
 20
235.9999999991969
 30
0.0
 11
240.8999999999999
 21
235.9999999992608
 31
0.0
  0
LINE
  5
64FA
330
64AF
100
AcDbEntity
  8
0
  6
________________
 62
   253
370
     9
100
AcDbLine
 10
240.8999999999998
 20
240.9999999992608
 30
0.0
 11
239.8999999999999
 21
240.9999999991969
 31
0.0
  0
LINE
  5
64FB
330
64AF
100
AcDbEntity
  8
0
  6
________________
 62
     7
370
     9
100
AcDbLine
 10
240.8999999999999
 20
259.4999999992107
 30
0.0
 11
239.8999999999999
 21
259.4999999992745
 31
0.0
  0
LINE
  5
64FC
330
64AF
100
AcDbEntity
  8
0
  6
________________
 62
     7
370
     9
100
AcDbLine
 10
239.8999999999999
 20
253.4999999992745
 30
0.0
 11
240.8999999999998
 21
253.4999999992107
 31
0.0
  0
LINE
  5
64FD
330
64AF
100
AcDbEntity
  8
0
  6
________________
 62
     7
370
     9
100
AcDbLine
 10
239.8999999999999
 20
235.4999999991969
 30
0.0
 11
240.8999999999999
 21
235.4999999992607
 31
0.0
  0
LINE
  5
64FE
330
64AF
100
AcDbEntity
  8
0
  6
________________
 62
     7
370
     9
100
AcDbLine
 10
240.8999999999998
 20
241.4999999992607
 30
0.0
 11
239.8999999999999
 21
241.4999999991969
 31
0.0
  0
LINE
  5
64FF
330
64AF
100
AcDbEntity
  8
0
  6
________________
 62
     7
370
     9
100
AcDbLine
 10
245.449999999698
 20
263.1
 30
0.0
 11
244.8999999999999
 21
263.0999999999698
 31
0.0
  0
LINE
  5
6500
330
64AF
100
AcDbEntity
  8
0
  6
________________
 62
     7
370
     9
100
AcDbLine
 10
245.4999999999999
 20
262.6
 30
0.0
 11
245.4499999999998
 21
262.6
 31
0.0
  0
ENDBLK
  5
6501
330
64AF
100
AcDbEntity
  8
0
100
AcDbBlockEnd
  0
BLOCK
  5
6504
330
6503
100
AcDbEntity
  8
0
100
AcDbBlockBegin
  2
D_FRAME_VIEW@403
 70
     0
 10
0.0
 20
0.0
 30
0.0
  3
D_FRAME_VIEW@403
  1

  0
LINE
  5
6505
330
6503
100
AcDbEntity
  8
0
  6
________________
 62
   253
370
     9
100
AcDbLine
 10
34.00000000000438
 20
219.4999999999982
 30
0.0
 11
182.5000000000044
 21
219.499999999998
 31
0.0
  0
LINE
  5
6506
330
6503
100
AcDbEntity
  8
0
  6
________________
 62
   253
370
     9
100
AcDbLine
 10
182.5000000000044
 20
218.999999999998
 30
0.0
 11
182.5000000000044
 21
219.499999999998
 31
0.0
  0
LINE
  5
6507
330
6503
100
AcDbEntity
  8
0
  6
________________
 62
     7
370
     9
100
AcDbLine
 10
182.5000000000044
 20
218.999999999998
 30
0.0
 11
34.00000000000441
 21
218.9999999999982
 31
0.0
  0
LINE
  5
6508
330
6503
100
AcDbEntity
  8
0
  6
________________
 62
   253
370
     9
100
AcDbLine
 10
34.00000000000438
 20
219.4999999999982
 30
0.0
 11
34.00000000000438
 21
218.9999999999982
 31
0.0
  0
LINE
  5
6509
330
6503
100
AcDbEntity
  8
0
  6
________________
 62
   253
370
     9
100
AcDbLine
 10
183.0000000000044
 20
219.499999999998
 30
0.0
 11
182.5000000000044
 21
219.499999999998
 31
0.0
  0
ARC
  5
650A
330
6503
100
AcDbEntity
  8
0
  6
________________
 62
     7
370
     9
100
AcDbCircle
 10
182.5000000000044
 20
219.499999999998
 30
0.0
 40
0.5000000000000004
100
AcDbArc
 50
270.0
 51
359.9999999999993
  0
LINE
  5
650B
330
6503
100
AcDbEntity
  8
0
  6
________________
 62
   253
370
     9
100
AcDbLine
 10
183.0000000000044
 20
267.499999999998
 30
0.0
 11
182.5000000000044
 21
267.499999999998
 31
0.0
  0
LINE
  5
650C
330
6503
100
AcDbEntity
  8
0
  6
________________
 62
   253
370
     9
100
AcDbLine
 10
182.5000000000044
 20
267.999999999998
 30
0.0
 11
182.5000000000044
 21
267.499999999998
 31
0.0
  0
ARC
  5
650D
330
6503
100
AcDbEntity
  8
0
  6
________________
 62
     7
370
     9
100
AcDbCircle
 10
182.5000000000044
 20
267.499999999998
 30
0.0
 40
0.5000000000000004
100
AcDbArc
 50
0.0
 51
90.0
  0
LINE
  5
650E
330
6503
100
AcDbEntity
  8
0
  6
________________
 62
   253
370
     9
100
AcDbLine
 10
182.5000000000044
 20
267.499999999998
 30
0.0
 11
34.00000000000447
 21
267.4999999999982
 31
0.0
  0
LINE
  5
650F
330
6503
100
AcDbEntity
  8
0
  6
________________
 62
   253
370
     9
100
AcDbLine
 10
34.00000000000444
 20
267.4999999999982
 30
0.0
 11
34.00000000000444
 21
267.9999999999982
 31
0.0
  0
LINE
  5
6510
330
6503
100
AcDbEntity
  8
0
  6
________________
 62
     7
370
     9
100
AcDbLine
 10
34.00000000000444
 20
267.9999999999982
 30
0.0
 11
182.5000000000044
 21
267.999999999998
 31
0.0
  0
LINE
  5
6511
330
6503
100
AcDbEntity
  8
0
  6
________________
 62
   253
370
     9
100
AcDbLine
 10
182.5000000000044
 20
219.499999999998
 30
0.0
 11
182.5000000000044
 21
267.499999999998
 31
0.0
  0
LINE
  5
6512
330
6503
100
AcDbEntity
  8
0
  6
________________
 62
   253
370
     9
100
AcDbLine
 10
34.00000000000444
 20
267.4999999999982
 30
0.0
 11
34.00000000000438
 21
219.4999999999982
 31
0.0
  0
LINE
  5
6513
330
6503
100
AcDbEntity
  8
0
  6
________________
 62
     7
370
     9
100
AcDbLine
 10
183.0000000000044
 20
267.499999999998
 30
0.0
 11
183.0000000000044
 21
219.499999999998
 31
0.0
  0
ARC
  5
6514
330
6503
100
AcDbEntity
  8
0
  6
________________
 62
     7
370
     9
100
AcDbCircle
 10
34.00000000000438
 20
219.4999999999982
 30
0.0
 40
0.5000000000000004
100
AcDbArc
 50
180.0
 51
270.0
  0
LINE
  5
6515
330
6503
100
AcDbEntity
  8
0
  6
________________
 62
   253
370
     9
100
AcDbLine
 10
34.00000000000438
 20
219.4999999999982
 30
0.0
 11
33.50000000000438
 21
219.4999999999982
 31
0.0
  0
LINE
  5
6516
330
6503
100
AcDbEntity
  8
0
  6
________________
 62
     7
370
     9
100
AcDbLine
 10
33.50000000000438
 20
219.4999999999982
 30
0.0
 11
33.50000000000444
 21
267.4999999999982
 31
0.0
  0
LINE
  5
6517
330
6503
100
AcDbEntity
  8
0
  6
________________
 62
   253
370
     9
100
AcDbLine
 10
34.00000000000444
 20
267.4999999999982
 30
0.0
 11
33.50000000000444
 21
267.4999999999982
 31
0.0
  0
ARC
  5
6518
330
6503
100
AcDbEntity
  8
0
  6
________________
 62
     7
370
     9
100
AcDbCircle
 10
34.00000000000444
 20
267.4999999999982
 30
0.0
 40
0.5000000000000004
100
AcDbArc
 50
90.0
 51
180.0
  0
LINE
  5
6519
330
6503
100
AcDbEntity
  8
0
  6
________________
 62
     7
370
     9
100
AcDbLine
 10
32.99999999998258
 20
244.5000000000037
 30
0.0
 11
32.99999999998261
 21
241.5000000000037
 31
0.0
  0
LINE
  5
651A
330
6503
100
AcDbEntity
  8
0
  6
________________
 62
     7
370
     9
100
AcDbLine
 10
32.49999999998258
 20
244.3660254037881
 30
0.0
 11
32.49999999998258
 21
241.6339745962192
 31
0.0
  0
LINE
  5
651B
330
6503
100
AcDbEntity
  8
0
  6
________________
 62
     7
370
     9
100
AcDbLine
 10
183.4999999999847
 20
241.7500000000036
 30
0.0
 11
183.4999999999847
 21
243.0000000000037
 31
0.0
  0
LINE
  5
651C
330
6503
100
AcDbEntity
  8
0
  6
________________
 62
     7
370
     9
100
AcDbLine
 10
183.4249999999847
 20
241.6000000000037
 30
0.0
 11
183.4249999999847
 21
243.0000000000037
 31
0.0
  0
LINE
  5
651D
330
6503
100
AcDbEntity
  8
0
  6
________________
 62
     7
370
     9
100
AcDbLine
 10
183.4999999999847
 20
243.0000000000037
 30
0.0
 11
183.4999999999847
 21
244.2500000000037
 31
0.0
  0
LINE
  5
651E
330
6503
100
AcDbEntity
  8
0
  6
________________
 62
     7
370
     9
100
AcDbLine
 10
183.4249999999847
 20
243.0000000000037
 30
0.0
 11
183.4249999999847
 21
244.4000000000037
 31
0.0
  0
LINE
  5
651F
330
6503
100
AcDbEntity
  8
0
  6
________________
 62
     7
370
     9
100
AcDbLine
 10
182.5000000000045
 20
267.9999999999981
 30
0.0
 11
183.0000000000047
 21
267.9999999999981
 31
0.0
  0
LINE
  5
6520
330
6503
100
AcDbEntity
  8
0
  6
________________
 62
     7
370
     9
100
AcDbLine
 10
183.0000000000047
 20
267.9999999999981
 30
0.0
 11
183.0000000000047
 21
267.499999999998
 31
0.0
  0
LINE
  5
6521
330
6503
100
AcDbEntity
  8
0
  6
________________
 62
     7
370
     9
100
AcDbLine
 10
32.99999999998258
 20
244.5000000000037
 30
0.0
 11
32.49999999998258
 21
244.3660254037881
 31
0.0
  0
LINE
  5
6522
330
6503
100
AcDbEntity
  8
0
  6
________________
 62
     7
370
     9
100
AcDbLine
 10
32.4999999999826
 20
241.6339745962192
 30
0.0
 11
32.9999999999826
 21
241.5000000000037
 31
0.0
  0
LINE
  5
6523
330
6503
100
AcDbEntity
  8
0
  6
________________
 62
     7
370
     9
100
AcDbLine
 10
33.50000000000441
 20
244.5000000000037
 30
0.0
 11
32.99999999998258
 21
244.5000000000037
 31
0.0
  0
LINE
  5
6524
330
6503
100
AcDbEntity
  8
0
  6
________________
 62
     7
370
     9
100
AcDbLine
 10
32.9999999999826
 20
241.5000000000037
 30
0.0
 11
33.50000000000441
 21
241.5000000000037
 31
0.0
  0
LINE
  5
6525
330
6503
100
AcDbEntity
  8
0
  6
________________
 62
     7
370
     9
100
AcDbLine
 10
183.4249999999847
 20
241.6000000000037
 30
0.0
 11
183.4999999999847
 21
241.7500000000036
 31
0.0
  0
LINE
  5
6526
330
6503
100
AcDbEntity
  8
0
  6
________________
 62
     7
370
     9
100
AcDbLine
 10
183.4999999999847
 20
244.2500000000037
 30
0.0
 11
183.4249999999847
 21
244.4000000000037
 31
0.0
  0
LINE
  5
6527
330
6503
100
AcDbEntity
  8
0
  6
________________
 62
     7
370
     9
100
AcDbLine
 10
183.0000000000047
 20
241.6000000000037
 30
0.0
 11
183.4249999999847
 21
241.6000000000037
 31
0.0
  0
LINE
  5
6528
330
6503
100
AcDbEntity
  8
0
  6
________________
 62
     7
370
     9
100
AcDbLine
 10
183.4249999999847
 20
244.4000000000037
 30
0.0
 11
183.0000000000047
 21
244.4000000000037
 31
0.0
  0
ENDBLK
  5
6529
330
6503
100
AcDbEntity
  8
0
100
AcDbBlockEnd
  0
ENDSEC
  0
SECTION
  2
ENTITIES
  0
TEXT
  5
61B5
330
A
100
AcDbEntity
  8
0
  6
Continuous
 62
     7
100
AcDbText
 10
104.5746
 20
13.45
 30
0.0
 40
10.0
  1
1020
100
AcDbText
  0
INSERT
  5
640B
330
A
100
AcDbEntity
  8
0
  6
________________
 62
     7
370
    20
100
AcDbBlockReference
  2
D_FRAME_VIEW@400
 10
-125.9999999999273
 20
-170.4500000000002
 30
0.0
  0
INSERT
  5
64AE
330
A
100
AcDbEntity
  8
0
  6
________________
 62
     7
370
    20
100
AcDbBlockReference
  2
D_FRAME_VIEW@500
 10
-125.9999999999273
 20
-170.4500000000002
 30
0.0
  0
INSERT
  5
6502
330
A
100
AcDbEntity
  8
0
  6
________________
 62
     7
370
    20
100
AcDbBlockReference
  2
D_FRAME_VIEW@403
 10
-125.9999999999273
 20
-170.4500000000002
 30
0.0
  0
LINE
  5
652A
330
A
100
AcDbEntity
  8
0
  6
CENTER
 62
     1
100
AcDbLine
 10
-10.99999999999997
 20
0.0
 30
0.0
 11
11.0
 21
0.0
 31
0.0
  0
LINE
  5
652C
330
A
100
AcDbEntity
  8
0
  6
CENTER
 62
     1
100
AcDbLine
 10
0.0
 20
-11.0
 30
0.0
 11
0.0
 21
10.99999999999997
 31
0.0
  0
LINE
  5
652E
330
A
100
AcDbEntity
  8
0
  6
CENTER
 62
     1
100
AcDbLine
 10
57.00000000007709
 20
61.04999999999801
 30
0.0
 11
-65.9999999999229
 21
61.04999999999801
 31
0.0
  0
LINE
  5
652F
330
A
100
AcDbEntity
  8
0
  6
CENTER
 62
     1
100
AcDbLine
 10
-74.9999999999229
 20
70.04999999999802
 30
0.0
 11
-74.9999999999229
 21
97.04999999999801
 31
0.0
  0
ARC
  5
6532
330
A
100
AcDbEntity
  8
0
  6
CENTER
 62
     1
100
AcDbCircle
 10
-65.9999999999229
 20
70.04999999999802
 30
0.0
 40
9.0
100
AcDbArc
 50
180.0
 51
270.0
  0
ENDSEC
  0
SECTION
  2
OBJECTS
  0
DICTIONARY
  5
19
330
0
100
AcDbDictionary
281
     1
  3
ACAD_GROUP
350
1A
  3
ACAD_IMAGE_VARS
350
63A6
  3
ACAD_LAYOUT
350
63B2
  3
ACAD_MLINESTYLE
350
1B
  3
ACAD_PLOTSETTINGS
350
63B7
  3
ACAD_PLOTSTYLENAME
350
63B8
  3
ACAD_SCALELIST
350
3179
  3
ACAD_WIPEOUT_VARS
350
23
  3
ACDB_RECOMPOSE_DATA
350
630A
  3
ACDBVARIABLEDICTIONARY
350
630B
  3
APPDATA
350
63A5
  3
ASE_INDEX_DICTIONARY
350
5E44
  3
DWGPROPS
350
6534
  0
DICTIONARY
  5
5E41
330
14
100
AcDbDictionary
280
     1
281
     1
  3
ADSK_XREC_LAYER_RECONCILED
360
5E42
  0
DICTIONARY
  5
31A7
330
A
100
AcDbDictionary
280
     1
281
     1
  3
ACAD_SORTENTS
360
31A8
  0
DICTIONARY
  5
1A
102
{ACAD_REACTORS
330
19
102
}
330
19
100
AcDbDictionary
281
     1
  0
RASTERVARIABLES
  5
63A6
102
{ACAD_REACTORS
330
19
102
}
330
19
100
AcDbRasterVariables
 90
        0
 70
     1
 71
     1
 72
     0
  0
DICTIONARY
  5
63B2
102
{ACAD_REACTORS
330
19
102
}
330
19
100
AcDbDictionary
281
     1
  3
Model
350
63B3
  3
Sheet1
350
63B4
  0
DICTIONARY
  5
1B
102
{ACAD_REACTORS
330
19
102
}
330
19
100
AcDbDictionary
281
     1
  3
STANDARD
350
1C
  0
DICTIONARY
  5
63B7
102
{ACAD_REACTORS
330
19
102
}
330
19
100
AcDbDictionary
281
     1
  0
ACDBDICTIONARYWDFLT
  5
63B8
102
{ACAD_REACTORS
330
19
102
}
330
19
100
AcDbDictionary
281
     1
  3
Normal
350
63B9
100
AcDbDictionaryWithDefault
340
63B9
  0
DICTIONARY
  5
3179
102
{ACAD_REACTORS
330
19
102
}
330
19
100
AcDbDictionary
281
     1
  0
WIPEOUTVARIABLES
  5
23
330
19
100
AcDbWipeoutVariables
 70
     1
  0
XRECORD
  5
630A
102
{ACAD_REACTORS
330
19
102
}
330
19
100
AcDbXrecord
280
     1
 90
        1
330
0
  0
DICTIONARY
  5
630B
102
{ACAD_REACTORS
330
19
102
}
330
19
100
AcDbDictionary
281
     1
  3
DIMASSOC
350
6318
  3
INDEXCTL
350
6317
  3
SORTENTS
350
6316
  0
DICTIONARY
  5
63A5
102
{ACAD_REACTORS
330
19
102
}
330
19
100
AcDbDictionary
281
     1
  0
DICTIONARY
  5
5E44
102
{ACAD_REACTORS
330
19
102
}
330
19
100
AcDbDictionary
281
     1
  3
ASEBLOCKHIERARCHYINDEXRECORD
350
5E46
1001
DCO15
1040
1685075681.336
  0
XRECORD
  5
6534
102
{ACAD_REACTORS
330
19
102
}
330
19
100
AcDbXrecord
280
     1
  1
DWGPROPS COOKIE
  2

  3

  4

  6

  7

  8
renzo.ceresoli
  9

300
=
301
=
302
=
303
=
304
=
305
=
306
=
307
=
308
=
309
=
 40
0.0
 41
2455303.644583322
 42
2455306.337819896
  1

 90
        0
  0
XRECORD
  5
5E42
102
{ACAD_REACTORS
330
5E41
102
}
330
5E41
100
AcDbXrecord
280
     1
290
     1
  0
SORTENTSTABLE
  5
31A8
102
{ACAD_REACTORS
330
31A7
102
}
330
31A7
100
AcDbSortentsTable
330
A
331
0
  5
3F1D
  0
LAYOUT
  5
63B3
102
{ACAD_REACTORS
330
63B2
102
}
330
63B2
100
AcDbPlotSettings
  1

  2
none_device
  4

  6

 40
0.0
 41
0.0
 42
0.0
 43
0.0
 44
0.0
 45
0.0
 46
0.0
 47
0.0
 48
0.0
 49
0.0
140
0.0
141
0.0
142
1.0
143
1.0
 70
   688
 72
     0
 73
     0
 74
     5
  7

 75
    16
147
1.0
148
0.0
149
0.0
100
AcDbLayout
  1
Model
 70
     1
 71
     0
 10
0.0
 20
0.0
 11
0.0
 21
0.0
 12
0.0
 22
0.0
 32
0.0
 14
0.0
 24
0.0
 34
0.0
 15
0.0
 25
0.0
 35
0.0
146
0.0
 13
0.0
 23
0.0
 33
0.0
 16
1.0
 26
0.0
 36
0.0
 17
0.0
 27
1.0
 37
0.0
 76
     0
330
A
331
15
  0
LAYOUT
  5
63B4
102
{ACAD_REACTORS
330
63B2
102
}
330
63B2
100
AcDbPlotSettings
  1

  2
none_device
  4

  6

 40
0.0
 41
0.0
 42
0.0
 43
0.0
 44
0.0
 45
0.0
 46
0.0
 47
0.0
 48
0.0
 49
0.0
140
0.0
141
0.0
142
1.0
143
1.0
 70
   688
 72
     0
 73
     0
 74
     5
  7

 75
    16
147
1.0
148
0.0
149
0.0
100
AcDbLayout
  1
Sheet1
 70
     1
 71
     1
 10
0.0
 20
0.0
 11
0.0
 21
0.0
 12
0.0
 22
0.0
 32
0.0
 14
0.0
 24
0.0
 34
0.0
 15
0.0
 25
0.0
 35
0.0
146
0.0
 13
0.0
 23
0.0
 33
0.0
 16
1.0
 26
0.0
 36
0.0
 17
0.0
 27
1.0
 37
0.0
 76
     0
330
B
  0
MLINESTYLE
  5
1C
102
{ACAD_REACTORS
330
1B
102
}
330
1B
100
AcDbMlineStyle
  2
STANDARD
 70
     0
  3

 62
     0
 51
90.0
 52
90.0
 71
     2
 49
0.5
 62
   256
  6
BYLAYER
 49
-0.5
 62
   256
  6
BYLAYER
  0
ACDBPLACEHOLDER
  5
63B9
102
{ACAD_REACTORS
330
63B8
102
}
330
63B8
  0
DICTIONARYVAR
  5
6318
102
{ACAD_REACTORS
330
630B
102
}
330
630B
100
DictionaryVariables
280
     0
  1
1
  0
DICTIONARYVAR
  5
6317
102
{ACAD_REACTORS
330
630B
102
}
330
630B
100
DictionaryVariables
280
     0
  1
0
  0
DICTIONARYVAR
  5
6316
102
{ACAD_REACTORS
330
630B
102
}
330
630B
100
DictionaryVariables
280
     0
  1
127
  0
XRECORD
  5
5E46
102
{ACAD_REACTORS
330
5E44
102
}
330
5E44
100
AcDbXrecord
280
     1
  0
ENDSEC
  0
EOF
