  0
SECTION
  2
HEADER
  9
$ACADVER
  1
AC1015
  9
$ACADMAINTVER
 70
     6
  9
$DWGCODEPAGE
  3
ANSI_1252
  9
$INSBASE
 10
0.0
 20
0.0
 30
0.0
  9
$EXTMIN
 10
7296.288402844299
 20
847.3919287757105
 30
0.0
  9
$EXTMAX
 10
7532.800936840979
 20
979.6258184009811
 30
0.0
  9
$LIMMIN
 10
0.0
 20
0.0
  9
$LIMMAX
 10
210.0
 20
297.0
  9
$ORTHOMODE
 70
     1
  9
$REGENMODE
 70
     1
  9
$FILLMODE
 70
     1
  9
$QTEXTMODE
 70
     0
  9
$MIRRTEXT
 70
     1
  9
$LTSCALE
 40
1.5
  9
$ATTMODE
 70
     1
  9
$TEXTSIZE
 40
2.5
  9
$TRACEWID
 40
1.0
  9
$TEXTSTYLE
  7
century gothic
  9
$CLAYER
  8
0
  9
$CELTYPE
  6
Continuous
  9
$CECOLOR
 62
     0
  9
$CELTSCALE
 40
1.0
  9
$DISPSILH
 70
     0
  9
$DIMSCALE
 40
1.0
  9
$DIMASZ
 40
5.75
  9
$DIMEXO
 40
1.0
  9
$DIMDLI
 40
3.75
  9
$DIMRND
 40
0.0
  9
$DIMDLE
 40
0.0
  9
$DIMEXE
 40
1.0
  9
$DIMTP
 40
0.0
  9
$DIMTM
 40
0.0
  9
$DIMTXT
 40
6.25
  9
$DIMCEN
 40
2.5
  9
$DIMTSZ
 40
0.0
  9
$DIMTOL
 70
     0
  9
$DIMLIM
 70
     0
  9
$DIMTIH
 70
     0
  9
$DIMTOH
 70
     0
  9
$DIMSE1
 70
     0
  9
$DIMSE2
 70
     0
  9
$DIMTAD
 70
     1
  9
$DIMZIN
 70
     8
  9
$DIMBLK
  1

  9
$DIMASO
 70
     1
  9
$DIMSHO
 70
     1
  9
$DIMPOST
  1

  9
$DIMAPOST
  1

  9
$DIMALT
 70
     0
  9
$DIMALTD
 70
     3
  9
$DIMALTF
 40
0.0393700787
  9
$DIMLFAC
 40
1.0
  9
$DIMTOFL
 70
     1
  9
$DIMTVP
 40
0.0
  9
$DIMTIX
 70
     0
  9
$DIMSOXD
 70
     0
  9
$DIMSAH
 70
     0
  9
$DIMBLK1
  1

  9
$DIMBLK2
  1

  9
$DIMSTYLE
  2
ISO-25
  9
$DIMCLRD
 70
     0
  9
$DIMCLRE
 70
     0
  9
$DIMCLRT
 70
   256
  9
$DIMTFAC
 40
1.0
  9
$DIMGAP
 40
2.5
  9
$DIMJUST
 70
     0
  9
$DIMSD1
 70
     0
  9
$DIMSD2
 70
     0
  9
$DIMTOLJ
 70
     0
  9
$DIMTZIN
 70
     8
  9
$DIMALTZ
 70
     0
  9
$DIMALTTZ
 70
     0
  9
$DIMUPT
 70
     0
  9
$DIMDEC
 70
     2
  9
$DIMTDEC
 70
     2
  9
$DIMALTU
 70
     2
  9
$DIMALTTD
 70
     3
  9
$DIMTXSTY
  7
Standard
  9
$DIMAUNIT
 70
     0
  9
$DIMADEC
 70
     2
  9
$DIMALTRND
 40
0.0
  9
$DIMAZIN
 70
     0
  9
$DIMDSEP
 70
    44
  9
$DIMATFIT
 70
     3
  9
$DIMFRAC
 70
     0
  9
$DIMLDRBLK
  1

  9
$DIMLUNIT
 70
     2
  9
$DIMLWD
 70
    -2
  9
$DIMLWE
 70
    -2
  9
$DIMTMOVE
 70
     0
  9
$LUNITS
 70
     2
  9
$LUPREC
 70
     2
  9
$SKETCHINC
 40
1.0
  9
$FILLETRAD
 40
10.0
  9
$AUNITS
 70
     0
  9
$AUPREC
 70
     2
  9
$MENU
  1
.
  9
$ELEVATION
 40
0.0
  9
$PELEVATION
 40
0.0
  9
$THICKNESS
 40
0.0
  9
$LIMCHECK
 70
     0
  9
$CHAMFERA
 40
0.0
  9
$CHAMFERB
 40
0.0
  9
$CHAMFERC
 40
20.0
  9
$CHAMFERD
 40
0.0
  9
$SKPOLY
 70
     0
  9
$TDCREATE
 40
2456227.372610613
  9
$TDUCREATE
 40
2456227.330943947
  9
$TDUPDATE
 40
2457417.50674147
  9
$TDUUPDATE
 40
2457417.465074803
  9
$TDINDWG
 40
6.0126539005
  9
$TDUSRTIMER
 40
2457417.464906505
  9
$USRTIMER
 70
     1
  9
$ANGBASE
 50
0.0
  9
$ANGDIR
 70
     0
  9
$PDMODE
 70
     0
  9
$PDSIZE
 40
-1.0
  9
$PLINEWID
 40
0.0
  9
$SPLFRAME
 70
     0
  9
$SPLINETYPE
 70
     6
  9
$SPLINESEGS
 70
     8
  9
$HANDSEED
  5
6B7FA
  9
$SURFTAB1
 70
     6
  9
$SURFTAB2
 70
     6
  9
$SURFTYPE
 70
     6
  9
$SURFU
 70
     6
  9
$SURFV
 70
     6
  9
$UCSBASE
  2

  9
$UCSNAME
  2

  9
$UCSORG
 10
0.0
 20
0.0
 30
0.0
  9
$UCSXDIR
 10
1.0
 20
0.0
 30
0.0
  9
$UCSYDIR
 10
0.0
 20
1.0
 30
0.0
  9
$UCSORTHOREF
  2

  9
$UCSORTHOVIEW
 70
     0
  9
$UCSORGTOP
 10
0.0
 20
0.0
 30
0.0
  9
$UCSORGBOTTOM
 10
0.0
 20
0.0
 30
0.0
  9
$UCSORGLEFT
 10
0.0
 20
0.0
 30
0.0
  9
$UCSORGRIGHT
 10
0.0
 20
0.0
 30
0.0
  9
$UCSORGFRONT
 10
0.0
 20
0.0
 30
0.0
  9
$UCSORGBACK
 10
0.0
 20
0.0
 30
0.0
  9
$PUCSBASE
  2

  9
$PUCSNAME
  2

  9
$PUCSORG
 10
0.0
 20
0.0
 30
0.0
  9
$PUCSXDIR
 10
1.0
 20
0.0
 30
0.0
  9
$PUCSYDIR
 10
0.0
 20
1.0
 30
0.0
  9
$PUCSORTHOREF
  2

  9
$PUCSORTHOVIEW
 70
     0
  9
$PUCSORGTOP
 10
0.0
 20
0.0
 30
0.0
  9
$PUCSORGBOTTOM
 10
0.0
 20
0.0
 30
0.0
  9
$PUCSORGLEFT
 10
0.0
 20
0.0
 30
0.0
  9
$PUCSORGRIGHT
 10
0.0
 20
0.0
 30
0.0
  9
$PUCSORGFRONT
 10
0.0
 20
0.0
 30
0.0
  9
$PUCSORGBACK
 10
0.0
 20
0.0
 30
0.0
  9
$USERI1
 70
     0
  9
$USERI2
 70
     0
  9
$USERI3
 70
     0
  9
$USERI4
 70
     0
  9
$USERI5
 70
     0
  9
$USERR1
 40
0.0
  9
$USERR2
 40
0.0
  9
$USERR3
 40
0.0
  9
$USERR4
 40
0.0
  9
$USERR5
 40
0.0
  9
$WORLDVIEW
 70
     1
  9
$SHADEDGE
 70
     3
  9
$SHADEDIF
 70
    70
  9
$TILEMODE
 70
     1
  9
$MAXACTVP
 70
    64
  9
$PINSBASE
 10
0.0
 20
0.0
 30
0.0
  9
$PLIMCHECK
 70
     0
  9
$PEXTMIN
 10
1.000000000000000E+20
 20
1.000000000000000E+20
 30
1.000000000000000E+20
  9
$PEXTMAX
 10
-1.000000000000000E+20
 20
-1.000000000000000E+20
 30
-1.000000000000000E+20
  9
$PLIMMIN
 10
-7.5
 20
-20.0
  9
$PLIMMAX
 10
412.5
 20
277.0
  9
$UNITMODE
 70
     0
  9
$VISRETAIN
 70
     1
  9
$PLINEGEN
 70
     0
  9
$PSLTSCALE
 70
     1
  9
$TREEDEPTH
 70
  3020
  9
$CMLSTYLE
  2
Standard
  9
$CMLJUST
 70
     0
  9
$CMLSCALE
 40
20.0
  9
$PROXYGRAPHICS
 70
     1
  9
$MEASUREMENT
 70
     1
  9
$CELWEIGHT
370
     0
  9
$ENDCAPS
280
     0
  9
$JOINSTYLE
280
     0
  9
$LWDISPLAY
290
     1
  9
$INSUNITS
 70
     4
  9
$HYPERLINKBASE
  1

  9
$STYLESHEET
  1

  9
$XEDIT
290
     1
  9
$CEPSNTYPE
380
     0
  9
$PSTYLEMODE
290
     1
  9
$FINGERPRINTGUID
  2
{A6F0863B-3CE9-4F3D-B6F9-EEF6864D8762}
  9
$VERSIONGUID
  2
{FAEB1C32-E019-11D5-929B-00C0DF256EC4}
  9
$EXTNAMES
290
     1
  9
$PSVPSCALE
 40
0.0
  9
$OLESTARTUP
290
     0
  0
ENDSEC
  0
SECTION
  2
CLASSES
  0
CLASS
  1
ACDBDICTIONARYWDFLT
  2
AcDbDictionaryWithDefault
  3
ObjectDBX Classes
 90
        0
280
     0
281
     0
  0
CLASS
  1
VISUALSTYLE
  2
AcDbVisualStyle
  3
ObjectDBX Classes
 90
     4095
280
     0
281
     0
  0
CLASS
  1
MATERIAL
  2
AcDbMaterial
  3
ObjectDBX Classes
 90
     1153
280
     0
281
     0
  0
CLASS
  1
ACDBPLACEHOLDER
  2
AcDbPlaceHolder
  3
ObjectDBX Classes
 90
        0
280
     0
281
     0
  0
CLASS
  1
LAYOUT
  2
AcDbLayout
  3
ObjectDBX Classes
 90
        0
280
     0
281
     0
  0
CLASS
  1
SCALE
  2
AcDbScale
  3
ObjectDBX Classes
 90
     1153
280
     0
281
     0
  0
CLASS
  1
TABLESTYLE
  2
AcDbTableStyle
  3
ObjectDBX Classes
 90
     4095
280
     0
281
     0
  0
CLASS
  1
RASTERVARIABLES
  2
AcDbRasterVariables
  3
ISM
 90
        0
280
     0
281
     0
  0
CLASS
  1
DICTIONARYVAR
  2
AcDbDictionaryVar
  3
ObjectDBX Classes
 90
        0
280
     0
281
     0
  0
CLASS
  1
CELLSTYLEMAP
  2
AcDbCellStyleMap
  3
ObjectDBX Classes
 90
     1152
280
     0
281
     0
  0
CLASS
  1
DIMASSOC
  2
AcDbDimAssoc
  3
"AcDbDimAssoc|Product Desc:     AcDim ARX App For Dimension|Company:          Autodesk, Inc.|WEB Address:      www.autodesk.com"
 90
        0
280
     0
281
     0
  0
CLASS
  1
SORTENTSTABLE
  2
AcDbSortentsTable
  3
ObjectDBX Classes
 90
        0
280
     0
281
     0
  0
CLASS
  1
SUN
  2
AcDbSun
  3
SCENEOE
 90
     1153
280
     0
281
     0
  0
CLASS
  1
MLEADERSTYLE
  2
AcDbMLeaderStyle
  3
ACDB_MLEADERSTYLE_CLASS
 90
     4095
280
     0
281
     0
  0
ENDSEC
  0
SECTION
  2
TABLES
  0
TABLE
  2
VPORT
  5
8
330
0
100
AcDbSymbolTable
 70
     1
  0
VPORT
  5
29
330
8
100
AcDbSymbolTableRecord
100
AcDbViewportTableRecord
  2
*Active
 70
     0
 10
0.0
 20
0.0
 11
1.0
 21
1.0
 12
7414.544669842639
 22
913.5088735883458
 13
0.0
 23
0.0
 14
10.0
 24
10.0
 15
10.0
 25
10.0
 16
0.0
 26
0.0
 36
1.0
 17
0.0
 27
0.0
 37
0.0
 40
134.8785674177759
 41
2.026760563380282
 42
50.0
 43
0.0
 44
0.0
 50
0.0
 51
0.0
 71
    16
 72
  2000
 73
     1
 74
     3
 75
     0
 76
     0
 77
     0
 78
     0
281
     0
 65
     1
110
0.0
120
0.0
130
0.0
111
1.0
121
0.0
131
0.0
112
0.0
122
1.0
132
0.0
 79
     0
146
0.0
  0
ENDTAB
  0
TABLE
  2
LTYPE
  5
5
330
0
100
AcDbSymbolTable
 70
    12
  0
LTYPE
  5
14
330
5
100
AcDbSymbolTableRecord
100
AcDbLinetypeTableRecord
  2
ByBlock
 70
     0
  3

 72
    65
 73
     0
 40
0.0
  0
LTYPE
  5
15
330
5
100
AcDbSymbolTableRecord
100
AcDbLinetypeTableRecord
  2
ByLayer
 70
     0
  3

 72
    65
 73
     0
 40
0.0
  0
LTYPE
  5
16
330
5
100
AcDbSymbolTableRecord
100
AcDbLinetypeTableRecord
  2
Continuous
 70
     0
  3
Solid line
 72
    65
 73
     0
 40
0.0
  0
LTYPE
  5
3F
330
5
100
AcDbSymbolTableRecord
100
AcDbLinetypeTableRecord
  2
HIDDEN
 70
     0
  3
Hidden __ __ __ __ __ __ __ __ __ __ __ __ __ __
 72
    65
 73
     2
 40
1.905
 49
1.27
 74
     0
 49
-0.635
 74
     0
  0
LTYPE
  5
40
330
5
100
AcDbSymbolTableRecord
100
AcDbLinetypeTableRecord
  2
PHANTOM
 70
     0
  3
Phantom ______  __  __  ______  __  __  ______
 72
    65
 73
     6
 40
12.7
 49
6.35
 74
     0
 49
-1.27
 74
     0
 49
1.27
 74
     0
 49
-1.27
 74
     0
 49
1.27
 74
     0
 49
-1.27
 74
     0
  0
LTYPE
  5
41
330
5
100
AcDbSymbolTableRecord
100
AcDbLinetypeTableRecord
  2
CENTER
 70
     0
  3
Center ____ _ ____ _ ____ _ ____ _ ____ _ ____
 72
    65
 73
     4
 40
10.16
 49
6.35
 74
     0
 49
-1.27
 74
     0
 49
1.27
 74
     0
 49
-1.27
 74
     0
  0
LTYPE
  5
42
330
5
100
AcDbSymbolTableRecord
100
AcDbLinetypeTableRecord
  2
CENTERX2
 70
     0
  3
Center (2x) ________  __  ________  __  _____
 72
    65
 73
     4
 40
20.32
 49
12.7
 74
     0
 49
-2.54
 74
     0
 49
2.54
 74
     0
 49
-2.54
 74
     0
  0
LTYPE
  5
43
330
5
100
AcDbSymbolTableRecord
100
AcDbLinetypeTableRecord
  2
DOT2
 70
     0
  3
Dot (.5x) ........................................
 72
    65
 73
     2
 40
0.635
 49
0.0
 74
     0
 49
-0.635
 74
     0
  0
LTYPE
  5
20AE
330
5
100
AcDbSymbolTableRecord
100
AcDbLinetypeTableRecord
  2
DOT
 70
     0
  3
...............................................
 72
    65
 73
     2
 40
0.5
 49
0.25
 74
     0
 49
-0.25
 74
     0
  0
LTYPE
  5
2993
330
5
100
AcDbSymbolTableRecord
100
AcDbLinetypeTableRecord
  2
CENTRO2
 70
     0
  3
Centro (.5x) ___ _ ___ _ ___ _ ___ _ ___ _ ___
 72
    65
 73
     4
 40
28.575
 49
19.05
 74
     0
 49
-3.175
 74
     0
 49
3.175
 74
     0
 49
-3.175
 74
     0
  0
LTYPE
  5
55F13
330
5
100
AcDbSymbolTableRecord
100
AcDbLinetypeTableRecord
  2
TRATTEGGIATA2
 70
     0
  3
Tratteggiata (.5x) _ _ _ _ _ _ _ _ _ _ _ _ _ _ _ _ _
 72
    65
 73
     2
 40
9.524999999999999
 49
6.35
 74
     0
 49
-3.175
 74
     0
  0
LTYPE
  5
60A8D
330
5
100
AcDbSymbolTableRecord
100
AcDbLinetypeTableRecord
  2
CENTER2
 70
     0
  3
Center (.5x) ___ _ ___ _ ___ _ ___ _ ___ _ ___
 72
    65
 73
     4
 40
28.575
 49
19.05
 74
     0
 49
-3.175
 74
     0
 49
3.175
 74
     0
 49
-3.175
 74
     0
  0
LTYPE
  5
653E0
330
5
100
AcDbSymbolTableRecord
100
AcDbLinetypeTableRecord
  2
JIS_09_08
 70
     0
  3
2SASEN8 __ _ _ __ _ _ __ _ _ __ _ _ __ _ _
 72
    65
 73
     6
 40
10.75
 49
8.0
 74
     0
 49
-0.55
 74
     0
 49
0.55
 74
     0
 49
-0.55
 74
     0
 49
0.55
 74
     0
 49
-0.55
 74
     0
  0
LTYPE
  5
686E6
330
5
100
AcDbSymbolTableRecord
100
AcDbLinetypeTableRecord
  2
CENTER1
 70
     0
  3
JIS \U+4E2D\U+5FC3\U+7DDA_ ____ _ ____ _ ____ _ ____ _ ____
 72
    65
 73
     4
 40
33.0
 49
30.0
 74
     0
 49
-1.0
 74
     0
 49
1.0
 74
     0
 49
-1.0
 74
     0
  0
ENDTAB
  0
TABLE
  2
LAYER
  5
2
330
0
100
AcDbSymbolTable
 70
     5
  0
LAYER
  5
10
330
2
100
AcDbSymbolTableRecord
100
AcDbLayerTableRecord
  2
0
 70
     0
 62
     7
  6
Continuous
370
    -3
390
F
  0
LAYER
  5
44
330
2
100
AcDbSymbolTableRecord
100
AcDbLayerTableRecord
  2
FORMAT
 70
     0
 62
     7
  6
Continuous
370
    -3
390
F
  0
LAYER
  5
158
330
2
100
AcDbSymbolTableRecord
100
AcDbLayerTableRecord
  2
Defpoints
 70
     0
 62
     7
  6
Continuous
290
     0
370
    -3
390
F
  0
LAYER
  5
2991
330
2
100
AcDbSymbolTableRecord
100
AcDbLayerTableRecord
  2
assi
 70
     0
 62
     1
  6
CENTRO2
370
    -3
390
F
  0
LAYER
  5
69C5E
330
2
100
AcDbSymbolTableRecord
100
AcDbLayerTableRecord
  2
QUOTE
 70
     0
 62
     3
  6
Continuous
370
    -3
390
F
  0
ENDTAB
  0
TABLE
  2
STYLE
  5
3
330
0
100
AcDbSymbolTable
 70
    10
  0
STYLE
  5
11
330
3
100
AcDbSymbolTableRecord
100
AcDbTextStyleTableRecord
  2
Standard
 70
     0
 40
0.0
 41
0.9
 50
0.0
 71
     0
 42
2.8
  3
GOTHIC.TTF
  4

1001
ACAD
1000
Century Gothic
1071
        0
  0
STYLE
  5
A70
330
3
100
AcDbSymbolTableRecord
100
AcDbTextStyleTableRecord
  2
SLDTEXTSTYLE0
 70
     0
 40
0.0
 41
0.75
 50
0.0
 71
     0
 42
0.2
  3
TXT
  4

  0
STYLE
  5
16B1
330
3
100
AcDbSymbolTableRecord
100
AcDbTextStyleTableRecord
  2
SLDTEXTSTYLE4
 70
     0
 40
0.0
 41
0.75
 50
0.0
 71
     0
 42
0.2
  3
TXT
  4

  0
STYLE
  5
DDCD
330
3
100
AcDbSymbolTableRecord
100
AcDbTextStyleTableRecord
  2
SLDTEXTSTYLE1
 70
     0
 40
0.0
 41
0.609090909090909
 50
0.0
 71
     0
 42
2.8
  3
TXT
  4

  0
STYLE
  5
DDCE
330
3
100
AcDbSymbolTableRecord
100
AcDbTextStyleTableRecord
  2
SLDTEXTSTYLE2
 70
     0
 40
0.0
 41
0.7
 50
0.0
 71
     0
 42
2.8
  3
TXT
  4

  0
STYLE
  5
DDCF
330
3
100
AcDbSymbolTableRecord
100
AcDbTextStyleTableRecord
  2
SLDTEXTSTYLE3
 70
     0
 40
0.0
 41
0.57
 50
0.0
 71
     0
 42
2.8
  3
TXT
  4

  0
STYLE
  5
3D5CF
330
3
100
AcDbSymbolTableRecord
100
AcDbTextStyleTableRecord
  2
century gothic
 70
     0
 40
0.0
 41
0.9
 50
0.0
 71
     0
 42
2.5
  3
GOTHIC.TTF
  4

1001
ACAD
1000
Century Gothic
1071
        0
  0
STYLE
  5
48066
330
3
100
AcDbSymbolTableRecord
100
AcDbTextStyleTableRecord
  2
stile3
 70
     0
 40
2.0
 41
1.0
 50
0.0
 71
     0
 42
2.5
  3
romans.shx
  4

  0
STYLE
  5
60A8F
330
3
100
AcDbSymbolTableRecord
100
AcDbTextStyleTableRecord
  2
CHINA
 70
     0
 40
0.0
 41
1.0
 50
0.0
 71
     0
 42
2.5
  3
c:/rubon/c2
  4
c:/rubon/china
  0
STYLE
  5
67F48
330
3
100
AcDbSymbolTableRecord
100
AcDbTextStyleTableRecord
  2
EUROROMANOBLIQUE
 70
     0
 40
0.0
 41
1.0
 50
0.0
 71
     0
 42
2.5
  3
euro____.pfb
  4

  0
ENDTAB
  0
TABLE
  2
VIEW
  5
6
330
0
100
AcDbSymbolTable
 70
     0
  0
ENDTAB
  0
TABLE
  2
UCS
  5
7
330
0
100
AcDbSymbolTable
 70
     0
  0
ENDTAB
  0
TABLE
  2
APPID
  5
9
330
0
100
AcDbSymbolTable
 70
     4
  0
APPID
  5
12
330
9
100
AcDbSymbolTableRecord
100
AcDbRegAppTableRecord
  2
ACAD
 70
     0
  0
APPID
  5
673
330
9
100
AcDbSymbolTableRecord
100
AcDbRegAppTableRecord
  2
ACAD_DSTYLE_DIMRADIAL_EXTENSION
 70
     0
  0
APPID
  5
C7A7
330
9
100
AcDbSymbolTableRecord
100
AcDbRegAppTableRecord
  2
PE_DIMMEASUREMENT
 70
     0
  0
APPID
  5
CEA3
330
9
100
AcDbSymbolTableRecord
100
AcDbRegAppTableRecord
  2
ACAD_PSEXT
 70
     0
  0
ENDTAB
  0
TABLE
  2
DIMSTYLE
  5
A
330
0
100
AcDbSymbolTable
 70
     6
100
AcDbDimStyleTable
  0
DIMSTYLE
105
27
330
A
100
AcDbSymbolTableRecord
100
AcDbDimStyleTableRecord
  2
ISO-25
 70
     0
 41
2.5
 42
0.625
 43
3.75
 44
1.25
 73
     0
 74
     0
 77
     1
 78
     8
140
2.5
141
2.5
143
0.0393700787
147
0.625
171
     3
172
     1
178
     0
271
     2
272
     2
274
     3
278
    44
283
     0
284
     8
340
11
  0
DIMSTYLE
105
7B5D
330
A
100
AcDbSymbolTableRecord
100
AcDbDimStyleTableRecord
  2
Standard
 70
     0
 41
1.25
 42
1.0
 44
0.75
 73
     0
 74
     0
 77
     1
140
2.5
146
0.8
147
1.25
176
     7
177
     7
271
     2
178
     7
271
     2
340
11
  0
DIMSTYLE
105
CFA7
330
A
100
AcDbSymbolTableRecord
100
AcDbDimStyleTableRecord
  2
SLDDIMSTYLE0
 70
     0
 41
3.2
 44
0.0
 45
0.000000001
 73
     0
 74
     0
 77
     1
 78
    12
 79
     3
140
3.2
147
0.8
172
     1
173
     1
178
     0
271
     2
272
     2
276
     2
284
    12
289
     0
340
16B1
  0
DIMSTYLE
105
CFA9
330
A
100
AcDbSymbolTableRecord
100
AcDbDimStyleTableRecord
  2
SLDDIMSTYLE1
 70
     0
 41
3.2
 44
0.0
 45
0.000000001
 73
     0
 74
     0
 77
     1
 78
    12
 79
     3
140
3.2
147
0.8
173
     1
178
     0
271
     2
272
     2
276
     2
284
    12
340
16B1
  0
DIMSTYLE
105
CFAA
330
A
100
AcDbSymbolTableRecord
100
AcDbDimStyleTableRecord
  2
SLDDIMSTYLE2
 70
     0
 41
3.2
 44
0.0
 73
     0
 74
     0
 77
     1
 78
    12
 79
     3
140
3.2
147
0.8
173
     1
178
     0
179
     2
272
     2
276
     2
284
    12
340
16B1
  0
DIMSTYLE
105
CFAB
330
A
100
AcDbSymbolTableRecord
100
AcDbDimStyleTableRecord
  2
SLDDIMSTYLE3
 70
     0
 41
3.2
 44
0.0
 45
0.000000001
 73
     0
 74
     0
 77
     1
 78
     8
 79
     2
140
3.2
147
0.8
172
     1
173
     1
178
     0
271
     2
272
     2
276
     2
284
    12
289
     0
340
16B1
  0
ENDTAB
  0
TABLE
  2
BLOCK_RECORD
  5
1
330
0
100
AcDbSymbolTable
 70
    62
  0
BLOCK_RECORD
  5
1F
102
{ACAD_XDICTIONARY
360
11A2
102
}
330
1
100
AcDbSymbolTableRecord
100
AcDbBlockTableRecord
  2
*Model_Space
340
22
  0
BLOCK_RECORD
  5
1B
330
1
100
AcDbSymbolTableRecord
100
AcDbBlockTableRecord
  2
*Paper_Space
340
1E
  0
BLOCK_RECORD
  5
23
330
1
100
AcDbSymbolTableRecord
100
AcDbBlockTableRecord
  2
*Paper_Space0
340
26
  0
BLOCK_RECORD
  5
5DC
330
1
100
AcDbSymbolTableRecord
100
AcDbBlockTableRecord
  2
d
340
0
  0
BLOCK_RECORD
  5
177F
102
{ACAD_XDICTIONARY
360
1798
102
}
330
1
100
AcDbSymbolTableRecord
100
AcDbBlockTableRecord
  2
oz2168
340
0
  0
BLOCK_RECORD
  5
226E
330
1
100
AcDbSymbolTableRecord
100
AcDbBlockTableRecord
  2
A$C604C3652
340
0
  0
BLOCK_RECORD
  5
ABA0
330
1
100
AcDbSymbolTableRecord
100
AcDbBlockTableRecord
  2
asddwdasasasdasd
340
0
  0
BLOCK_RECORD
  5
BC83
330
1
100
AcDbSymbolTableRecord
100
AcDbBlockTableRecord
  2
SW_CENTERMARKSYMBOL_0
340
0
  0
BLOCK_RECORD
  5
D008
330
1
100
AcDbSymbolTableRecord
100
AcDbBlockTableRecord
  2
_D
340
0
  0
BLOCK_RECORD
  5
D016
330
1
100
AcDbSymbolTableRecord
100
AcDbBlockTableRecord
  2
_D_1
340
0
  0
BLOCK_RECORD
  5
D023
330
1
100
AcDbSymbolTableRecord
100
AcDbBlockTableRecord
  2
_D_2
340
0
  0
BLOCK_RECORD
  5
D02D
330
1
100
AcDbSymbolTableRecord
100
AcDbBlockTableRecord
  2
_D_3
340
0
  0
BLOCK_RECORD
  5
D037
330
1
100
AcDbSymbolTableRecord
100
AcDbBlockTableRecord
  2
_D_4
340
0
  0
BLOCK_RECORD
  5
D043
330
1
100
AcDbSymbolTableRecord
100
AcDbBlockTableRecord
  2
_D_5
340
0
  0
BLOCK_RECORD
  5
D050
330
1
100
AcDbSymbolTableRecord
100
AcDbBlockTableRecord
  2
_D_6
340
0
  0
BLOCK_RECORD
  5
D05D
330
1
100
AcDbSymbolTableRecord
100
AcDbBlockTableRecord
  2
_D_7
340
0
  0
BLOCK_RECORD
  5
D067
330
1
100
AcDbSymbolTableRecord
100
AcDbBlockTableRecord
  2
_D_8
340
0
  0
BLOCK_RECORD
  5
D0AC
330
1
100
AcDbSymbolTableRecord
100
AcDbBlockTableRecord
  2
_D_9
340
0
  0
BLOCK_RECORD
  5
D0B6
330
1
100
AcDbSymbolTableRecord
100
AcDbBlockTableRecord
  2
_D_10
340
0
  0
BLOCK_RECORD
  5
D0C2
330
1
100
AcDbSymbolTableRecord
100
AcDbBlockTableRecord
  2
_D_11
340
0
  0
BLOCK_RECORD
  5
D0CE
330
1
100
AcDbSymbolTableRecord
100
AcDbBlockTableRecord
  2
_D_12
340
0
  0
BLOCK_RECORD
  5
D0DA
330
1
100
AcDbSymbolTableRecord
100
AcDbBlockTableRecord
  2
_D_13
340
0
  0
BLOCK_RECORD
  5
D0E4
330
1
100
AcDbSymbolTableRecord
100
AcDbBlockTableRecord
  2
_D_14
340
0
  0
BLOCK_RECORD
  5
D0F1
330
1
100
AcDbSymbolTableRecord
100
AcDbBlockTableRecord
  2
_D_15
340
0
  0
BLOCK_RECORD
  5
D0FB
330
1
100
AcDbSymbolTableRecord
100
AcDbBlockTableRecord
  2
_D_16
340
0
  0
BLOCK_RECORD
  5
D105
330
1
100
AcDbSymbolTableRecord
100
AcDbBlockTableRecord
  2
_D_17
340
0
  0
BLOCK_RECORD
  5
D112
330
1
100
AcDbSymbolTableRecord
100
AcDbBlockTableRecord
  2
_D_18
340
0
  0
BLOCK_RECORD
  5
D12A
330
1
100
AcDbSymbolTableRecord
100
AcDbBlockTableRecord
  2
SW_CENTERMARKSYMBOL_1
340
0
  0
BLOCK_RECORD
  5
D136
330
1
100
AcDbSymbolTableRecord
100
AcDbBlockTableRecord
  2
SW_CENTERMARKSYMBOL_2
340
0
  0
BLOCK_RECORD
  5
D167
330
1
100
AcDbSymbolTableRecord
100
AcDbBlockTableRecord
  2
_D_19
340
0
  0
BLOCK_RECORD
  5
D171
330
1
100
AcDbSymbolTableRecord
100
AcDbBlockTableRecord
  2
_D_20
340
0
  0
BLOCK_RECORD
  5
D17B
330
1
100
AcDbSymbolTableRecord
100
AcDbBlockTableRecord
  2
_D_21
340
0
  0
BLOCK_RECORD
  5
D185
330
1
100
AcDbSymbolTableRecord
100
AcDbBlockTableRecord
  2
_D_22
340
0
  0
BLOCK_RECORD
  5
D18F
330
1
100
AcDbSymbolTableRecord
100
AcDbBlockTableRecord
  2
_D_23
340
0
  0
BLOCK_RECORD
  5
D19B
330
1
100
AcDbSymbolTableRecord
100
AcDbBlockTableRecord
  2
_D_24
340
0
  0
BLOCK_RECORD
  5
D1A7
330
1
100
AcDbSymbolTableRecord
100
AcDbBlockTableRecord
  2
SW_CENTERMARKSYMBOL_3
340
0
  0
BLOCK_RECORD
  5
D1B3
330
1
100
AcDbSymbolTableRecord
100
AcDbBlockTableRecord
  2
SW_CENTERMARKSYMBOL_4
340
0
  0
BLOCK_RECORD
  5
D1BF
330
1
100
AcDbSymbolTableRecord
100
AcDbBlockTableRecord
  2
SW_CENTERMARKSYMBOL_5
340
0
  0
BLOCK_RECORD
  5
D1CB
330
1
100
AcDbSymbolTableRecord
100
AcDbBlockTableRecord
  2
SW_CENTERMARKSYMBOL_6
340
0
  0
BLOCK_RECORD
  5
DE58
330
1
100
AcDbSymbolTableRecord
100
AcDbBlockTableRecord
  2
SW_NOTE_0
340
0
  0
BLOCK_RECORD
  5
DE63
330
1
100
AcDbSymbolTableRecord
100
AcDbBlockTableRecord
  2
SW_NOTE_1
340
0
  0
BLOCK_RECORD
  5
DE80
330
1
100
AcDbSymbolTableRecord
100
AcDbBlockTableRecord
  2
SW_NOTE_2
340
0
  0
BLOCK_RECORD
  5
DE88
330
1
100
AcDbSymbolTableRecord
100
AcDbBlockTableRecord
  2
SW_NOTE_3
340
0
  0
BLOCK_RECORD
  5
644F4
102
{ACAD_XDICTIONARY
360
644F5
102
}
330
1
100
AcDbSymbolTableRecord
100
AcDbBlockTableRecord
  2
A$C4A843887
340
0
1001
ACAD
1000
DesignCenter Data
1002
{
1070
     1
1070
     4
1002
}
  0
BLOCK_RECORD
  5
689B5
330
1
100
AcDbSymbolTableRecord
100
AcDbBlockTableRecord
  2
*D42
340
0
  0
BLOCK_RECORD
  5
689C1
330
1
100
AcDbSymbolTableRecord
100
AcDbBlockTableRecord
  2
*D43
340
0
  0
BLOCK_RECORD
  5
689CD
330
1
100
AcDbSymbolTableRecord
100
AcDbBlockTableRecord
  2
*D44
340
0
  0
BLOCK_RECORD
  5
689D9
330
1
100
AcDbSymbolTableRecord
100
AcDbBlockTableRecord
  2
*D45
340
0
  0
BLOCK_RECORD
  5
689F3
330
1
100
AcDbSymbolTableRecord
100
AcDbBlockTableRecord
  2
*D46
340
0
  0
BLOCK_RECORD
  5
689FF
330
1
100
AcDbSymbolTableRecord
100
AcDbBlockTableRecord
  2
*D47
340
0
  0
BLOCK_RECORD
  5
68A0B
330
1
100
AcDbSymbolTableRecord
100
AcDbBlockTableRecord
  2
*D48
340
0
  0
BLOCK_RECORD
  5
68A17
330
1
100
AcDbSymbolTableRecord
100
AcDbBlockTableRecord
  2
*D49
340
0
  0
BLOCK_RECORD
  5
68A24
330
1
100
AcDbSymbolTableRecord
100
AcDbBlockTableRecord
  2
*D50
340
0
  0
BLOCK_RECORD
  5
68A30
330
1
100
AcDbSymbolTableRecord
100
AcDbBlockTableRecord
  2
*D51
340
0
  0
BLOCK_RECORD
  5
68A3C
330
1
100
AcDbSymbolTableRecord
100
AcDbBlockTableRecord
  2
*D52
340
0
  0
BLOCK_RECORD
  5
68A48
330
1
100
AcDbSymbolTableRecord
100
AcDbBlockTableRecord
  2
*D53
340
0
  0
BLOCK_RECORD
  5
69204
330
1
100
AcDbSymbolTableRecord
100
AcDbBlockTableRecord
  2
*D54
340
0
  0
BLOCK_RECORD
  5
69458
330
1
100
AcDbSymbolTableRecord
100
AcDbBlockTableRecord
  2
*D55
340
0
  0
BLOCK_RECORD
  5
6948D
330
1
100
AcDbSymbolTableRecord
100
AcDbBlockTableRecord
  2
*D56
340
0
  0
BLOCK_RECORD
  5
6949C
330
1
100
AcDbSymbolTableRecord
100
AcDbBlockTableRecord
  2
*D57
340
0
  0
BLOCK_RECORD
  5
694AE
330
1
100
AcDbSymbolTableRecord
100
AcDbBlockTableRecord
  2
*D58
340
0
  0
BLOCK_RECORD
  5
694D9
330
1
100
AcDbSymbolTableRecord
100
AcDbBlockTableRecord
  2
*D59
340
0
  0
BLOCK_RECORD
  5
699FE
330
1
100
AcDbSymbolTableRecord
100
AcDbBlockTableRecord
  2
*D60
340
0
  0
BLOCK_RECORD
  5
69C51
330
1
100
AcDbSymbolTableRecord
100
AcDbBlockTableRecord
  2
*D61
340
0
  0
ENDTAB
  0
ENDSEC
  0
SECTION
  2
BLOCKS
  0
BLOCK
  5
20
330
1F
100
AcDbEntity
  8
0
100
AcDbBlockBegin
  2
*Model_Space
 70
     0
 10
0.0
 20
0.0
 30
0.0
  3
*Model_Space
  1
*Model_Space
  0
ENDBLK
  5
21
330
1F
100
AcDbEntity
  8
0
100
AcDbBlockEnd
  0
BLOCK
  5
1C
330
1B
100
AcDbEntity
 67
     1
  8
0
100
AcDbBlockBegin
  2
*Paper_Space
 70
     0
 10
0.0
 20
0.0
 30
0.0
  3
*Paper_Space
  1
*Paper_Space
  0
ENDBLK
  5
1D
330
1B
100
AcDbEntity
 67
     1
  8
0
100
AcDbBlockEnd
  0
BLOCK
  5
24
330
23
100
AcDbEntity
  8
0
100
AcDbBlockBegin
  2
*Paper_Space0
 70
     0
 10
0.0
 20
0.0
 30
0.0
  3
*Paper_Space0
  1
*Paper_Space0
  0
ENDBLK
  5
25
330
23
100
AcDbEntity
  8
0
100
AcDbBlockEnd
  0
BLOCK
  5
5DD
330
5DC
100
AcDbEntity
  8
0
100
AcDbBlockBegin
  2
d
 70
     0
 10
0.0
 20
0.0
 30
0.0
  3
d
  1
d
  0
ARC
  5
5DF
330
5DC
100
AcDbEntity
  8
0
  6
Continuous
 62
     7
370
    15
100
AcDbCircle
 10
-1986.602297122907
 20
-967.8342031206582
 30
0.0
 40
0.5399998650001937
100
AcDbArc
 50
270.0
 51
314.9016075442051
  0
ARC
  5
5E0
330
5DC
100
AcDbEntity
  8
0
  6
Continuous
 62
     7
370
    15
100
AcDbCircle
 10
-1985.762218790267
 20
-967.5025262056182
 30
0.0
 40
0.1799999550000932
100
AcDbArc
 50
308.9673027154865
 51
44.90160754409428
  0
ARC
  5
5E1
330
5DC
100
AcDbEntity
  8
0
  6
Continuous
 62
     7
370
    15
100
AcDbCircle
 10
-1985.632485114671
 20
-966.8677162680823
 30
0.0
 40
0.3599999099998683
100
AcDbArc
 50
134.901607544235
 51
224.9016075441582
  0
ARC
  5
5E2
330
5DC
100
AcDbEntity
  8
0
  6
Continuous
 62
     7
370
    15
100
AcDbCircle
 10
-1984.357509374267
 20
-965.5971119860784
 30
0.0
 40
0.3599999100000999
100
AcDbArc
 50
44.90160754419663
 51
134.9016075442606
  0
LINE
  5
5E3
330
5DC
100
AcDbEntity
  8
0
  6
Continuous
 62
     7
370
    15
100
AcDbLine
 10
-1984.970768333471
 20
-964.7022039036584
 30
0.0
 11
-1984.970768333471
 21
-964.8822038586583
 31
0.0
  0
LINE
  5
5E4
330
5DC
100
AcDbEntity
  8
0
  6
Continuous
 62
     7
370
    15
100
AcDbLine
 10
-1986.809379408647
 20
-968.1942030306583
 30
0.0
 11
-1986.809379408647
 21
-968.3742029856584
 31
0.0
  0
LINE
  5
5E5
330
5DC
100
AcDbEntity
  8
0
  6
Continuous
 62
     7
370
    15
100
AcDbLine
 10
-1985.759982688679
 20
-966.9947766962864
 30
0.0
 11
-1985.505861832307
 21
-967.2497718443383
 31
0.0
  0
LINE
  5
5E6
330
5DC
100
AcDbEntity
  8
0
  6
Continuous
 62
     7
370
    15
100
AcDbLine
 10
-1983.975890943851
 20
-965.7250467059622
 30
0.0
 11
-1984.230011800223
 21
-965.4700515578744
 31
0.0
  0
ARC
  5
5E7
330
5DC
100
AcDbEntity
  8
0
  6
Continuous
 62
     7
370
    15
100
AcDbCircle
 10
-1991.951598414897
 20
-968.2662030126584
 30
0.0
 40
0.2879999280000084
100
AcDbArc
 50
180.0
 51
270.0
  0
ARC
  5
5E8
330
5DC
100
AcDbEntity
  8
0
  6
Continuous
 62
     7
370
    15
100
AcDbCircle
 10
-1986.602297122907
 20
-967.8342031206582
 30
0.0
 40
0.7199998200001027
100
AcDbArc
 50
270.0
 51
314.9016158242238
  0
LINE
  5
5E9
330
5DC
100
AcDbEntity
  8
0
  6
Continuous
 62
     7
370
    15
100
AcDbLine
 10
-1992.239598342898
 20
-968.2662030126584
 30
0.0
 11
-1992.239598342898
 21
-967.9782030846583
 31
0.0
  0
ARC
  5
5EA
330
5DC
100
AcDbEntity
  8
0
  6
Continuous
 62
     7
370
    15
100
AcDbCircle
 10
-1984.357509374267
 20
-965.5971119860784
 30
0.0
 40
0.1799999550000645
100
AcDbArc
 50
44.90160754427336
 51
134.901607544299
  0
ARC
  5
5EB
330
5DC
100
AcDbEntity
  8
0
  6
Continuous
 62
     7
370
    15
100
AcDbCircle
 10
-1985.632485114671
 20
-966.8677162680823
 30
0.0
 40
0.179999954999746
100
AcDbArc
 50
134.9016075441965
 51
224.9016075441965
  0
ARC
  5
5EC
330
5DC
100
AcDbEntity
  8
0
  6
Continuous
 62
     7
370
    15
100
AcDbCircle
 10
-1985.378364258263
 20
-967.1227114161703
 30
0.0
 40
0.1799999550000645
100
AcDbArc
 50
224.901607544171
 51
314.9016075440943
  0
ARC
  5
5ED
330
5DC
100
AcDbEntity
  8
0
  6
Continuous
 62
     7
370
    15
100
AcDbCircle
 10
-1984.103388517859
 20
-965.8521071341663
 30
0.0
 40
0.1799999549999777
100
AcDbArc
 50
314.9016075442222
 51
44.90160754414537
  0
LINE
  5
5EE
330
5DC
100
AcDbEntity
  8
0
  6
Continuous
 62
     7
370
    15
100
AcDbLine
 10
-1986.221115838331
 20
-968.2166958427543
 30
0.0
 11
-1985.649020996255
 21
-967.6424770656944
 31
0.0
  0
LINE
  5
5EF
330
5DC
100
AcDbEntity
  8
0
  6
Continuous
 62
     7
370
    15
100
AcDbLine
 10
-1985.886605971043
 20
-966.6127211199944
 30
0.0
 11
-1984.611630230675
 21
-965.3421168379903
 31
0.0
  0
ARC
  5
5F0
330
5DC
100
AcDbEntity
  8
0
  6
Continuous
 62
     7
370
    15
100
AcDbCircle
 10
-1984.001380110647
 20
-965.2422037686583
 30
0.0
 40
0.53999986500004
100
AcDbArc
 50
320.8359123731085
 51
90.0
  0
LINE
  5
5F1
330
5DC
100
AcDbEntity
  8
0
  6
Continuous
 62
     7
370
    15
100
AcDbLine
 10
-1984.001380110647
 20
-964.7022039036584
 30
0.0
 11
-1984.970768333471
 21
-964.7022039036584
 31
0.0
  0
LINE
  5
5F2
330
5DC
100
AcDbEntity
  8
0
  6
Continuous
 62
     7
370
    15
100
AcDbLine
 10
-1984.970768333471
 20
-964.8822038586583
 30
0.0
 11
-1987.889379138647
 21
-964.8822038586583
 31
0.0
  0
LINE
  5
5F3
330
5DC
100
AcDbEntity
  8
0
  6
Continuous
 62
     7
370
    15
100
AcDbLine
 10
-1987.889379138647
 20
-964.8822038586583
 30
0.0
 11
-1987.889379138647
 21
-968.1942030306583
 31
0.0
  0
LINE
  5
5F4
330
5DC
100
AcDbEntity
  8
0
  6
Continuous
 62
     7
370
    15
100
AcDbLine
 10
-1987.889379138647
 20
-968.1942030306583
 30
0.0
 11
-1986.809379408647
 21
-968.1942030306583
 31
0.0
  0
LINE
  5
5F5
330
5DC
100
AcDbEntity
  8
0
  6
Continuous
 62
     7
370
    15
100
AcDbLine
 10
-1983.492263355479
 20
-965.7513205238263
 30
0.0
 11
-1986.094055336399
 21
-968.3441933433584
 31
0.0
  0
LINE
  5
5F6
330
5DC
100
AcDbEntity
  8
0
  6
Continuous
 62
     7
370
    15
100
AcDbLine
 10
-1985.634721216223
 20
-967.3754657774143
 30
0.0
 11
-1985.887480262723
 21
-967.1218371244902
 31
0.0
  0
LINE
  5
5F7
330
5DC
100
AcDbEntity
  8
0
  6
Continuous
 62
     7
370
    15
100
AcDbLine
 10
-1984.102514226179
 20
-965.3429911296703
 30
0.0
 11
-1983.849755179679
 21
-965.5966197826303
 31
0.0
  0
LINE
  5
5F8
330
5DC
100
AcDbEntity
  8
0
  6
Continuous
 62
     7
370
    15
100
AcDbLine
 10
-1986.809379408647
 20
-968.3742029856584
 30
0.0
 11
-1986.602297122907
 21
-968.3742029856584
 31
0.0
  0
LINE
  5
5F9
330
5DC
100
AcDbEntity
  8
0
  6
Continuous
 62
     7
370
    15
100
AcDbLine
 10
-1984.484569802471
 20
-965.4696144120344
 30
0.0
 11
-1985.759545542839
 21
-966.7402186940382
 31
0.0
  0
LINE
  5
5FA
330
5DC
100
AcDbEntity
  8
0
  6
Continuous
 62
     7
370
    15
100
AcDbLine
 10
-1985.251303830059
 20
-967.2502089901783
 30
0.0
 11
-1983.976328089655
 21
-965.9796047082103
 31
0.0
  0
LINE
  5
5FB
330
5DC
100
AcDbEntity
  8
0
  6
Continuous
 62
     7
370
    15
100
AcDbLine
 10
-1992.239598342898
 20
-965.0982038046583
 30
0.0
 11
-1992.239598342898
 21
-964.8102038766582
 31
0.0
  0
ARC
  5
5FC
330
5DC
100
AcDbEntity
  8
0
  6
Continuous
 62
     7
370
    15
100
AcDbCircle
 10
-1984.001380110647
 20
-965.2422037686583
 30
0.0
 40
0.7199998200001027
100
AcDbArc
 50
315.0000000000064
 51
90.0
  0
ARC
  5
5FD
330
5DC
100
AcDbEntity
  8
0
  6
Continuous
 62
     7
370
    15
100
AcDbCircle
 10
-1991.951598414897
 20
-964.8102038766582
 30
0.0
 40
0.2879999280001721
100
AcDbArc
 50
90.0
 51
180.0
  0
LINE
  5
5FE
330
5DC
100
AcDbEntity
  8
0
  6
Continuous
 62
     7
370
    15
100
AcDbLine
 10
-1991.951598414897
 20
-964.5222039486584
 30
0.0
 11
-1984.001380110647
 21
-964.5222039486584
 31
0.0
  0
LINE
  5
5FF
330
5DC
100
AcDbEntity
  8
0
  6
Continuous
 62
     7
370
    15
100
AcDbLine
 10
-1991.951598414897
 20
-968.5542029406583
 30
0.0
 11
-1986.602297122907
 21
-968.5542029406583
 31
0.0
  0
ENDBLK
  5
5DE
330
5DC
100
AcDbEntity
  8
0
100
AcDbBlockEnd
  0
BLOCK
  5
17C6
330
177F
100
AcDbEntity
  8
0
100
AcDbBlockBegin
  2
oz2168
 70
     0
 10
0.0
 20
0.0
 30
0.0
  3
oz2168
  1
oz2168
  0
LINE
  5
179A
330
177F
100
AcDbEntity
  8
0
  6
Continuous
 62
     7
370
    15
100
AcDbLine
 10
3.100000000000364
 20
-15.5
 30
0.0
 11
4.100000000000364
 21
-13.76794919240001
 31
0.0
  0
LINE
  5
179B
330
177F
100
AcDbEntity
  8
0
  6
Continuous
 62
     7
370
    15
100
AcDbLine
 10
-4.099999999999909
 20
-13.76794919240001
 30
0.0
 11
-3.099999999999909
 21
-15.5
 31
0.0
  0
LINE
  5
179C
330
177F
100
AcDbEntity
  8
0
  6
Continuous
 62
     7
370
    15
100
AcDbLine
 10
5.400000000000091
 20
7.5
 30
0.0
 11
5.400000000000091
 21
9.0
 31
0.0
  0
LINE
  5
179D
330
177F
100
AcDbEntity
  8
0
  6
Continuous
 62
     7
370
    15
100
AcDbLine
 10
-5.399999999999636
 20
9.0
 30
0.0
 11
-5.399999999999636
 21
7.5
 31
0.0
  0
LINE
  5
179E
330
177F
100
AcDbEntity
  8
0
  6
Continuous
 62
     7
370
    15
100
AcDbLine
 10
4.100000000000364
 20
-13.76794919240001
 30
0.0
 11
4.100000000000364
 21
7.5
 31
0.0
  0
LINE
  5
179F
330
177F
100
AcDbEntity
  8
0
  6
Continuous
 62
     7
370
    15
100
AcDbLine
 10
0.0
 20
-15.5
 30
0.0
 11
3.100000000000364
 21
-15.5
 31
0.0
  0
LINE
  5
17A0
330
177F
100
AcDbEntity
  8
0
  6
Continuous
 62
     7
370
    15
100
AcDbLine
 10
4.100000000000364
 20
7.5
 30
0.0
 11
5.400000000000091
 21
7.5
 31
0.0
  0
LINE
  5
17A1
330
177F
100
AcDbEntity
  8
0
  6
Continuous
 62
     7
370
    15
100
AcDbLine
 10
-4.099999999999909
 20
7.5
 30
0.0
 11
-4.099999999999909
 21
-13.76794919240001
 31
0.0
  0
LINE
  5
17A2
330
177F
100
AcDbEntity
  8
0
  6
Continuous
 62
     7
370
    15
100
AcDbLine
 10
-3.099999999999909
 20
-15.5
 30
0.0
 11
0.0
 21
-15.5
 31
0.0
  0
LINE
  5
17A3
330
177F
100
AcDbEntity
  8
0
  6
Continuous
 62
     7
370
    15
100
AcDbLine
 10
-5.399999999999636
 20
7.5
 30
0.0
 11
-4.099999999999909
 21
7.5
 31
0.0
  0
LINE
  5
17A4
330
177F
100
AcDbEntity
  8
0
  6
Continuous
 62
     7
370
    15
100
AcDbLine
 10
11.0
 20
1.767949192500055
 30
0.0
 11
11.0
 21
0.0
 31
0.0
  0
LINE
  5
17A5
330
177F
100
AcDbEntity
  8
0
  6
Continuous
 62
     7
370
    15
100
AcDbLine
 10
-11.0
 20
0.0
 30
0.0
 11
-11.0
 21
1.767949192500055
 31
0.0
  0
LINE
  5
17A6
330
177F
100
AcDbEntity
  8
0
  6
Continuous
 62
     7
370
    15
100
AcDbLine
 10
11.0
 20
1.767949192500055
 30
0.0
 11
10.0
 21
3.5
 31
0.0
  0
LINE
  5
17A7
330
177F
100
AcDbEntity
  8
0
  6
Continuous
 62
     7
370
    15
100
AcDbLine
 10
-10.0
 20
3.5
 30
0.0
 11
-11.0
 21
1.767949192500055
 31
0.0
  0
LINE
  5
17A8
330
177F
100
AcDbEntity
  8
0
  6
Continuous
 62
     7
370
    15
100
AcDbLine
 10
10.5
 20
0.0
 30
0.0
 11
10.5
 21
0.2000000000007276
 31
0.0
  0
LINE
  5
17A9
330
177F
100
AcDbEntity
  8
0
  6
Continuous
 62
     7
370
    15
100
AcDbLine
 10
-10.5
 20
0.2000000000007276
 30
0.0
 11
-10.5
 21
0.0
 31
0.0
  0
LINE
  5
17AA
330
177F
100
AcDbEntity
  8
0
  6
Continuous
 62
     7
370
    15
100
AcDbLine
 10
-10.5
 20
0.0
 30
0.0
 11
-4.099999999999909
 21
0.0
 31
0.0
  0
LINE
  5
17AB
330
177F
100
AcDbEntity
  8
0
  6
Continuous
 62
     7
370
    15
100
AcDbLine
 10
4.100000000000364
 20
0.0
 30
0.0
 11
10.5
 21
0.0
 31
0.0
  0
LINE
  5
17AC
330
177F
100
AcDbEntity
  8
0
  6
Continuous
 62
     7
370
    15
100
AcDbLine
 10
5.5
 20
7.200000000000728
 30
0.0
 11
5.5
 21
3.5
 31
0.0
  0
LINE
  5
17AD
330
177F
100
AcDbEntity
  8
0
  6
Continuous
 62
     7
370
    15
100
AcDbLine
 10
-5.5
 20
3.5
 30
0.0
 11
-5.5
 21
7.200000000000728
 31
0.0
  0
LINE
  5
17AE
330
177F
100
AcDbEntity
  8
0
  6
Continuous
 62
     7
370
    15
100
AcDbLine
 10
5.5
 20
7.200000000000728
 30
0.0
 11
5.200000000000273
 21
7.5
 31
0.0
  0
LINE
  5
17AF
330
177F
100
AcDbEntity
  8
0
  6
Continuous
 62
     7
370
    15
100
AcDbLine
 10
-5.199999999999818
 20
7.5
 30
0.0
 11
-5.5
 21
7.200000000000728
 31
0.0
  0
ARC
  5
17B0
330
177F
100
AcDbEntity
  8
0
  6
Continuous
 62
     7
370
    15
100
AcDbCircle
 10
4.425000000000182
 20
7.200000000000728
 30
0.0
 40
0.2999999999999972
100
AcDbArc
 50
90.0
 51
180.0
  0
ARC
  5
17B1
330
177F
100
AcDbEntity
  8
0
  6
Continuous
 62
     7
370
    15
100
AcDbCircle
 10
-4.424999999999727
 20
7.200000000000728
 30
0.0
 40
0.3000000000000043
100
AcDbArc
 50
0.0
 51
90.0
  0
LINE
  5
17B2
330
177F
100
AcDbEntity
  8
0
  6
Continuous
 62
     7
370
    15
100
AcDbLine
 10
4.125
 20
0.2000000000007276
 30
0.0
 11
4.125
 21
7.200000000000728
 31
0.0
  0
LINE
  5
17B3
330
177F
100
AcDbEntity
  8
0
  6
Continuous
 62
     7
370
    15
100
AcDbLine
 10
-4.125
 20
7.200000000000728
 30
0.0
 11
-4.125
 21
0.2000000000007276
 31
0.0
  0
LINE
  5
17B4
330
177F
100
AcDbEntity
  8
0
  6
Continuous
 62
     7
370
    15
100
AcDbLine
 10
-4.125
 20
0.2000000000007276
 30
0.0
 11
-4.099999999999909
 21
0.2000000000007276
 31
0.0
  0
LINE
  5
17B5
330
177F
100
AcDbEntity
  8
0
  6
Continuous
 62
     7
370
    15
100
AcDbLine
 10
4.100000000000364
 20
0.2000000000007276
 30
0.0
 11
4.125
 21
0.2000000000007276
 31
0.0
  0
LINE
  5
17B6
330
177F
100
AcDbEntity
  8
0
  6
Continuous
 62
     7
370
    15
100
AcDbLine
 10
-5.199999999999818
 20
7.5
 30
0.0
 11
-4.424999999999727
 21
7.5
 31
0.0
  0
LINE
  5
17B7
330
177F
100
AcDbEntity
  8
0
  6
Continuous
 62
     7
370
    15
100
AcDbLine
 10
-10.0
 20
3.5
 30
0.0
 11
-5.5
 21
3.5
 31
0.0
  0
LINE
  5
17B8
330
177F
100
AcDbEntity
  8
0
  6
Continuous
 62
     7
370
    15
100
AcDbLine
 10
-4.125
 20
0.2000000000007276
 30
0.0
 11
-10.5
 21
0.2000000000007276
 31
0.0
  0
LINE
  5
17B9
330
177F
100
AcDbEntity
  8
0
  6
Continuous
 62
     7
370
    15
100
AcDbLine
 10
-10.5
 20
0.0
 30
0.0
 11
-11.0
 21
0.0
 31
0.0
  0
LINE
  5
17BA
330
177F
100
AcDbEntity
  8
0
  6
Continuous
 62
     7
370
    15
100
AcDbLine
 10
4.425000000000182
 20
7.5
 30
0.0
 11
5.200000000000273
 21
7.5
 31
0.0
  0
LINE
  5
17BB
330
177F
100
AcDbEntity
  8
0
  6
Continuous
 62
     7
370
    15
100
AcDbLine
 10
5.5
 20
3.5
 30
0.0
 11
10.0
 21
3.5
 31
0.0
  0
LINE
  5
17BC
330
177F
100
AcDbEntity
  8
0
  6
Continuous
 62
     7
370
    15
100
AcDbLine
 10
10.5
 20
0.2000000000007276
 30
0.0
 11
4.125
 21
0.2000000000007276
 31
0.0
  0
LINE
  5
17BD
330
177F
100
AcDbEntity
  8
0
  6
Continuous
 62
     7
370
    15
100
AcDbLine
 10
11.0
 20
0.0
 30
0.0
 11
10.5
 21
0.0
 31
0.0
  0
LINE
  5
17BE
330
177F
100
AcDbEntity
  8
0
  6
Continuous
 62
     8
370
     0
100
AcDbLine
 10
4.125
 20
7.200000000000728
 30
0.0
 11
4.100000000000364
 21
7.200000000000728
 31
0.0
  0
LINE
  5
17BF
330
177F
100
AcDbEntity
  8
0
  6
Continuous
 62
     8
370
     0
100
AcDbLine
 10
-4.099999999999909
 20
7.200000000000728
 30
0.0
 11
-4.125
 21
7.200000000000728
 31
0.0
  0
HATCH
  5
17C0
330
177F
100
AcDbEntity
  8
0
  6
Continuous
 62
     7
370
     0
100
AcDbHatch
 10
0.0
 20
0.0
 30
0.0
210
0.0
220
0.0
230
1.0
  2
LINE
 70
     0
 71
     0
 91
        1
 92
        0
 93
       11
 72
     1
 10
10.49999999999272
 20
0.0000000000336513
 11
10.99999999999272
 21
0.0000000000336513
 72
     1
 10
10.99999999999272
 20
0.0000000000336513
 11
10.99999999999272
 21
1.767949192464584
 72
     1
 10
10.99999999999272
 20
1.767949192464584
 11
9.999999999992724
 21
3.500000000033651
 72
     1
 10
9.999999999992724
 20
3.500000000033651
 11
5.499999999992724
 21
3.500000000033651
 72
     1
 10
5.499999999992724
 20
3.500000000033651
 11
5.499999999992724
 21
7.200000000033469
 72
     1
 10
5.499999999992724
 20
7.200000000033469
 11
5.199999999992542
 21
7.500000000033651
 72
     1
 10
5.199999999992542
 20
7.500000000033651
 11
4.424999999992451
 21
7.500000000033651
 72
     2
 10
4.424999999992451
 20
7.200000000033469
 40
0.3
 50
90.0
 51
180.0
 73
     1
 72
     1
 10
4.124999999992724
 20
7.200000000033469
 11
4.124999999992724
 21
0.2000000000334694
 72
     1
 10
4.124999999992724
 20
0.2000000000334694
 11
10.49999999999272
 21
0.2000000000334694
 72
     1
 10
10.49999999999272
 20
0.2000000000334694
 11
10.49999999999272
 21
0.0000000000336513
 97
        0
 75
     0
 76
     1
 52
45.0
 41
0.5
 77
     0
 78
     1
 53
45.00000000000011
 43
-55.21869230769971
 44
-125.4285613032998
 45
-1.122532015133646
 46
1.122532015133642
 79
     0
 98
        1
 10
-55.21869230769971
 20
-125.4285613032998
  0
HATCH
  5
17C1
330
177F
100
AcDbEntity
  8
0
  6
Continuous
 62
     7
370
     0
100
AcDbHatch
 10
0.0
 20
0.0
 30
0.0
210
0.0
220
0.0
230
1.0
  2
LINE
 70
     0
 71
     0
 91
        1
 92
        0
 93
       11
 72
     1
 10
-11.00000000000728
 20
0.0000000000336513
 11
-10.50000000000728
 21
0.0000000000336513
 72
     1
 10
-10.50000000000728
 20
0.0000000000336513
 11
-10.50000000000728
 21
0.2000000000334694
 72
     1
 10
-10.50000000000728
 20
0.2000000000334694
 11
-4.125000000007276
 21
0.2000000000334694
 72
     1
 10
-4.125000000007276
 20
0.2000000000334694
 11
-4.125000000007276
 21
7.200000000033469
 72
     2
 10
-4.425000000007458
 20
7.200000000033469
 40
0.3
 50
0.0
 51
90.0
 73
     1
 72
     1
 10
-4.425000000007458
 20
7.500000000033651
 11
-5.200000000007549
 21
7.500000000033651
 72
     1
 10
-5.200000000007549
 20
7.500000000033651
 11
-5.500000000007731
 21
7.200000000033469
 72
     1
 10
-5.500000000007276
 20
7.200000000033469
 11
-5.500000000007276
 21
3.500000000033651
 72
     1
 10
-5.500000000007276
 20
3.500000000033651
 11
-10.00000000000728
 21
3.500000000033651
 72
     1
 10
-10.00000000000728
 20
3.500000000033651
 11
-11.00000000000728
 21
1.767949192464584
 72
     1
 10
-11.00000000000728
 20
1.767949192464584
 11
-11.00000000000728
 21
0.0000000000336513
 97
        0
 75
     0
 76
     1
 52
45.0
 41
0.5
 77
     0
 78
     1
 53
45.00000000000011
 43
-55.21869230769971
 44
-125.4285613032998
 45
-1.122532015133646
 46
1.122532015133642
 79
     0
 98
        1
 10
-55.21869230769971
 20
-125.4285613032998
  0
LINE
  5
17C2
330
177F
100
AcDbEntity
  8
0
  6
Continuous
 62
     7
370
    15
100
AcDbLine
 10
4.900000000000091
 20
9.5
 30
0.0
 11
0.0
 21
9.5
 31
0.0
  0
ARC
  5
17C3
330
177F
100
AcDbEntity
  8
0
  6
Continuous
 62
     7
370
    15
100
AcDbCircle
 10
4.900000000000091
 20
9.0
 30
0.0
 40
0.5
100
AcDbArc
 50
0.0
 51
90.0
  0
ARC
  5
17C4
330
177F
100
AcDbEntity
  8
0
  6
Continuous
 62
     7
370
    15
100
AcDbCircle
 10
-4.899999999999636
 20
9.0
 30
0.0
 40
0.5
100
AcDbArc
 50
90.0
 51
180.0
  0
LINE
  5
17C5
330
177F
100
AcDbEntity
  8
0
  6
Continuous
 62
     7
370
    15
100
AcDbLine
 10
0.0
 20
9.5
 30
0.0
 11
-4.899999999999636
 21
9.5
 31
0.0
  0
ENDBLK
  5
17C7
330
177F
100
AcDbEntity
  8
0
100
AcDbBlockEnd
  0
BLOCK
  5
226F
330
226E
100
AcDbEntity
  8
0
100
AcDbBlockBegin
  2
A$C604C3652
 70
     0
 10
0.0
 20
0.0
 30
0.0
  3
A$C604C3652
  1
A$C604C3652
  0
LINE
  5
2270
330
226E
100
AcDbEntity
  8
0
 62
     4
370
     0
100
AcDbLine
 10
-133.4219088087848
 20
54.64799999944807
 30
0.0
 11
-133.4219088115278
 21
0.0000018238133634
 31
0.0
  0
LINE
  5
2271
330
226E
100
AcDbEntity
  8
0
 62
     4
370
     0
100
AcDbLine
 10
-205.3780798385924
 20
54.64799999944807
 30
0.0
 11
-205.3780798358493
 21
0.0000018238133634
 31
0.0
  0
ENDBLK
  5
2272
330
226E
100
AcDbEntity
  8
0
100
AcDbBlockEnd
  0
BLOCK
  5
ABA1
330
ABA0
100
AcDbEntity
  8
0
100
AcDbBlockBegin
  2
asddwdasasasdasd
 70
     0
 10
0.0
 20
0.0
 30
0.0
  3
asddwdasasasdasd
  1
asddwdasasasdasd
  4
adasdasdasdsadadasdasdasd
  0
LINE
  5
ABA3
330
ABA0
100
AcDbEntity
  8
0
  6
Continuous
 62
     7
370
    15
100
AcDbLine
 10
1.060000000000173
 20
0.0
 30
0.0
 11
2.400000000000091
 21
0.0
 31
0.0
  0
LINE
  5
ABA4
330
ABA0
100
AcDbEntity
  8
0
  6
Continuous
 62
     7
370
    15
100
AcDbLine
 10
2.400000000000091
 20
4.0
 30
0.0
 11
2.080000000000155
 21
4.0
 31
0.0
  0
LINE
  5
ABA5
330
ABA0
100
AcDbEntity
  8
0
  6
Continuous
 62
     7
370
    15
100
AcDbLine
 10
-2.399999999999864
 20
0.0
 30
0.0
 11
-1.059999999999945
 21
0.0
 31
0.0
  0
LINE
  5
ABA6
330
ABA0
100
AcDbEntity
  8
0
  6
Continuous
 62
     7
370
    15
100
AcDbLine
 10
-2.079999999999927
 20
4.0
 30
0.0
 11
-2.399999999999864
 21
4.0
 31
0.0
  0
LINE
  5
ABA7
330
ABA0
100
AcDbEntity
  8
0
  6
Continuous
 62
     7
370
    15
100
AcDbLine
 10
1.0
 20
0.0
 30
0.0
 11
1.060000000000173
 21
0.0
 31
0.0
  0
LINE
  5
ABA8
330
ABA0
100
AcDbEntity
  8
0
  6
Continuous
 62
     7
370
    15
100
AcDbLine
 10
-1.059999999999945
 20
0.0
 30
0.0
 11
-1.0
 21
0.0
 31
0.0
  0
LINE
  5
ABA9
330
ABA0
100
AcDbEntity
  8
0
  6
Continuous
 62
     7
370
    15
100
AcDbLine
 10
-1.059999999999945
 20
0.0
 30
0.0
 11
-1.059999999999945
 21
2.980000000000018
 31
0.0
  0
LINE
  5
ABAA
330
ABA0
100
AcDbEntity
  8
0
  6
Continuous
 62
     7
370
    15
100
AcDbLine
 10
1.060000000000173
 20
2.980000000000018
 30
0.0
 11
1.060000000000173
 21
0.0
 31
0.0
  0
LINE
  5
ABAB
330
ABA0
100
AcDbEntity
  8
0
  6
Continuous
 62
     7
370
    15
100
AcDbLine
 10
2.0
 20
4.0
 30
0.0
 11
2.080000000000155
 21
4.0
 31
0.0
  0
LINE
  5
ABAC
330
ABA0
100
AcDbEntity
  8
0
  6
Continuous
 62
     7
370
    15
100
AcDbLine
 10
-2.079999999999927
 20
4.0
 30
0.0
 11
-2.0
 21
4.0
 31
0.0
  0
LINE
  5
ABAD
330
ABA0
100
AcDbEntity
  8
0
  6
Continuous
 62
     7
370
    15
100
AcDbLine
 10
-1.059999999999945
 20
2.980000000000018
 30
0.0
 11
-2.079999999999927
 21
4.0
 31
0.0
  0
LINE
  5
ABAE
330
ABA0
100
AcDbEntity
  8
0
  6
Continuous
 62
     7
370
    15
100
AcDbLine
 10
2.080000000000155
 20
4.0
 30
0.0
 11
1.060000000000173
 21
2.980000000000018
 31
0.0
  0
LINE
  5
ABAF
330
ABA0
100
AcDbEntity
  8
0
  6
Continuous
 62
     7
370
    15
100
AcDbLine
 10
-2.399999999999864
 20
4.0
 30
0.0
 11
-2.399999999999864
 21
0.0
 31
0.0
  0
LINE
  5
ABB0
330
ABA0
100
AcDbEntity
  8
0
  6
Continuous
 62
     7
370
    15
100
AcDbLine
 10
2.400000000000091
 20
0.0
 30
0.0
 11
2.400000000000091
 21
4.0
 31
0.0
  0
LINE
  5
ABB1
330
ABA0
100
AcDbEntity
  8
0
  6
Continuous
 62
     7
370
    15
100
AcDbLine
 10
-0.3464101615199979
 20
4.039999999999964
 30
0.0
 11
0.3464101615199979
 21
4.039999999999964
 31
0.0
  0
LINE
  5
ABB2
330
ABA0
100
AcDbEntity
  8
0
  6
Continuous
 62
     7
370
    15
100
AcDbLine
 10
-0.6928203230399959
 20
4.039999999999964
 30
0.0
 11
-2.0
 21
4.039999999999964
 31
0.0
  0
LINE
  5
ABB3
330
ABA0
100
AcDbEntity
  8
0
  6
Continuous
 62
     7
370
    15
100
AcDbLine
 10
0.0
 20
2.920000000000073
 30
0.0
 11
-0.6928203230399959
 21
2.920000000000073
 31
0.0
  0
LINE
  5
ABB4
330
ABA0
100
AcDbEntity
  8
0
  6
Continuous
 62
     7
370
    15
100
AcDbLine
 10
-1.0
 20
-5.660000000000082
 30
0.0
 11
-1.0
 21
2.920000000000073
 31
0.0
  0
LINE
  5
ABB5
330
ABA0
100
AcDbEntity
  8
0
  6
Continuous
 62
     7
370
    15
100
AcDbLine
 10
-0.6999999999998181
 20
-5.960000000000036
 30
0.0
 11
-1.0
 21
-5.660000000000082
 31
0.0
  0
LINE
  5
ABB6
330
ABA0
100
AcDbEntity
  8
0
  6
Continuous
 62
     7
370
    15
100
AcDbLine
 10
-0.6999999999998181
 20
-5.960000000000036
 30
0.0
 11
0.0
 21
-5.960000000000036
 31
0.0
  0
LINE
  5
ABB7
330
ABA0
100
AcDbEntity
  8
0
  6
Continuous
 62
     7
370
    15
100
AcDbLine
 10
-1.0
 20
2.920000000000073
 30
0.0
 11
-1.999999999959982
 21
3.919999999960055
 31
0.0
  0
LINE
  5
ABB8
330
ABA0
100
AcDbEntity
  8
0
  6
Continuous
 62
     7
370
    15
100
AcDbLine
 10
-1.999999999959982
 20
3.919999999960055
 30
0.0
 11
-2.0
 21
4.039999999999964
 31
0.0
  0
LINE
  5
ABB9
330
ABA0
100
AcDbEntity
  8
0
  6
Continuous
 62
     7
370
    15
100
AcDbLine
 10
2.0
 20
4.039999999999964
 30
0.0
 11
0.6928203230399959
 21
4.039999999999964
 31
0.0
  0
LINE
  5
ABBA
330
ABA0
100
AcDbEntity
  8
0
  6
Continuous
 62
     7
370
    15
100
AcDbLine
 10
0.6928203230399959
 20
2.920000000000073
 30
0.0
 11
0.0
 21
2.920000000000073
 31
0.0
  0
LINE
  5
ABBB
330
ABA0
100
AcDbEntity
  8
0
  6
Continuous
 62
     7
370
    15
100
AcDbLine
 10
0.0
 20
-5.960000000000036
 30
0.0
 11
0.7000000000000455
 21
-5.960000000000036
 31
0.0
  0
LINE
  5
ABBC
330
ABA0
100
AcDbEntity
  8
0
  6
Continuous
 62
     7
370
    15
100
AcDbLine
 10
1.0
 20
-5.660000000000082
 30
0.0
 11
0.7000000000000455
 21
-5.960000000000036
 31
0.0
  0
LINE
  5
ABBD
330
ABA0
100
AcDbEntity
  8
0
  6
Continuous
 62
     7
370
    15
100
AcDbLine
 10
1.0
 20
2.920000000000073
 30
0.0
 11
1.0
 21
-5.660000000000082
 31
0.0
  0
LINE
  5
ABBE
330
ABA0
100
AcDbEntity
  8
0
  6
Continuous
 62
     7
370
    15
100
AcDbLine
 10
1.999999999959982
 20
3.919999999960055
 30
0.0
 11
1.0
 21
2.920000000000073
 31
0.0
  0
LINE
  5
ABBF
330
ABA0
100
AcDbEntity
  8
0
  6
Continuous
 62
     7
370
    15
100
AcDbLine
 10
2.0
 20
4.039999999999964
 30
0.0
 11
1.999999999959982
 21
3.919999999960055
 31
0.0
  0
LINE
  5
ABC0
330
ABA0
100
AcDbEntity
  8
0
  6
Continuous
 62
     7
370
    15
100
AcDbLine
 10
-0.6928203230399959
 20
4.039999999999964
 30
0.0
 11
-0.3464101615199979
 21
4.039999999999964
 31
0.0
  0
LINE
  5
ABC1
330
ABA0
100
AcDbEntity
  8
0
  6
Continuous
 62
     7
370
    15
100
AcDbLine
 10
-0.3464101615199979
 20
2.920000000000073
 30
0.0
 11
-0.3464101615199979
 21
4.039999999999964
 31
0.0
  0
LINE
  5
ABC2
330
ABA0
100
AcDbEntity
  8
0
  6
Continuous
 62
     7
370
    15
100
AcDbLine
 10
-0.6928203230399959
 20
2.920000000000073
 30
0.0
 11
-0.6928203230399959
 21
4.039999999999964
 31
0.0
  0
LINE
  5
ABC3
330
ABA0
100
AcDbEntity
  8
0
  6
Continuous
 62
     7
370
    15
100
AcDbLine
 10
0.6928203230399959
 20
4.039999999999964
 30
0.0
 11
0.3464101615199979
 21
4.039999999999964
 31
0.0
  0
LINE
  5
ABC4
330
ABA0
100
AcDbEntity
  8
0
  6
Continuous
 62
     7
370
    15
100
AcDbLine
 10
0.6928203230399959
 20
4.039999999999964
 30
0.0
 11
0.6928203230399959
 21
2.920000000000073
 31
0.0
  0
LINE
  5
ABC5
330
ABA0
100
AcDbEntity
  8
0
  6
Continuous
 62
     7
370
    15
100
AcDbLine
 10
0.3464101615199979
 20
2.920000000000073
 30
0.0
 11
0.3464101615199979
 21
4.039999999999964
 31
0.0
  0
ENDBLK
  5
ABA2
330
ABA0
100
AcDbEntity
  8
0
100
AcDbBlockEnd
  0
BLOCK
  5
BC84
330
BC83
100
AcDbEntity
  8
0
100
AcDbBlockBegin
  2
SW_CENTERMARKSYMBOL_0
 70
     0
 10
0.0
 20
0.0
 30
0.0
  3
SW_CENTERMARKSYMBOL_0
  1
SW_CENTERMARKSYMBOL_0
  0
LINE
  5
BC85
330
BC83
100
AcDbEntity
  8
0
  6
Continuous
 62
     0
370
     0
100
AcDbLine
 10
0.0
 20
0.0
 30
0.0
 11
-2.5
 21
0.0
 31
0.0
  0
LINE
  5
BC86
330
BC83
100
AcDbEntity
  8
0
  6
Continuous
 62
     0
370
     0
100
AcDbLine
 10
0.0
 20
0.0
 30
0.0
 11
0.0
 21
-2.5
 31
0.0
  0
LINE
  5
BC87
330
BC83
100
AcDbEntity
  8
0
  6
Continuous
 62
     0
370
     0
100
AcDbLine
 10
0.0
 20
0.0
 30
0.0
 11
2.5
 21
0.0
 31
0.0
  0
LINE
  5
BC88
330
BC83
100
AcDbEntity
  8
0
  6
Continuous
 62
     0
370
     0
100
AcDbLine
 10
0.0
 20
0.0
 30
0.0
 11
0.0
 21
2.5
 31
0.0
  0
LINE
  5
BC89
330
BC83
100
AcDbEntity
  8
0
  6
Continuous
 62
     0
370
     0
100
AcDbLine
 10
-2.5
 20
0.0
 30
0.0
 11
-4.6
 21
0.0
 31
0.0
  0
LINE
  5
BC8A
330
BC83
100
AcDbEntity
  8
0
  6
Continuous
 62
     0
370
     0
100
AcDbLine
 10
0.0
 20
-2.5
 30
0.0
 11
0.0
 21
-4.6
 31
0.0
  0
LINE
  5
BC8B
330
BC83
100
AcDbEntity
  8
0
  6
Continuous
 62
     0
370
     0
100
AcDbLine
 10
2.5
 20
0.0
 30
0.0
 11
4.6
 21
0.0
 31
0.0
  0
LINE
  5
BC8C
330
BC83
100
AcDbEntity
  8
0
  6
Continuous
 62
     0
370
     0
100
AcDbLine
 10
0.0
 20
2.5
 30
0.0
 11
0.0
 21
4.6
 31
0.0
  0
ENDBLK
  5
BC8D
330
BC83
100
AcDbEntity
  8
0
100
AcDbBlockEnd
  0
BLOCK
  5
D009
330
D008
100
AcDbEntity
  8
0
100
AcDbBlockBegin
  2
_D
 70
     0
 10
0.0
 20
0.0
 30
0.0
  3
_D
  1
_D
  0
LINE
  5
D00A
330
D008
100
AcDbEntity
  8
0
  6
Continuous
 62
     0
370
    -2
100
AcDbLine
 10
114.0211532807974
 20
119.9299855251608
 30
0.0
 11
114.0211532807974
 21
128.2481101435839
 31
0.0
  0
LINE
  5
D00B
330
D008
100
AcDbEntity
  8
0
  6
Continuous
 62
     0
370
    -2
100
AcDbLine
 10
118.0211532807974
 20
119.9299855251608
 30
0.0
 11
118.0211532807974
 21
128.2481101435839
 31
0.0
  0
LINE
  5
D00C
330
D008
100
AcDbEntity
  8
0
  6
Continuous
 62
     0
370
    -2
100
AcDbLine
 10
118.0211532807974
 20
128.2481101435839
 30
0.0
 11
179.1244445883366
 21
128.2481101435839
 31
0.0
  0
LINE
  5
D00D
330
D008
100
AcDbEntity
  8
0
  6
Continuous
 62
     0
370
    -2
100
AcDbLine
 10
114.0211532807974
 20
128.2481101435839
 30
0.0
 11
118.0211532807974
 21
128.2481101435839
 31
0.0
  0
LINE
  5
D00E
330
D008
100
AcDbEntity
  8
0
  6
Continuous
 62
     0
370
    -2
100
AcDbLine
 10
110.8211532807974
 20
128.2481101435839
 30
0.0
 11
107.6211532807974
 21
128.2481101435839
 31
0.0
  0
LINE
  5
D00F
330
D008
100
AcDbEntity
  8
0
  6
Continuous
 62
     0
370
    -2
100
AcDbLine
 10
121.2211532807974
 20
128.2481101435839
 30
0.0
 11
124.4211532807974
 21
128.2481101435839
 31
0.0
  0
SOLID
  5
D010
330
D008
100
AcDbEntity
  8
0
 62
     0
100
AcDbTrace
 10
110.8211532807974
 20
127.7147768102506
 30
0.0
 11
110.8211532807974
 21
128.7814434769172
 31
0.0
 12
114.0211532807974
 22
128.2481101435839
 32
0.0
 13
114.0211532807974
 23
128.2481101435839
 33
0.0
  0
SOLID
  5
D011
330
D008
100
AcDbEntity
  8
0
 62
     0
100
AcDbTrace
 10
121.2211532807974
 20
128.7814434769172
 30
0.0
 11
121.2211532807974
 21
127.7147768102506
 31
0.0
 12
118.0211532807974
 22
128.2481101435839
 32
0.0
 13
118.0211532807974
 23
128.2481101435839
 33
0.0
  0
MTEXT
  5
D012
330
D008
100
AcDbEntity
  8
0
  6
HIDDEN
 62
     0
370
     0
100
AcDbMText
 10
154.1244445883366
 20
132.2481101435839
 30
0.0
 40
3.2
 41
0.0
 71
     2
 72
     1
  1
\A1;%%c4x90° - N°3 Ciecature
  7
SLDTEXTSTYLE4
 73
     1
 44
1.0
  0
POINT
  5
D013
330
D008
100
AcDbEntity
  8
Defpoints
 62
     0
100
AcDbPoint
 10
114.0211532807974
 20
119.8674855251608
 30
0.0
  0
POINT
  5
D202
330
D008
100
AcDbEntity
  8
Defpoints
 62
     0
100
AcDbPoint
 10
118.0211532807974
 20
119.8674855251608
 30
0.0
  0
POINT
  5
D203
330
D008
100
AcDbEntity
  8
Defpoints
 62
     0
100
AcDbPoint
 10
118.0211532807974
 20
128.2481101435839
 30
0.0
  0
ENDBLK
  5
D014
330
D008
100
AcDbEntity
  8
0
100
AcDbBlockEnd
  0
BLOCK
  5
D017
330
D016
100
AcDbEntity
  8
0
100
AcDbBlockBegin
  2
_D_1
 70
     0
 10
0.0
 20
0.0
 30
0.0
  3
_D_1
  1
_D_1
  0
LINE
  5
D018
330
D016
100
AcDbEntity
  8
0
  6
Continuous
 62
     0
370
    -2
100
AcDbLine
 10
107.0836532807974
 20
133.6774855251608
 30
0.0
 11
116.7342297595509
 21
133.6774855251608
 31
0.0
  0
LINE
  5
D019
330
D016
100
AcDbEntity
  8
0
  6
Continuous
 62
     0
370
    -2
100
AcDbLine
 10
107.0836532807974
 20
144.0774855251608
 30
0.0
 11
116.7342297595509
 21
144.0774855251609
 31
0.0
  0
LINE
  5
D01A
330
D016
100
AcDbEntity
  8
0
  6
Continuous
 62
     0
370
    -2
100
AcDbLine
 10
116.7342297595509
 20
136.8774855251608
 30
0.0
 11
116.7342297595509
 21
140.8774855251609
 31
0.0
  0
SOLID
  5
D01B
330
D016
100
AcDbEntity
  8
0
 62
     0
100
AcDbTrace
 10
116.2008964262176
 20
136.8774855251608
 30
0.0
 11
117.2675630928843
 21
136.8774855251608
 31
0.0
 12
116.7342297595509
 22
133.6774855251608
 32
0.0
 13
116.7342297595509
 23
133.6774855251608
 33
0.0
  0
SOLID
  5
D01C
330
D016
100
AcDbEntity
  8
0
 62
     0
100
AcDbTrace
 10
117.2675630928842
 20
140.8774855251609
 30
0.0
 11
116.2008964262176
 21
140.8774855251609
 31
0.0
 12
116.7342297595509
 22
144.0774855251609
 32
0.0
 13
116.7342297595509
 23
144.0774855251609
 33
0.0
  0
MTEXT
  5
D01D
330
D016
100
AcDbEntity
  8
0
  6
HIDDEN
 62
     0
370
     0
100
AcDbMText
 10
112.7342297595509
 20
139.9631405213981
 30
0.0
 40
3.2
 41
0.0
 71
     2
 72
     1
  1
\A1;%%c10.4
  7
SLDTEXTSTYLE4
 11
-4.099285014000576E-15
 21
1.0
 31
0.0
 73
     1
 44
1.0
  0
POINT
  5
D01E
330
D016
100
AcDbEntity
  8
Defpoints
 62
     0
100
AcDbPoint
 10
107.0211532807974
 20
133.6774855251608
 30
0.0
  0
POINT
  5
D01F
330
D016
100
AcDbEntity
  8
Defpoints
 62
     0
100
AcDbPoint
 10
107.0211532807974
 20
144.0774855251608
 30
0.0
  0
POINT
  5
D020
330
D016
100
AcDbEntity
  8
Defpoints
 62
     0
100
AcDbPoint
 10
116.7342297595509
 20
144.0774855251609
 30
0.0
  0
ENDBLK
  5
D021
330
D016
100
AcDbEntity
  8
0
100
AcDbBlockEnd
  0
BLOCK
  5
D024
330
D023
100
AcDbEntity
  8
0
100
AcDbBlockBegin
  2
_D_2
 70
     0
 10
0.0
 20
0.0
 30
0.0
  3
_D_2
  1
_D_2
  0
LINE
  5
D025
330
D023
100
AcDbEntity
  8
0
  6
Continuous
 62
     0
370
    -2
100
AcDbLine
 10
102.0211532807974
 20
114.8149855251608
 30
0.0
 11
102.0211532807974
 21
97.72694812456581
 31
0.0
  0
LINE
  5
D026
330
D023
100
AcDbEntity
  8
0
  6
Continuous
 62
     0
370
    -2
100
AcDbLine
 10
132.0211532807974
 20
114.8149855251608
 30
0.0
 11
132.0211532807974
 21
97.72694812456581
 31
0.0
  0
LINE
  5
D027
330
D023
100
AcDbEntity
  8
0
  6
Continuous
 62
     0
370
    -2
100
AcDbLine
 10
105.2211532807974
 20
97.72694812456581
 30
0.0
 11
128.8211532807974
 21
97.72694812456581
 31
0.0
  0
SOLID
  5
D028
330
D023
100
AcDbEntity
  8
0
 62
     0
100
AcDbTrace
 10
105.2211532807974
 20
98.26028145789914
 30
0.0
 11
105.2211532807974
 21
97.19361479123248
 31
0.0
 12
102.0211532807974
 22
97.72694812456581
 32
0.0
 13
102.0211532807974
 23
97.72694812456581
 33
0.0
  0
SOLID
  5
D029
330
D023
100
AcDbEntity
  8
0
 62
     0
100
AcDbTrace
 10
128.8211532807974
 20
97.19361479123248
 30
0.0
 11
128.8211532807974
 21
98.26028145789914
 31
0.0
 12
132.0211532807974
 22
97.72694812456581
 32
0.0
 13
132.0211532807974
 23
97.72694812456581
 33
0.0
  0
MTEXT
  5
D02A
330
D023
100
AcDbEntity
  8
0
  6
HIDDEN
 62
     0
370
     0
100
AcDbMText
 10
118.2389123192981
 20
101.7269481245658
 30
0.0
 40
3.2
 41
0.0
 71
     2
 72
     1
  1
\A1;30
  7
SLDTEXTSTYLE4
 73
     1
 44
1.0
  0
POINT
  5
D204
330
D023
100
AcDbEntity
  8
Defpoints
 62
     0
100
AcDbPoint
 10
102.0211532807974
 20
114.8774855251608
 30
0.0
  0
POINT
  5
D205
330
D023
100
AcDbEntity
  8
Defpoints
 62
     0
100
AcDbPoint
 10
132.0211532807974
 20
114.8774855251608
 30
0.0
  0
POINT
  5
D206
330
D023
100
AcDbEntity
  8
Defpoints
 62
     0
100
AcDbPoint
 10
132.0211532807974
 20
97.72694812456581
 30
0.0
  0
ENDBLK
  5
D02B
330
D023
100
AcDbEntity
  8
0
100
AcDbBlockEnd
  0
BLOCK
  5
D02E
330
D02D
100
AcDbEntity
  8
0
100
AcDbBlockBegin
  2
_D_3
 70
     0
 10
0.0
 20
0.0
 30
0.0
  3
_D_3
  1
_D_3
  0
LINE
  5
D02F
330
D02D
100
AcDbEntity
  8
0
  6
Continuous
 62
     0
370
    -2
100
AcDbLine
 10
101.9586532807974
 20
144.8774855251608
 30
0.0
 11
86.02115328079735
 21
144.8774855251608
 31
0.0
  0
LINE
  5
D030
330
D02D
100
AcDbEntity
  8
0
  6
Continuous
 62
     0
370
    -2
100
AcDbLine
 10
101.9586532807974
 20
114.8774855251608
 30
0.0
 11
86.02115328079745
 21
114.8774855251608
 31
0.0
  0
LINE
  5
D031
330
D02D
100
AcDbEntity
  8
0
  6
Continuous
 62
     0
370
    -2
100
AcDbLine
 10
86.02115328079736
 20
141.6774855251608
 30
0.0
 11
86.02115328079744
 21
118.0774855251608
 31
0.0
  0
SOLID
  5
D032
330
D02D
100
AcDbEntity
  8
0
 62
     0
100
AcDbTrace
 10
86.5544866141307
 20
141.6774855251608
 30
0.0
 11
85.48781994746403
 21
141.6774855251608
 31
0.0
 12
86.02115328079735
 22
144.8774855251608
 32
0.0
 13
86.02115328079735
 23
144.8774855251608
 33
0.0
  0
SOLID
  5
D033
330
D02D
100
AcDbEntity
  8
0
 62
     0
100
AcDbTrace
 10
85.4878199474641
 20
118.0774855251608
 30
0.0
 11
86.55448661413077
 21
118.0774855251608
 31
0.0
 12
86.02115328079745
 22
114.8774855251608
 32
0.0
 13
86.02115328079745
 23
114.8774855251608
 33
0.0
  0
MTEXT
  5
D034
330
D02D
100
AcDbEntity
  8
0
  6
HIDDEN
 62
     0
370
     0
100
AcDbMText
 10
82.0211532807974
 20
130.8121231701306
 30
0.0
 40
3.2
 41
0.0
 71
     2
 72
     1
  1
\A1;30
  7
SLDTEXTSTYLE4
 11
-3.315866100213801E-15
 21
1.0
 31
0.0
 73
     1
 44
1.0
  0
POINT
  5
D207
330
D02D
100
AcDbEntity
  8
Defpoints
 62
     0
100
AcDbPoint
 10
102.0211532807974
 20
144.8774855251608
 30
0.0
  0
POINT
  5
D208
330
D02D
100
AcDbEntity
  8
Defpoints
 62
     0
100
AcDbPoint
 10
102.0211532807974
 20
114.8774855251608
 30
0.0
  0
POINT
  5
D209
330
D02D
100
AcDbEntity
  8
Defpoints
 62
     0
100
AcDbPoint
 10
86.02115328079739
 20
114.8774855251608
 30
0.0
  0
ENDBLK
  5
D035
330
D02D
100
AcDbEntity
  8
0
100
AcDbBlockEnd
  0
BLOCK
  5
D038
330
D037
100
AcDbEntity
  8
0
100
AcDbBlockBegin
  2
_D_4
 70
     0
 10
0.0
 20
0.0
 30
0.0
  3
_D_4
  1
_D_4
  0
LINE
  5
D039
330
D037
100
AcDbEntity
  8
0
  6
Continuous
 62
     0
370
    -2
100
AcDbLine
 10
107.0211532807974
 20
144.9399855251608
 30
0.0
 11
107.0211532807974
 21
153.4040754519837
 31
0.0
  0
LINE
  5
D03A
330
D037
100
AcDbEntity
  8
0
  6
Continuous
 62
     0
370
    -2
100
AcDbLine
 10
102.0211532807974
 20
144.9399855251608
 30
0.0
 11
102.0211532807974
 21
153.4040754519837
 31
0.0
  0
LINE
  5
D03B
330
D037
100
AcDbEntity
  8
0
  6
Continuous
 62
     0
370
    -2
100
AcDbLine
 10
103.8211532807974
 20
153.4040754519837
 30
0.0
 11
105.2211532807974
 21
153.4040754519837
 31
0.0
  0
SOLID
  5
D03C
330
D037
100
AcDbEntity
  8
0
 62
     0
100
AcDbTrace
 10
103.8211532807974
 20
152.8707421186504
 30
0.0
 11
103.8211532807974
 21
153.937408785317
 31
0.0
 12
107.0211532807974
 22
153.4040754519837
 32
0.0
 13
107.0211532807974
 23
153.4040754519837
 33
0.0
  0
SOLID
  5
D03D
330
D037
100
AcDbEntity
  8
0
 62
     0
100
AcDbTrace
 10
105.2211532807974
 20
153.937408785317
 30
0.0
 11
105.2211532807974
 21
152.8707421186504
 31
0.0
 12
102.0211532807974
 22
153.4040754519837
 32
0.0
 13
102.0211532807974
 23
153.4040754519837
 33
0.0
  0
MTEXT
  5
D03E
330
D037
100
AcDbEntity
  8
0
  6
HIDDEN
 62
     0
370
     0
100
AcDbMText
 10
104.7105446364441
 20
157.4040754519837
 30
0.0
 40
3.2
 41
0.0
 71
     2
 72
     1
  1
\A1;5
  7
SLDTEXTSTYLE4
 73
     1
 44
1.0
  0
POINT
  5
D03F
330
D037
100
AcDbEntity
  8
Defpoints
 62
     0
100
AcDbPoint
 10
107.0211532807974
 20
144.8774855251608
 30
0.0
  0
POINT
  5
D040
330
D037
100
AcDbEntity
  8
Defpoints
 62
     0
100
AcDbPoint
 10
102.0211532807974
 20
144.8774855251608
 30
0.0
  0
POINT
  5
D20A
330
D037
100
AcDbEntity
  8
Defpoints
 62
     0
100
AcDbPoint
 10
102.0211532807974
 20
153.4040754519837
 30
0.0
  0
ENDBLK
  5
D041
330
D037
100
AcDbEntity
  8
0
100
AcDbBlockEnd
  0
BLOCK
  5
D044
330
D043
100
AcDbEntity
  8
0
100
AcDbBlockBegin
  2
_D_5
 70
     0
 10
0.0
 20
0.0
 30
0.0
  3
_D_5
  1
_D_5
  0
LINE
  5
D045
330
D043
100
AcDbEntity
  8
0
  6
Continuous
 62
     0
370
    -2
100
AcDbLine
 10
123.0211532807974
 20
114.8149855251608
 30
0.0
 11
123.0211532807974
 21
106.9625878743262
 31
0.0
  0
LINE
  5
D046
330
D043
100
AcDbEntity
  8
0
  6
Continuous
 62
     0
370
    -2
100
AcDbLine
 10
129.0211532807974
 20
114.8149855251608
 30
0.0
 11
129.0211532807974
 21
106.9625878743262
 31
0.0
  0
LINE
  5
D047
330
D043
100
AcDbEntity
  8
0
  6
Continuous
 62
     0
370
    -2
100
AcDbLine
 10
123.0211532807974
 20
106.9625878743262
 30
0.0
 11
111.0211532807974
 21
106.9625878743262
 31
0.0
  0
LINE
  5
D048
330
D043
100
AcDbEntity
  8
0
  6
Continuous
 62
     0
370
    -2
100
AcDbLine
 10
123.0211532807974
 20
106.9625878743262
 30
0.0
 11
129.0211532807974
 21
106.9625878743262
 31
0.0
  0
LINE
  5
D049
330
D043
100
AcDbEntity
  8
0
  6
Continuous
 62
     0
370
    -2
100
AcDbLine
 10
119.8211532807974
 20
106.9625878743262
 30
0.0
 11
116.6211532807974
 21
106.9625878743262
 31
0.0
  0
LINE
  5
D04A
330
D043
100
AcDbEntity
  8
0
  6
Continuous
 62
     0
370
    -2
100
AcDbLine
 10
132.2211532807974
 20
106.9625878743262
 30
0.0
 11
135.4211532807974
 21
106.9625878743262
 31
0.0
  0
SOLID
  5
D04B
330
D043
100
AcDbEntity
  8
0
 62
     0
100
AcDbTrace
 10
119.8211532807974
 20
106.4292545409929
 30
0.0
 11
119.8211532807974
 21
107.4959212076595
 31
0.0
 12
123.0211532807974
 22
106.9625878743262
 32
0.0
 13
123.0211532807974
 23
106.9625878743262
 33
0.0
  0
SOLID
  5
D04C
330
D043
100
AcDbEntity
  8
0
 62
     0
100
AcDbTrace
 10
132.2211532807974
 20
107.4959212076595
 30
0.0
 11
132.2211532807974
 21
106.4292545409929
 31
0.0
 12
129.0211532807974
 22
106.9625878743262
 32
0.0
 13
129.0211532807974
 23
106.9625878743262
 33
0.0
  0
MTEXT
  5
D04D
330
D043
100
AcDbEntity
  8
0
  6
HIDDEN
 62
     0
370
     0
100
AcDbMText
 10
113.8211532807974
 20
110.9625878743262
 30
0.0
 40
3.2
 41
0.0
 71
     2
 72
     1
  1
\A1;M6
  7
SLDTEXTSTYLE4
 73
     1
 44
1.0
  0
POINT
  5
D20B
330
D043
100
AcDbEntity
  8
Defpoints
 62
     0
100
AcDbPoint
 10
123.0211532807974
 20
114.8774855251608
 30
0.0
  0
POINT
  5
D20C
330
D043
100
AcDbEntity
  8
Defpoints
 62
     0
100
AcDbPoint
 10
129.0211532807974
 20
114.8774855251608
 30
0.0
  0
POINT
  5
D20D
330
D043
100
AcDbEntity
  8
Defpoints
 62
     0
100
AcDbPoint
 10
129.0211532807974
 20
106.9625878743262
 30
0.0
  0
ENDBLK
  5
D04E
330
D043
100
AcDbEntity
  8
0
100
AcDbBlockEnd
  0
BLOCK
  5
D051
330
D050
100
AcDbEntity
  8
0
100
AcDbBlockBegin
  2
_D_6
 70
     0
 10
0.0
 20
0.0
 30
0.0
  3
_D_6
  1
_D_6
  0
LINE
  5
D052
330
D050
100
AcDbEntity
  8
0
  6
Continuous
 62
     0
370
    -2
100
AcDbLine
 10
101.9586532807974
 20
135.6774855251608
 30
0.0
 11
95.472940073549
 21
135.6774855251608
 31
0.0
  0
LINE
  5
D053
330
D050
100
AcDbEntity
  8
0
  6
Continuous
 62
     0
370
    -2
100
AcDbLine
 10
101.9586532807974
 20
142.0774855251608
 30
0.0
 11
95.47294007354897
 21
142.0774855251608
 31
0.0
  0
LINE
  5
D054
330
D050
100
AcDbEntity
  8
0
  6
Continuous
 62
     0
370
    -2
100
AcDbLine
 10
95.472940073549
 20
135.6774855251608
 30
0.0
 11
95.47294007354905
 21
120.4774855251608
 31
0.0
  0
LINE
  5
D055
330
D050
100
AcDbEntity
  8
0
  6
Continuous
 62
     0
370
    -2
100
AcDbLine
 10
95.472940073549
 20
135.6774855251608
 30
0.0
 11
95.47294007354897
 21
142.0774855251608
 31
0.0
  0
LINE
  5
D056
330
D050
100
AcDbEntity
  8
0
  6
Continuous
 62
     0
370
    -2
100
AcDbLine
 10
95.47294007354901
 20
132.4774855251608
 30
0.0
 11
95.47294007354903
 21
129.2774855251608
 31
0.0
  0
LINE
  5
D057
330
D050
100
AcDbEntity
  8
0
  6
Continuous
 62
     0
370
    -2
100
AcDbLine
 10
95.47294007354895
 20
145.2774855251608
 30
0.0
 11
95.47294007354894
 21
148.4774855251608
 31
0.0
  0
SOLID
  5
D058
330
D050
100
AcDbEntity
  8
0
 62
     0
100
AcDbTrace
 10
96.00627340688234
 20
132.4774855251608
 30
0.0
 11
94.93960674021568
 21
132.4774855251608
 31
0.0
 12
95.472940073549
 22
135.6774855251608
 32
0.0
 13
95.472940073549
 23
135.6774855251608
 33
0.0
  0
SOLID
  5
D059
330
D050
100
AcDbEntity
  8
0
 62
     0
100
AcDbTrace
 10
94.93960674021562
 20
145.2774855251608
 30
0.0
 11
96.00627340688229
 21
145.2774855251608
 31
0.0
 12
95.47294007354897
 22
142.0774855251608
 32
0.0
 13
95.47294007354897
 23
142.0774855251608
 33
0.0
  0
MTEXT
  5
D05A
330
D050
100
AcDbEntity
  8
0
  6
HIDDEN
 62
     0
370
     0
100
AcDbMText
 10
91.47294007354905
 20
124.8774855251608
 30
0.0
 40
3.2
 41
0.0
 71
     2
 72
     1
  1
\A1;%%c6.4
  7
SLDTEXTSTYLE4
 11
-4.440892098500622E-15
 21
1.0
 31
0.0
 73
     1
 44
1.0
  0
POINT
  5
D20E
330
D050
100
AcDbEntity
  8
Defpoints
 62
     0
100
AcDbPoint
 10
102.0211532807974
 20
135.6774855251608
 30
0.0
  0
POINT
  5
D20F
330
D050
100
AcDbEntity
  8
Defpoints
 62
     0
100
AcDbPoint
 10
102.0211532807974
 20
142.0774855251608
 30
0.0
  0
POINT
  5
D210
330
D050
100
AcDbEntity
  8
Defpoints
 62
     0
100
AcDbPoint
 10
95.47294007354904
 20
142.0774855251608
 30
0.0
  0
ENDBLK
  5
D05B
330
D050
100
AcDbEntity
  8
0
100
AcDbBlockEnd
  0
BLOCK
  5
D05E
330
D05D
100
AcDbEntity
  8
0
100
AcDbBlockBegin
  2
_D_7
 70
     0
 10
0.0
 20
0.0
 30
0.0
  3
_D_7
  1
_D_7
  0
LINE
  5
D05F
330
D05D
100
AcDbEntity
  8
0
  6
Continuous
 62
     0
370
    -2
100
AcDbLine
 10
107.0653474546216
 20
133.6332913513367
 30
0.0
 11
118.5419094540843
 21
122.1567293518741
 31
0.0
  0
LINE
  5
D060
330
D05D
100
AcDbEntity
  8
0
  6
Continuous
 62
     0
370
    -2
100
AcDbLine
 10
107.0653474546216
 20
144.121679698985
 30
0.0
 11
118.5419094540843
 21
155.5982416984475
 31
0.0
  0
ARC
  5
D061
330
D05D
100
AcDbEntity
  8
0
  6
Continuous
 62
     0
370
    -2
100
AcDbCircle
 10
101.8211532807973
 20
138.8774855251608
 30
0.0
 40
23.64672015339588
100
AcDbArc
 50
322.7594982661179
 51
37.24050173388196
  0
SOLID
  5
D062
330
D05D
100
AcDbEntity
  8
0
 62
     0
100
AcDbTrace
 10
120.2445858726448
 20
124.9181307095406
 30
0.0
 11
121.0481389389928
 21
124.2166463922958
 31
0.0
 12
118.5419094540843
 22
122.1567293518741
 32
0.0
 13
118.5419094540843
 23
122.1567293518741
 33
0.0
  0
SOLID
  5
D063
330
D05D
100
AcDbEntity
  8
0
 62
     0
100
AcDbTrace
 10
121.0481389389928
 20
153.5383246580258
 30
0.0
 11
120.2445858726448
 21
152.836840340781
 31
0.0
 12
118.5419094540843
 22
155.5982416984475
 32
0.0
 13
118.5419094540843
 23
155.5982416984475
 33
0.0
  0
MTEXT
  5
D064
330
D05D
100
AcDbEntity
  8
0
  6
HIDDEN
 62
     0
370
     0
100
AcDbMText
 10
121.4023168738041
 20
135.8227113715188
 30
0.0
 40
3.2
 41
0.0
 71
     1
 72
     1
  1
\A1;90%%d
  7
SLDTEXTSTYLE4
 11
0.02318315424784876
 21
0.99973123456213
 31
0.0
 73
     1
 44
1.0
  0
POINT
  5
D211
330
D05D
100
AcDbEntity
  8
Defpoints
 62
     0
100
AcDbPoint
 10
124.6621309839926
 20
144.9977070550692
 30
0.0
  0
POINT
  5
D212
330
D05D
100
AcDbEntity
  8
Defpoints
 62
     0
100
AcDbPoint
 10
107.0211532807974
 20
144.0774855251608
 30
0.0
  0
POINT
  5
D213
330
D05D
100
AcDbEntity
  8
Defpoints
 62
     0
100
AcDbPoint
 10
105.0211532807974
 20
135.6774855251608
 30
0.0
  0
POINT
  5
D214
330
D05D
100
AcDbEntity
  8
Defpoints
 62
     0
100
AcDbPoint
 10
107.0211532807974
 20
133.6774855251608
 30
0.0
  0
POINT
  5
D215
330
D05D
100
AcDbEntity
  8
Defpoints
 62
     0
100
AcDbPoint
 10
105.0211532807974
 20
142.0774855251608
 30
0.0
  0
ENDBLK
  5
D065
330
D05D
100
AcDbEntity
  8
0
100
AcDbBlockEnd
  0
BLOCK
  5
D068
330
D067
100
AcDbEntity
  8
0
100
AcDbBlockBegin
  2
_D_8
 70
     0
 10
0.0
 20
0.0
 30
0.0
  3
_D_8
  1
_D_8
  0
LINE
  5
D069
330
D067
100
AcDbEntity
  8
0
  6
Continuous
 62
     0
370
    -2
100
AcDbLine
 10
128.5836532807974
 20
119.3774855251608
 30
0.0
 11
143.4904604422772
 21
119.3774855251609
 31
0.0
  0
LINE
  5
D06A
330
D067
100
AcDbEntity
  8
0
  6
Continuous
 62
     0
370
    -2
100
AcDbLine
 10
132.0836532807974
 20
119.8774855251608
 30
0.0
 11
143.4904604422772
 21
119.8774855251608
 31
0.0
  0
LINE
  5
D06B
330
D067
100
AcDbEntity
  8
0
  6
Continuous
 62
     0
370
    -2
100
AcDbLine
 10
143.4904604422772
 20
119.3774855251609
 30
0.0
 11
143.4904604422772
 21
98.17748552516085
 31
0.0
  0
LINE
  5
D06C
330
D067
100
AcDbEntity
  8
0
  6
Continuous
 62
     0
370
    -2
100
AcDbLine
 10
143.4904604422772
 20
119.3774855251609
 30
0.0
 11
143.4904604422772
 21
119.8774855251608
 31
0.0
  0
LINE
  5
D06D
330
D067
100
AcDbEntity
  8
0
  6
Continuous
 62
     0
370
    -2
100
AcDbLine
 10
143.4904604422772
 20
116.1774855251609
 30
0.0
 11
143.4904604422772
 21
112.9774855251609
 31
0.0
  0
LINE
  5
D06E
330
D067
100
AcDbEntity
  8
0
  6
Continuous
 62
     0
370
    -2
100
AcDbLine
 10
143.4904604422772
 20
123.0774855251609
 30
0.0
 11
143.4904604422772
 21
126.2774855251609
 31
0.0
  0
SOLID
  5
D06F
330
D067
100
AcDbEntity
  8
0
 62
     0
100
AcDbTrace
 10
144.0237937756105
 20
116.1774855251609
 30
0.0
 11
142.9571271089438
 21
116.1774855251609
 31
0.0
 12
143.4904604422772
 22
119.3774855251609
 32
0.0
 13
143.4904604422772
 23
119.3774855251609
 33
0.0
  0
SOLID
  5
D070
330
D067
100
AcDbEntity
  8
0
 62
     0
100
AcDbTrace
 10
142.9571271089438
 20
123.0774855251609
 30
0.0
 11
144.0237937756105
 21
123.0774855251609
 31
0.0
 12
143.4904604422772
 22
119.8774855251608
 32
0.0
 13
143.4904604422772
 23
119.8774855251608
 33
0.0
  0
MTEXT
  5
D071
330
D067
100
AcDbEntity
  8
0
  6
HIDDEN
 62
     0
370
     0
100
AcDbMText
 10
139.4904604422772
 20
105.5774855251609
 30
0.0
 40
3.2
 41
0.0
 71
     2
 72
     1
  1
\A1;0.5x45°
  7
SLDTEXTSTYLE4
 11
0.0
 21
1.0
 31
0.0
 73
     1
 44
1.0
  0
POINT
  5
D216
330
D067
100
AcDbEntity
  8
Defpoints
 62
     0
100
AcDbPoint
 10
128.5211532807974
 20
119.3774855251608
 30
0.0
  0
POINT
  5
D217
330
D067
100
AcDbEntity
  8
Defpoints
 62
     0
100
AcDbPoint
 10
132.0211532807974
 20
119.8774855251608
 30
0.0
  0
POINT
  5
D218
330
D067
100
AcDbEntity
  8
Defpoints
 62
     0
100
AcDbPoint
 10
143.4904604422772
 20
119.8774855251608
 30
0.0
  0
ENDBLK
  5
D072
330
D067
100
AcDbEntity
  8
0
100
AcDbBlockEnd
  0
BLOCK
  5
D0AD
330
D0AC
100
AcDbEntity
  8
0
100
AcDbBlockBegin
  2
_D_9
 70
     0
 10
0.0
 20
0.0
 30
0.0
  3
_D_9
  1
_D_9
  0
LINE
  5
D0AE
330
D0AC
100
AcDbEntity
  8
0
  6
Continuous
 62
     0
370
    -2
100
AcDbLine
 10
34.014223804717
 20
133.6399855251608
 30
0.0
 11
34.014223804717
 21
160.8774855251605
 31
0.0
  0
LINE
  5
D0AF
330
D0AC
100
AcDbEntity
  8
0
  6
Continuous
 62
     0
370
    -2
100
AcDbLine
 10
50.014223804717
 20
146.6399855251608
 30
0.0
 11
50.014223804717
 21
160.8774855251605
 31
0.0
  0
LINE
  5
D0B0
330
D0AC
100
AcDbEntity
  8
0
  6
Continuous
 62
     0
370
    -2
100
AcDbLine
 10
37.214223804717
 20
160.8774855251605
 30
0.0
 11
46.814223804717
 21
160.8774855251605
 31
0.0
  0
SOLID
  5
D0B1
330
D0AC
100
AcDbEntity
  8
0
 62
     0
100
AcDbTrace
 10
37.214223804717
 20
161.4108188584938
 30
0.0
 11
37.214223804717
 21
160.3441521918272
 31
0.0
 12
34.014223804717
 22
160.8774855251605
 32
0.0
 13
34.014223804717
 23
160.8774855251605
 33
0.0
  0
SOLID
  5
D0B2
330
D0AC
100
AcDbEntity
  8
0
 62
     0
100
AcDbTrace
 10
46.814223804717
 20
160.3441521918272
 30
0.0
 11
46.814223804717
 21
161.4108188584938
 31
0.0
 12
50.014223804717
 22
160.8774855251605
 32
0.0
 13
50.014223804717
 23
160.8774855251605
 33
0.0
  0
MTEXT
  5
D0B3
330
D0AC
100
AcDbEntity
  8
0
  6
HIDDEN
 62
     0
370
     0
100
AcDbMText
 10
41.7939975072594
 20
164.8774855251605
 30
0.0
 40
3.2
 41
0.0
 71
     2
 72
     1
  1
\A1;16
  7
SLDTEXTSTYLE4
 73
     1
 44
1.0
  0
POINT
  5
D219
330
D0AC
100
AcDbEntity
  8
Defpoints
 62
     0
100
AcDbPoint
 10
34.014223804717
 20
133.5774855251608
 30
0.0
  0
POINT
  5
D21A
330
D0AC
100
AcDbEntity
  8
Defpoints
 62
     0
100
AcDbPoint
 10
50.014223804717
 20
146.5774855251608
 30
0.0
  0
POINT
  5
D21B
330
D0AC
100
AcDbEntity
  8
Defpoints
 62
     0
100
AcDbPoint
 10
50.014223804717
 20
160.8774855251605
 30
0.0
  0
ENDBLK
  5
D0B4
330
D0AC
100
AcDbEntity
  8
0
100
AcDbBlockEnd
  0
BLOCK
  5
D0B7
330
D0B6
100
AcDbEntity
  8
0
100
AcDbBlockBegin
  2
_D_10
 70
     0
 10
0.0
 20
0.0
 30
0.0
  3
_D_10
  1
_D_10
  0
LINE
  5
D0B8
330
D0B6
100
AcDbEntity
  8
0
  6
Continuous
 62
     0
370
    -2
100
AcDbLine
 10
34.014223804717
 20
133.6399855251608
 30
0.0
 11
34.014223804717
 21
160.8774855251607
 31
0.0
  0
LINE
  5
D0B9
330
D0B6
100
AcDbEntity
  8
0
  6
Continuous
 62
     0
370
    -2
100
AcDbLine
 10
28.01422380471701
 20
144.9399855251608
 30
0.0
 11
28.01422380471701
 21
160.8774855251607
 31
0.0
  0
LINE
  5
D0BA
330
D0B6
100
AcDbEntity
  8
0
  6
Continuous
 62
     0
370
    -2
100
AcDbLine
 10
30.814223804717
 20
160.8774855251607
 30
0.0
 11
31.214223804717
 21
160.8774855251607
 31
0.0
  0
SOLID
  5
D0BB
330
D0B6
100
AcDbEntity
  8
0
 62
     0
100
AcDbTrace
 10
30.814223804717
 20
160.3441521918273
 30
0.0
 11
30.814223804717
 21
161.410818858494
 31
0.0
 12
34.014223804717
 22
160.8774855251607
 32
0.0
 13
34.014223804717
 23
160.8774855251607
 33
0.0
  0
SOLID
  5
D0BC
330
D0B6
100
AcDbEntity
  8
0
 62
     0
100
AcDbTrace
 10
31.214223804717
 20
161.410818858494
 30
0.0
 11
31.214223804717
 21
160.3441521918273
 31
0.0
 12
28.01422380471701
 22
160.8774855251607
 32
0.0
 13
28.01422380471701
 23
160.8774855251607
 33
0.0
  0
MTEXT
  5
D0BD
330
D0B6
100
AcDbEntity
  8
0
  6
HIDDEN
 62
     0
370
     0
100
AcDbMText
 10
30.50789413097775
 20
164.8774855251607
 30
0.0
 40
3.2
 41
0.0
 71
     2
 72
     1
  1
\A1;6
  7
SLDTEXTSTYLE4
 73
     1
 44
1.0
  0
POINT
  5
D0BE
330
D0B6
100
AcDbEntity
  8
Defpoints
 62
     0
100
AcDbPoint
 10
34.014223804717
 20
133.5774855251608
 30
0.0
  0
POINT
  5
D0BF
330
D0B6
100
AcDbEntity
  8
Defpoints
 62
     0
100
AcDbPoint
 10
28.01422380471701
 20
144.8774855251608
 30
0.0
  0
POINT
  5
D21C
330
D0B6
100
AcDbEntity
  8
Defpoints
 62
     0
100
AcDbPoint
 10
28.01422380471701
 20
160.8774855251607
 30
0.0
  0
ENDBLK
  5
D0C0
330
D0B6
100
AcDbEntity
  8
0
100
AcDbBlockEnd
  0
BLOCK
  5
D0C3
330
D0C2
100
AcDbEntity
  8
0
100
AcDbBlockBegin
  2
_D_11
 70
     0
 10
0.0
 20
0.0
 30
0.0
  3
_D_11
  1
_D_11
  0
LINE
  5
D0C4
330
D0C2
100
AcDbEntity
  8
0
  6
Continuous
 62
     0
370
    -2
100
AcDbLine
 10
50.014223804717
 20
146.6399855251608
 30
0.0
 11
50.014223804717
 21
160.8774855251606
 31
0.0
  0
LINE
  5
D0C5
330
D0C2
100
AcDbEntity
  8
0
  6
Continuous
 62
     0
370
    -2
100
AcDbLine
 10
56.01422380471701
 20
144.9399855251608
 30
0.0
 11
56.01422380471701
 21
160.8774855251606
 31
0.0
  0
LINE
  5
D0C6
330
D0C2
100
AcDbEntity
  8
0
  6
Continuous
 62
     0
370
    -2
100
AcDbLine
 10
53.214223804717
 20
160.8774855251606
 30
0.0
 11
52.81422380471701
 21
160.8774855251606
 31
0.0
  0
SOLID
  5
D0C7
330
D0C2
100
AcDbEntity
  8
0
 62
     0
100
AcDbTrace
 10
53.214223804717
 20
161.4108188584939
 30
0.0
 11
53.214223804717
 21
160.3441521918273
 31
0.0
 12
50.014223804717
 22
160.8774855251606
 32
0.0
 13
50.014223804717
 23
160.8774855251606
 33
0.0
  0
SOLID
  5
D0C8
330
D0C2
100
AcDbEntity
  8
0
 62
     0
100
AcDbTrace
 10
52.81422380471701
 20
160.3441521918273
 30
0.0
 11
52.81422380471701
 21
161.4108188584939
 31
0.0
 12
56.01422380471701
 22
160.8774855251606
 32
0.0
 13
56.01422380471701
 23
160.8774855251606
 33
0.0
  0
MTEXT
  5
D0C9
330
D0C2
100
AcDbEntity
  8
0
  6
HIDDEN
 62
     0
370
     0
100
AcDbMText
 10
53.05283239218203
 20
164.8774855251606
 30
0.0
 40
3.2
 41
0.0
 71
     2
 72
     1
  1
\A1;6
  7
SLDTEXTSTYLE4
 73
     1
 44
1.0
  0
POINT
  5
D0CA
330
D0C2
100
AcDbEntity
  8
Defpoints
 62
     0
100
AcDbPoint
 10
50.014223804717
 20
146.5774855251608
 30
0.0
  0
POINT
  5
D0CB
330
D0C2
100
AcDbEntity
  8
Defpoints
 62
     0
100
AcDbPoint
 10
56.01422380471701
 20
144.8774855251608
 30
0.0
  0
POINT
  5
D21D
330
D0C2
100
AcDbEntity
  8
Defpoints
 62
     0
100
AcDbPoint
 10
56.01422380471701
 20
160.8774855251606
 30
0.0
  0
ENDBLK
  5
D0CC
330
D0C2
100
AcDbEntity
  8
0
100
AcDbBlockEnd
  0
BLOCK
  5
D0CF
330
D0CE
100
AcDbEntity
  8
0
100
AcDbBlockBegin
  2
_D_12
 70
     0
 10
0.0
 20
0.0
 30
0.0
  3
_D_12
  1
_D_12
  0
LINE
  5
D0D0
330
D0CE
100
AcDbEntity
  8
0
  6
Continuous
 62
     0
370
    -2
100
AcDbLine
 10
57.776723804717
 20
138.8774855251608
 30
0.0
 11
66.01422380471702
 21
138.8774855251608
 31
0.0
  0
LINE
  5
D0D1
330
D0CE
100
AcDbEntity
  8
0
  6
Continuous
 62
     0
370
    -2
100
AcDbLine
 10
56.07672380471701
 20
144.8774855251608
 30
0.0
 11
66.014223804717
 21
144.8774855251608
 31
0.0
  0
LINE
  5
D0D2
330
D0CE
100
AcDbEntity
  8
0
  6
Continuous
 62
     0
370
    -2
100
AcDbLine
 10
66.014223804717
 20
142.0774855251608
 30
0.0
 11
66.01422380471702
 21
141.6774855251608
 31
0.0
  0
SOLID
  5
D0D3
330
D0CE
100
AcDbEntity
  8
0
 62
     0
100
AcDbTrace
 10
65.48089047138367
 20
142.0774855251608
 30
0.0
 11
66.54755713805034
 21
142.0774855251608
 31
0.0
 12
66.01422380471702
 22
138.8774855251608
 32
0.0
 13
66.01422380471702
 23
138.8774855251608
 33
0.0
  0
SOLID
  5
D0D4
330
D0CE
100
AcDbEntity
  8
0
 62
     0
100
AcDbTrace
 10
66.54755713805035
 20
141.6774855251608
 30
0.0
 11
65.48089047138369
 21
141.6774855251608
 31
0.0
 12
66.014223804717
 22
144.8774855251608
 32
0.0
 13
66.014223804717
 23
144.8774855251608
 33
0.0
  0
MTEXT
  5
D0D5
330
D0CE
100
AcDbEntity
  8
0
  6
HIDDEN
 62
     0
370
     0
100
AcDbMText
 10
62.01422380471701
 20
142.2583097576386
 30
0.0
 40
3.2
 41
0.0
 71
     2
 72
     1
  1
\A1;6
  7
SLDTEXTSTYLE4
 11
-2.368475785867000E-15
 21
1.0
 31
0.0
 73
     1
 44
1.0
  0
POINT
  5
D0D6
330
D0CE
100
AcDbEntity
  8
Defpoints
 62
     0
100
AcDbPoint
 10
57.714223804717
 20
138.8774855251608
 30
0.0
  0
POINT
  5
D0D7
330
D0CE
100
AcDbEntity
  8
Defpoints
 62
     0
100
AcDbPoint
 10
56.01422380471701
 20
144.8774855251608
 30
0.0
  0
POINT
  5
D21E
330
D0CE
100
AcDbEntity
  8
Defpoints
 62
     0
100
AcDbPoint
 10
66.014223804717
 20
144.8774855251608
 30
0.0
  0
ENDBLK
  5
D0D8
330
D0CE
100
AcDbEntity
  8
0
100
AcDbBlockEnd
  0
BLOCK
  5
D0DB
330
D0DA
100
AcDbEntity
  8
0
100
AcDbBlockBegin
  2
_D_13
 70
     0
 10
0.0
 20
0.0
 30
0.0
  3
_D_13
  1
_D_13
  0
LINE
  5
D0DC
330
D0DA
100
AcDbEntity
  8
0
  6
Continuous
 62
     0
370
    -2
100
AcDbLine
 10
41.77672380471701
 20
125.8774855251608
 30
0.0
 11
66.01422380471702
 21
125.8774855251609
 31
0.0
  0
LINE
  5
D0DD
330
D0DA
100
AcDbEntity
  8
0
  6
Continuous
 62
     0
370
    -2
100
AcDbLine
 10
57.776723804717
 20
138.8774855251608
 30
0.0
 11
66.01422380471698
 21
138.8774855251608
 31
0.0
  0
LINE
  5
D0DE
330
D0DA
100
AcDbEntity
  8
0
  6
Continuous
 62
     0
370
    -2
100
AcDbLine
 10
66.014223804717
 20
129.0774855251609
 30
0.0
 11
66.01422380471699
 21
135.6774855251608
 31
0.0
  0
SOLID
  5
D0DF
330
D0DA
100
AcDbEntity
  8
0
 62
     0
100
AcDbTrace
 10
65.48089047138367
 20
129.0774855251609
 30
0.0
 11
66.54755713805034
 21
129.0774855251609
 31
0.0
 12
66.01422380471702
 22
125.8774855251609
 32
0.0
 13
66.01422380471702
 23
125.8774855251609
 33
0.0
  0
SOLID
  5
D0E0
330
D0DA
100
AcDbEntity
  8
0
 62
     0
100
AcDbTrace
 10
66.54755713805032
 20
135.6774855251608
 30
0.0
 11
65.48089047138366
 21
135.6774855251608
 31
0.0
 12
66.01422380471698
 22
138.8774855251608
 32
0.0
 13
66.01422380471698
 23
138.8774855251608
 33
0.0
  0
MTEXT
  5
D0E1
330
D0DA
100
AcDbEntity
  8
0
  6
HIDDEN
 62
     0
370
     0
100
AcDbMText
 10
62.01422380471701
 20
132.3122064044422
 30
0.0
 40
3.2
 41
0.0
 71
     2
 72
     1
  1
\A1;13
  7
SLDTEXTSTYLE4
 11
-3.279428011200477E-15
 21
1.0
 31
0.0
 73
     1
 44
1.0
  0
POINT
  5
D21F
330
D0DA
100
AcDbEntity
  8
Defpoints
 62
     0
100
AcDbPoint
 10
41.71422380471701
 20
125.8774855251608
 30
0.0
  0
POINT
  5
D220
330
D0DA
100
AcDbEntity
  8
Defpoints
 62
     0
100
AcDbPoint
 10
57.714223804717
 20
138.8774855251608
 30
0.0
  0
POINT
  5
D221
330
D0DA
100
AcDbEntity
  8
Defpoints
 62
     0
100
AcDbPoint
 10
66.014223804717
 20
138.8774855251608
 30
0.0
  0
ENDBLK
  5
D0E2
330
D0DA
100
AcDbEntity
  8
0
100
AcDbBlockEnd
  0
BLOCK
  5
D0E5
330
D0E4
100
AcDbEntity
  8
0
100
AcDbBlockBegin
  2
_D_14
 70
     0
 10
0.0
 20
0.0
 30
0.0
  3
_D_14
  1
_D_14
  0
LINE
  5
D0E6
330
D0E4
100
AcDbEntity
  8
0
  6
Continuous
 62
     0
370
    -2
100
AcDbLine
 10
36.01422380471702
 20
144.9399855251608
 30
0.0
 11
36.01422380471702
 21
152.0137884289442
 31
0.0
  0
LINE
  5
D0E7
330
D0E4
100
AcDbEntity
  8
0
  6
Continuous
 62
     0
370
    -2
100
AcDbLine
 10
32.01422380471701
 20
144.9399855251608
 30
0.0
 11
32.01422380471701
 21
152.0137884289442
 31
0.0
  0
LINE
  5
D0E8
330
D0E4
100
AcDbEntity
  8
0
  6
Continuous
 62
     0
370
    -2
100
AcDbLine
 10
36.01422380471702
 20
152.0137884289442
 30
0.0
 11
48.01422380471701
 21
152.0137884289442
 31
0.0
  0
LINE
  5
D0E9
330
D0E4
100
AcDbEntity
  8
0
  6
Continuous
 62
     0
370
    -2
100
AcDbLine
 10
36.01422380471702
 20
152.0137884289442
 30
0.0
 11
32.01422380471701
 21
152.0137884289442
 31
0.0
  0
LINE
  5
D0EA
330
D0E4
100
AcDbEntity
  8
0
  6
Continuous
 62
     0
370
    -2
100
AcDbLine
 10
39.21422380471702
 20
152.0137884289442
 30
0.0
 11
42.41422380471703
 21
152.0137884289442
 31
0.0
  0
LINE
  5
D0EB
330
D0E4
100
AcDbEntity
  8
0
  6
Continuous
 62
     0
370
    -2
100
AcDbLine
 10
28.81422380471701
 20
152.0137884289442
 30
0.0
 11
25.61422380471701
 21
152.0137884289442
 31
0.0
  0
SOLID
  5
D0EC
330
D0E4
100
AcDbEntity
  8
0
 62
     0
100
AcDbTrace
 10
39.21422380471702
 20
152.5471217622776
 30
0.0
 11
39.21422380471702
 21
151.4804550956109
 31
0.0
 12
36.01422380471702
 22
152.0137884289442
 32
0.0
 13
36.01422380471702
 23
152.0137884289442
 33
0.0
  0
SOLID
  5
D0ED
330
D0E4
100
AcDbEntity
  8
0
 62
     0
100
AcDbTrace
 10
28.81422380471701
 20
151.4804550956109
 30
0.0
 11
28.81422380471701
 21
152.5471217622776
 31
0.0
 12
32.01422380471701
 22
152.0137884289442
 32
0.0
 13
32.01422380471701
 23
152.0137884289442
 33
0.0
  0
MTEXT
  5
D0EE
330
D0E4
100
AcDbEntity
  8
0
  6
HIDDEN
 62
     0
370
     0
100
AcDbMText
 10
45.21422380471702
 20
156.0137884289442
 30
0.0
 40
3.2
 41
0.0
 71
     2
 72
     1
  1
\A1;M4
  7
SLDTEXTSTYLE4
 73
     1
 44
1.0
  0
POINT
  5
D222
330
D0E4
100
AcDbEntity
  8
Defpoints
 62
     0
100
AcDbPoint
 10
36.01422380471702
 20
144.8774855251608
 30
0.0
  0
POINT
  5
D223
330
D0E4
100
AcDbEntity
  8
Defpoints
 62
     0
100
AcDbPoint
 10
32.01422380471701
 20
144.8774855251608
 30
0.0
  0
POINT
  5
D224
330
D0E4
100
AcDbEntity
  8
Defpoints
 62
     0
100
AcDbPoint
 10
32.01422380471701
 20
152.0137884289442
 30
0.0
  0
ENDBLK
  5
D0EF
330
D0E4
100
AcDbEntity
  8
0
100
AcDbBlockEnd
  0
BLOCK
  5
D0F2
330
D0F1
100
AcDbEntity
  8
0
100
AcDbBlockBegin
  2
_D_15
 70
     0
 10
0.0
 20
0.0
 30
0.0
  3
_D_15
  1
_D_15
  0
LINE
  5
D0F3
330
D0F1
100
AcDbEntity
  8
0
  6
Continuous
 62
     0
370
    -2
100
AcDbLine
 10
27.95172380471701
 20
144.8774855251608
 30
0.0
 11
12.01422380471689
 21
144.8774855251608
 31
0.0
  0
LINE
  5
D0F4
330
D0F1
100
AcDbEntity
  8
0
  6
Continuous
 62
     0
370
    -2
100
AcDbLine
 10
31.95172380471701
 20
134.8774855251608
 30
0.0
 11
12.01422380471692
 21
134.8774855251608
 31
0.0
  0
LINE
  5
D0F5
330
D0F1
100
AcDbEntity
  8
0
  6
Continuous
 62
     0
370
    -2
100
AcDbLine
 10
12.0142238047169
 20
141.6774855251608
 30
0.0
 11
12.01422380471691
 21
138.0774855251607
 31
0.0
  0
SOLID
  5
D0F6
330
D0F1
100
AcDbEntity
  8
0
 62
     0
100
AcDbTrace
 10
12.54755713805023
 20
141.6774855251608
 30
0.0
 11
11.48089047138357
 21
141.6774855251608
 31
0.0
 12
12.01422380471689
 22
144.8774855251608
 32
0.0
 13
12.01422380471689
 23
144.8774855251608
 33
0.0
  0
SOLID
  5
D0F7
330
D0F1
100
AcDbEntity
  8
0
 62
     0
100
AcDbTrace
 10
11.48089047138358
 20
138.0774855251607
 30
0.0
 11
12.54755713805025
 21
138.0774855251607
 31
0.0
 12
12.01422380471692
 22
134.8774855251608
 32
0.0
 13
12.01422380471692
 23
134.8774855251608
 33
0.0
  0
MTEXT
  5
D0F8
330
D0F1
100
AcDbEntity
  8
0
  6
HIDDEN
 62
     0
370
     0
100
AcDbMText
 10
8.014223804716911
 20
139.6544614558491
 30
0.0
 40
3.2
 41
0.0
 71
     2
 72
     1
  1
\A1;10
  7
SLDTEXTSTYLE4
 11
-3.552713678800491E-15
 21
1.0
 31
0.0
 73
     1
 44
1.0
  0
POINT
  5
D225
330
D0F1
100
AcDbEntity
  8
Defpoints
 62
     0
100
AcDbPoint
 10
28.01422380471701
 20
144.8774855251608
 30
0.0
  0
POINT
  5
D226
330
D0F1
100
AcDbEntity
  8
Defpoints
 62
     0
100
AcDbPoint
 10
32.01422380471701
 20
134.8774855251608
 30
0.0
  0
POINT
  5
D227
330
D0F1
100
AcDbEntity
  8
Defpoints
 62
     0
100
AcDbPoint
 10
12.01422380471691
 20
134.8774855251607
 30
0.0
  0
ENDBLK
  5
D0F9
330
D0F1
100
AcDbEntity
  8
0
100
AcDbBlockEnd
  0
BLOCK
  5
D0FC
330
D0FB
100
AcDbEntity
  8
0
100
AcDbBlockBegin
  2
_D_16
 70
     0
 10
0.0
 20
0.0
 30
0.0
  3
_D_16
  1
_D_16
  0
LINE
  5
D0FD
330
D0FB
100
AcDbEntity
  8
0
  6
Continuous
 62
     0
370
    -2
100
AcDbLine
 10
33.95172380471701
 20
131.8760655037653
 30
0.0
 11
4.000000000000035
 21
131.8760655037652
 31
0.0
  0
LINE
  5
D0FE
330
D0FB
100
AcDbEntity
  8
0
  6
Continuous
 62
     0
370
    -2
100
AcDbLine
 10
27.95172380471701
 20
144.8774855251608
 30
0.0
 11
3.99999999999999
 21
144.8774855251607
 31
0.0
  0
LINE
  5
D0FF
330
D0FB
100
AcDbEntity
  8
0
  6
Continuous
 62
     0
370
    -2
100
AcDbLine
 10
4.000000000000023
 20
135.0760655037652
 30
0.0
 11
4.000000000000001
 21
141.6774855251607
 31
0.0
  0
SOLID
  5
D100
330
D0FB
100
AcDbEntity
  8
0
 62
     0
100
AcDbTrace
 10
3.46666666666669
 20
135.0760655037652
 30
0.0
 11
4.533333333333356
 21
135.0760655037652
 31
0.0
 12
4.000000000000035
 22
131.8760655037652
 32
0.0
 13
4.000000000000035
 23
131.8760655037652
 33
0.0
  0
SOLID
  5
D101
330
D0FB
100
AcDbEntity
  8
0
 62
     0
100
AcDbTrace
 10
4.533333333333334
 20
141.6774855251607
 30
0.0
 11
3.466666666666668
 21
141.6774855251607
 31
0.0
 12
3.99999999999999
 22
144.8774855251607
 32
0.0
 13
3.99999999999999
 23
144.8774855251607
 33
0.0
  0
MTEXT
  5
D102
330
D0FB
100
AcDbEntity
  8
0
  6
HIDDEN
 62
     0
370
     0
100
AcDbMText
 10
0.00000000000002
 20
137.8521356193671
 30
0.0
 40
3.2
 41
0.0
 71
     2
 72
     1
  1
\A1;13
  7
SLDTEXTSTYLE4
 11
-3.484011694889031E-15
 21
1.0
 31
0.0
 73
     1
 44
1.0
  0
POINT
  5
D228
330
D0FB
100
AcDbEntity
  8
Defpoints
 62
     0
100
AcDbPoint
 10
34.01422380471701
 20
131.8760655037653
 30
0.0
  0
POINT
  5
D229
330
D0FB
100
AcDbEntity
  8
Defpoints
 62
     0
100
AcDbPoint
 10
28.01422380471701
 20
144.8774855251608
 30
0.0
  0
POINT
  5
D22A
330
D0FB
100
AcDbEntity
  8
Defpoints
 62
     0
100
AcDbPoint
 10
4.000000000000014
 20
144.8774855251607
 30
0.0
  0
ENDBLK
  5
D103
330
D0FB
100
AcDbEntity
  8
0
100
AcDbBlockEnd
  0
BLOCK
  5
D106
330
D105
100
AcDbEntity
  8
0
100
AcDbBlockBegin
  2
_D_17
 70
     0
 10
0.0
 20
0.0
 30
0.0
  3
_D_17
  1
_D_17
  0
LINE
  5
D107
330
D105
100
AcDbEntity
  8
0
  6
Continuous
 62
     0
370
    -2
100
AcDbLine
 10
32.30172380471701
 20
144.5774855251608
 30
0.0
 11
19.38993479611265
 21
144.5774855251608
 31
0.0
  0
LINE
  5
D108
330
D105
100
AcDbEntity
  8
0
  6
Continuous
 62
     0
370
    -2
100
AcDbLine
 10
27.95172380471701
 20
144.8774855251608
 30
0.0
 11
19.38993479611265
 21
144.8774855251608
 31
0.0
  0
LINE
  5
D109
330
D105
100
AcDbEntity
  8
0
  6
Continuous
 62
     0
370
    -2
100
AcDbLine
 10
19.38993479611265
 20
144.8774855251608
 30
0.0
 11
19.38993479611265
 21
166.0774855251608
 31
0.0
  0
LINE
  5
D10A
330
D105
100
AcDbEntity
  8
0
  6
Continuous
 62
     0
370
    -2
100
AcDbLine
 10
19.38993479611265
 20
144.5774855251608
 30
0.0
 11
19.38993479611265
 21
144.8774855251608
 31
0.0
  0
LINE
  5
D10B
330
D105
100
AcDbEntity
  8
0
  6
Continuous
 62
     0
370
    -2
100
AcDbLine
 10
19.38993479611265
 20
141.3774855251608
 30
0.0
 11
19.38993479611265
 21
138.1774855251608
 31
0.0
  0
LINE
  5
D10C
330
D105
100
AcDbEntity
  8
0
  6
Continuous
 62
     0
370
    -2
100
AcDbLine
 10
19.38993479611265
 20
148.0774855251608
 30
0.0
 11
19.38993479611265
 21
151.2774855251608
 31
0.0
  0
SOLID
  5
D10D
330
D105
100
AcDbEntity
  8
0
 62
     0
100
AcDbTrace
 10
19.92326812944598
 20
141.3774855251608
 30
0.0
 11
18.85660146277931
 21
141.3774855251608
 31
0.0
 12
19.38993479611265
 22
144.5774855251608
 32
0.0
 13
19.38993479611265
 23
144.5774855251608
 33
0.0
  0
SOLID
  5
D10E
330
D105
100
AcDbEntity
  8
0
 62
     0
100
AcDbTrace
 10
18.85660146277931
 20
148.0774855251608
 30
0.0
 11
19.92326812944598
 21
148.0774855251608
 31
0.0
 12
19.38993479611265
 22
144.8774855251608
 32
0.0
 13
19.38993479611265
 23
144.8774855251608
 33
0.0
  0
MTEXT
  5
D10F
330
D105
100
AcDbEntity
  8
0
  6
HIDDEN
 62
     0
370
     0
100
AcDbMText
 10
15.38993479611265
 20
158.6774855251608
 30
0.0
 40
3.2
 41
0.0
 71
     2
 72
     1
  1
\A1;0.3x45°
  7
SLDTEXTSTYLE4
 11
0.0
 21
1.0
 31
0.0
 73
     1
 44
1.0
  0
POINT
  5
D22B
330
D105
100
AcDbEntity
  8
Defpoints
 62
     0
100
AcDbPoint
 10
32.36422380471701
 20
144.5774855251608
 30
0.0
  0
POINT
  5
D22C
330
D105
100
AcDbEntity
  8
Defpoints
 62
     0
100
AcDbPoint
 10
28.01422380471701
 20
144.8774855251608
 30
0.0
  0
POINT
  5
D22D
330
D105
100
AcDbEntity
  8
Defpoints
 62
     0
100
AcDbPoint
 10
19.38993479611265
 20
144.8774855251608
 30
0.0
  0
ENDBLK
  5
D110
330
D105
100
AcDbEntity
  8
0
100
AcDbBlockEnd
  0
BLOCK
  5
D113
330
D112
100
AcDbEntity
  8
0
100
AcDbBlockBegin
  2
_D_18
 70
     0
 10
0.0
 20
0.0
 30
0.0
  3
_D_18
  1
_D_18
  0
LINE
  5
D114
330
D112
100
AcDbEntity
  8
0
  6
Continuous
 62
     0
370
    -2
100
AcDbLine
 10
56.07672380471701
 20
144.8774855251608
 30
0.0
 11
75.97298420987501
 21
144.8774855251609
 31
0.0
  0
LINE
  5
D115
330
D112
100
AcDbEntity
  8
0
  6
Continuous
 62
     0
370
    -2
100
AcDbLine
 10
49.776723804717
 20
134.3774855251608
 30
0.0
 11
75.97298420987505
 21
134.3774855251609
 31
0.0
  0
LINE
  5
D116
330
D112
100
AcDbEntity
  8
0
  6
Continuous
 62
     0
370
    -2
100
AcDbLine
 10
75.97298420987502
 20
141.6774855251609
 30
0.0
 11
75.97298420987504
 21
137.5774855251609
 31
0.0
  0
SOLID
  5
D117
330
D112
100
AcDbEntity
  8
0
 62
     0
100
AcDbTrace
 10
76.50631754320835
 20
141.6774855251609
 30
0.0
 11
75.43965087654169
 21
141.6774855251609
 31
0.0
 12
75.97298420987501
 22
144.8774855251609
 32
0.0
 13
75.97298420987501
 23
144.8774855251609
 33
0.0
  0
SOLID
  5
D118
330
D112
100
AcDbEntity
  8
0
 62
     0
100
AcDbTrace
 10
75.4396508765417
 20
137.5774855251609
 30
0.0
 11
76.50631754320837
 21
137.5774855251609
 31
0.0
 12
75.97298420987505
 22
134.3774855251609
 32
0.0
 13
75.97298420987505
 23
134.3774855251609
 33
0.0
  0
MTEXT
  5
D119
330
D112
100
AcDbEntity
  8
0
  6
HIDDEN
 62
     0
370
     0
100
AcDbMText
 10
71.97298420987504
 20
139.6544614558492
 30
0.0
 40
3.2
 41
0.0
 71
     2
 72
     1
  1
\A1;10.5
  7
SLDTEXTSTYLE4
 11
-4.060244204343429E-15
 21
1.0
 31
0.0
 73
     1
 44
1.0
  0
POINT
  5
D11A
330
D112
100
AcDbEntity
  8
Defpoints
 62
     0
100
AcDbPoint
 10
56.01422380471701
 20
144.8774855251608
 30
0.0
  0
POINT
  5
D11B
330
D112
100
AcDbEntity
  8
Defpoints
 62
     0
100
AcDbPoint
 10
49.714223804717
 20
134.3774855251608
 30
0.0
  0
POINT
  5
D22E
330
D112
100
AcDbEntity
  8
Defpoints
 62
     0
100
AcDbPoint
 10
75.97298420987502
 20
134.3774855251609
 30
0.0
  0
ENDBLK
  5
D11C
330
D112
100
AcDbEntity
  8
0
100
AcDbBlockEnd
  0
BLOCK
  5
D12B
330
D12A
100
AcDbEntity
  8
0
100
AcDbBlockBegin
  2
SW_CENTERMARKSYMBOL_1
 70
     0
 10
0.0
 20
0.0
 30
0.0
  3
SW_CENTERMARKSYMBOL_1
  1
SW_CENTERMARKSYMBOL_1
  0
LINE
  5
D12C
330
D12A
100
AcDbEntity
  8
0
  6
Continuous
 62
     0
370
     0
100
AcDbLine
 10
0.0
 20
0.0
 30
0.0
 11
0.0
 21
2.500000000000002
 31
0.0
  0
LINE
  5
D12D
330
D12A
100
AcDbEntity
  8
0
  6
Continuous
 62
     0
370
     0
100
AcDbLine
 10
0.0
 20
0.0
 30
0.0
 11
-2.500000000000002
 21
0.0
 31
0.0
  0
LINE
  5
D12E
330
D12A
100
AcDbEntity
  8
0
  6
Continuous
 62
     0
370
     0
100
AcDbLine
 10
0.0
 20
0.0
 30
0.0
 11
0.0
 21
-2.500000000000002
 31
0.0
  0
LINE
  5
D12F
330
D12A
100
AcDbEntity
  8
0
  6
Continuous
 62
     0
370
     0
100
AcDbLine
 10
0.0
 20
0.0
 30
0.0
 11
2.500000000000002
 21
0.0
 31
0.0
  0
LINE
  5
D130
330
D12A
100
AcDbEntity
  8
0
  6
Continuous
 62
     0
370
     0
100
AcDbLine
 10
0.0
 20
4.999999999999977
 30
0.0
 11
0.0
 21
7.699999999999985
 31
0.0
  0
LINE
  5
D131
330
D12A
100
AcDbEntity
  8
0
  6
Continuous
 62
     0
370
     0
100
AcDbLine
 10
-5.000000000000004
 20
0.0
 30
0.0
 11
-7.699999999999998
 21
0.0
 31
0.0
  0
LINE
  5
D132
330
D12A
100
AcDbEntity
  8
0
  6
Continuous
 62
     0
370
     0
100
AcDbLine
 10
0.0
 20
-5.000000000000004
 30
0.0
 11
0.0
 21
-7.700000000000013
 31
0.0
  0
LINE
  5
D133
330
D12A
100
AcDbEntity
  8
0
  6
Continuous
 62
     0
370
     0
100
AcDbLine
 10
5.000000000000004
 20
0.0
 30
0.0
 11
7.699999999999998
 21
0.0
 31
0.0
  0
ENDBLK
  5
D134
330
D12A
100
AcDbEntity
  8
0
100
AcDbBlockEnd
  0
BLOCK
  5
D137
330
D136
100
AcDbEntity
  8
0
100
AcDbBlockBegin
  2
SW_CENTERMARKSYMBOL_2
 70
     0
 10
0.0
 20
0.0
 30
0.0
  3
SW_CENTERMARKSYMBOL_2
  1
SW_CENTERMARKSYMBOL_2
  0
LINE
  5
D138
330
D136
100
AcDbEntity
  8
0
  6
Continuous
 62
     0
370
     0
100
AcDbLine
 10
0.0
 20
0.0
 30
0.0
 11
0.0
 21
2.500000000000002
 31
0.0
  0
LINE
  5
D139
330
D136
100
AcDbEntity
  8
0
  6
Continuous
 62
     0
370
     0
100
AcDbLine
 10
0.0
 20
0.0
 30
0.0
 11
-2.500000000000002
 21
0.0
 31
0.0
  0
LINE
  5
D13A
330
D136
100
AcDbEntity
  8
0
  6
Continuous
 62
     0
370
     0
100
AcDbLine
 10
0.0
 20
0.0
 30
0.0
 11
0.0
 21
-2.500000000000002
 31
0.0
  0
LINE
  5
D13B
330
D136
100
AcDbEntity
  8
0
  6
Continuous
 62
     0
370
     0
100
AcDbLine
 10
0.0
 20
0.0
 30
0.0
 11
2.499999999999995
 21
0.0
 31
0.0
  0
LINE
  5
D13C
330
D136
100
AcDbEntity
  8
0
  6
Continuous
 62
     0
370
     0
100
AcDbLine
 10
0.0
 20
5.000000000000004
 30
0.0
 11
0.0
 21
7.699999999999985
 31
0.0
  0
LINE
  5
D13D
330
D136
100
AcDbEntity
  8
0
  6
Continuous
 62
     0
370
     0
100
AcDbLine
 10
-4.999999999999997
 20
0.0
 30
0.0
 11
-7.699999999999998
 21
0.0
 31
0.0
  0
LINE
  5
D13E
330
D136
100
AcDbEntity
  8
0
  6
Continuous
 62
     0
370
     0
100
AcDbLine
 10
0.0
 20
-5.000000000000004
 30
0.0
 11
0.0
 21
-7.700000000000013
 31
0.0
  0
LINE
  5
D13F
330
D136
100
AcDbEntity
  8
0
  6
Continuous
 62
     0
370
     0
100
AcDbLine
 10
4.999999999999997
 20
0.0
 30
0.0
 11
7.700000000000006
 21
0.0
 31
0.0
  0
ENDBLK
  5
D140
330
D136
100
AcDbEntity
  8
0
100
AcDbBlockEnd
  0
BLOCK
  5
D168
330
D167
100
AcDbEntity
  8
0
100
AcDbBlockBegin
  2
_D_19
 70
     0
 10
0.0
 20
0.0
 30
0.0
  3
_D_19
  1
_D_19
  0
LINE
  5
D169
330
D167
100
AcDbEntity
  8
0
  6
Continuous
 62
     0
370
    -2
100
AcDbLine
 10
27.95172380471703
 20
73.83536970474518
 30
0.0
 11
19.69666748393385
 21
73.83536970474515
 31
0.0
  0
LINE
  5
D16A
330
D167
100
AcDbEntity
  8
0
  6
Continuous
 62
     0
370
    -2
100
AcDbLine
 10
31.45172380471697
 20
59.83536970474523
 30
0.0
 11
19.6966674839339
 21
59.83536970474519
 31
0.0
  0
LINE
  5
D16B
330
D167
100
AcDbEntity
  8
0
  6
Continuous
 62
     0
370
    -2
100
AcDbLine
 10
19.69666748393387
 20
70.63536970474514
 30
0.0
 11
19.69666748393389
 21
63.03536970474519
 31
0.0
  0
SOLID
  5
D16C
330
D167
100
AcDbEntity
  8
0
 62
     0
100
AcDbTrace
 10
20.2300008172672
 20
70.63536970474514
 30
0.0
 11
19.16333415060053
 21
70.63536970474514
 31
0.0
 12
19.69666748393385
 22
73.83536970474515
 32
0.0
 13
19.69666748393385
 23
73.83536970474515
 33
0.0
  0
SOLID
  5
D16D
330
D167
100
AcDbEntity
  8
0
 62
     0
100
AcDbTrace
 10
19.16333415060056
 20
63.03536970474519
 30
0.0
 11
20.23000081726723
 21
63.03536970474519
 31
0.0
 12
19.6966674839339
 22
59.83536970474519
 32
0.0
 13
19.6966674839339
 23
59.83536970474519
 33
0.0
  0
MTEXT
  5
D16E
330
D167
100
AcDbEntity
  8
0
  6
HIDDEN
 62
     0
370
     0
100
AcDbMText
 10
15.69666748393388
 20
67.05368711346044
 30
0.0
 40
3.2
 41
0.0
 71
     2
 72
     1
  1
\A1;14
  7
SLDTEXTSTYLE4
 11
-3.552713678800512E-15
 21
1.0
 31
0.0
 73
     1
 44
1.0
  0
POINT
  5
D22F
330
D167
100
AcDbEntity
  8
Defpoints
 62
     0
100
AcDbPoint
 10
28.01422380471703
 20
73.83536970474518
 30
0.0
  0
POINT
  5
D230
330
D167
100
AcDbEntity
  8
Defpoints
 62
     0
100
AcDbPoint
 10
31.51422380471697
 20
59.83536970474523
 30
0.0
  0
POINT
  5
D231
330
D167
100
AcDbEntity
  8
Defpoints
 62
     0
100
AcDbPoint
 10
19.69666748393386
 20
59.83536970474519
 30
0.0
  0
ENDBLK
  5
D16F
330
D167
100
AcDbEntity
  8
0
100
AcDbBlockEnd
  0
BLOCK
  5
D172
330
D171
100
AcDbEntity
  8
0
100
AcDbBlockBegin
  2
_D_20
 70
     0
 10
0.0
 20
0.0
 30
0.0
  3
_D_20
  1
_D_20
  0
LINE
  5
D173
330
D171
100
AcDbEntity
  8
0
  6
Continuous
 62
     0
370
    -2
100
AcDbLine
 10
27.95172380471703
 20
73.83536970474518
 30
0.0
 11
12.01422380471687
 21
73.83536970474512
 31
0.0
  0
LINE
  5
D174
330
D171
100
AcDbEntity
  8
0
  6
Continuous
 62
     0
370
    -2
100
AcDbLine
 10
41.95172380471694
 20
49.8353697047452
 30
0.0
 11
12.01422380471695
 21
49.8353697047451
 31
0.0
  0
LINE
  5
D175
330
D171
100
AcDbEntity
  8
0
  6
Continuous
 62
     0
370
    -2
100
AcDbLine
 10
12.01422380471688
 20
70.63536970474512
 30
0.0
 11
12.01422380471694
 21
53.0353697047451
 31
0.0
  0
SOLID
  5
D176
330
D171
100
AcDbEntity
  8
0
 62
     0
100
AcDbTrace
 10
12.54755713805021
 20
70.63536970474512
 30
0.0
 11
11.48089047138355
 21
70.63536970474512
 31
0.0
 12
12.01422380471687
 22
73.83536970474512
 32
0.0
 13
12.01422380471687
 23
73.83536970474512
 33
0.0
  0
SOLID
  5
D177
330
D171
100
AcDbEntity
  8
0
 62
     0
100
AcDbTrace
 10
11.48089047138361
 20
53.0353697047451
 30
0.0
 11
12.54755713805028
 21
53.0353697047451
 31
0.0
 12
12.01422380471695
 22
49.8353697047451
 32
0.0
 13
12.01422380471695
 23
49.8353697047451
 33
0.0
  0
MTEXT
  5
D178
330
D171
100
AcDbEntity
  8
0
  6
HIDDEN
 62
     0
370
     0
100
AcDbMText
 10
8.014223804716908
 20
63.37087677820521
 30
0.0
 40
3.2
 41
0.0
 71
     2
 72
     1
  1
\A1;24
  7
SLDTEXTSTYLE4
 11
-3.478698810492153E-15
 21
1.0
 31
0.0
 73
     1
 44
1.0
  0
POINT
  5
D232
330
D171
100
AcDbEntity
  8
Defpoints
 62
     0
100
AcDbPoint
 10
28.01422380471703
 20
73.83536970474518
 30
0.0
  0
POINT
  5
D233
330
D171
100
AcDbEntity
  8
Defpoints
 62
     0
100
AcDbPoint
 10
42.01422380471694
 20
49.8353697047452
 30
0.0
  0
POINT
  5
D234
330
D171
100
AcDbEntity
  8
Defpoints
 62
     0
100
AcDbPoint
 10
12.01422380471686
 20
49.83536970474509
 30
0.0
  0
ENDBLK
  5
D179
330
D171
100
AcDbEntity
  8
0
100
AcDbBlockEnd
  0
BLOCK
  5
D17C
330
D17B
100
AcDbEntity
  8
0
100
AcDbBlockBegin
  2
_D_21
 70
     0
 10
0.0
 20
0.0
 30
0.0
  3
_D_21
  1
_D_21
  0
LINE
  5
D17D
330
D17B
100
AcDbEntity
  8
0
  6
Continuous
 62
     0
370
    -2
100
AcDbLine
 10
36.01422380471698
 20
64.3978697047452
 30
0.0
 11
36.01422380471698
 21
80.45522621732579
 31
0.0
  0
LINE
  5
D17E
330
D17B
100
AcDbEntity
  8
0
  6
Continuous
 62
     0
370
    -2
100
AcDbLine
 10
48.01422380471697
 20
64.39786970474518
 30
0.0
 11
48.01422380471697
 21
80.45522621732579
 31
0.0
  0
LINE
  5
D17F
330
D17B
100
AcDbEntity
  8
0
  6
Continuous
 62
     0
370
    -2
100
AcDbLine
 10
39.21422380471698
 20
80.45522621732579
 30
0.0
 11
44.81422380471697
 21
80.45522621732579
 31
0.0
  0
SOLID
  5
D180
330
D17B
100
AcDbEntity
  8
0
 62
     0
100
AcDbTrace
 10
39.21422380471698
 20
80.98855955065912
 30
0.0
 11
39.21422380471698
 21
79.92189288399246
 31
0.0
 12
36.01422380471698
 22
80.45522621732579
 32
0.0
 13
36.01422380471698
 23
80.45522621732579
 33
0.0
  0
SOLID
  5
D181
330
D17B
100
AcDbEntity
  8
0
 62
     0
100
AcDbTrace
 10
44.81422380471697
 20
79.92189288399246
 30
0.0
 11
44.81422380471697
 21
80.98855955065912
 31
0.0
 12
48.01422380471697
 22
80.45522621732579
 32
0.0
 13
48.01422380471697
 23
80.45522621732579
 33
0.0
  0
MTEXT
  5
D182
330
D17B
100
AcDbEntity
  8
0
  6
HIDDEN
 62
     0
370
     0
100
AcDbMText
 10
41.92600875374624
 20
84.45522621732577
 30
0.0
 40
3.2
 41
0.0
 71
     2
 72
     1
  1
\A1;12
  7
SLDTEXTSTYLE4
 73
     1
 44
1.0
  0
POINT
  5
D235
330
D17B
100
AcDbEntity
  8
Defpoints
 62
     0
100
AcDbPoint
 10
36.01422380471698
 20
64.3353697047452
 30
0.0
  0
POINT
  5
D236
330
D17B
100
AcDbEntity
  8
Defpoints
 62
     0
100
AcDbPoint
 10
48.01422380471697
 20
64.33536970474518
 30
0.0
  0
POINT
  5
D237
330
D17B
100
AcDbEntity
  8
Defpoints
 62
     0
100
AcDbPoint
 10
48.01422380471697
 20
80.45522621732579
 30
0.0
  0
ENDBLK
  5
D183
330
D17B
100
AcDbEntity
  8
0
100
AcDbBlockEnd
  0
BLOCK
  5
D186
330
D185
100
AcDbEntity
  8
0
100
AcDbBlockBegin
  2
_D_22
 70
     0
 10
0.0
 20
0.0
 30
0.0
  3
_D_22
  1
_D_22
  0
LINE
  5
D187
330
D185
100
AcDbEntity
  8
0
  6
Continuous
 62
     0
370
    -2
100
AcDbLine
 10
28.01422380471703
 20
73.89786970474518
 30
0.0
 11
28.01422380471703
 21
88.78256725558583
 31
0.0
  0
LINE
  5
D188
330
D185
100
AcDbEntity
  8
0
  6
Continuous
 62
     0
370
    -2
100
AcDbLine
 10
56.01422380471703
 20
73.89786970474509
 30
0.0
 11
56.01422380471703
 21
88.78256725558583
 31
0.0
  0
LINE
  5
D189
330
D185
100
AcDbEntity
  8
0
  6
Continuous
 62
     0
370
    -2
100
AcDbLine
 10
31.21422380471703
 20
88.78256725558583
 30
0.0
 11
52.81422380471702
 21
88.78256725558583
 31
0.0
  0
SOLID
  5
D18A
330
D185
100
AcDbEntity
  8
0
 62
     0
100
AcDbTrace
 10
31.21422380471703
 20
89.31590058891916
 30
0.0
 11
31.21422380471703
 21
88.2492339222525
 31
0.0
 12
28.01422380471703
 22
88.78256725558583
 32
0.0
 13
28.01422380471703
 23
88.78256725558583
 33
0.0
  0
SOLID
  5
D18B
330
D185
100
AcDbEntity
  8
0
 62
     0
100
AcDbTrace
 10
52.81422380471702
 20
88.2492339222525
 30
0.0
 11
52.81422380471702
 21
89.31590058891916
 31
0.0
 12
56.01422380471703
 22
88.78256725558583
 32
0.0
 13
56.01422380471703
 23
88.78256725558583
 33
0.0
  0
MTEXT
  5
D18C
330
D185
100
AcDbEntity
  8
0
  6
HIDDEN
 62
     0
370
     0
100
AcDbMText
 10
41.92600875374625
 20
92.78256725558582
 30
0.0
 40
3.2
 41
0.0
 71
     2
 72
     1
  1
\A1;28
  7
SLDTEXTSTYLE4
 73
     1
 44
1.0
  0
POINT
  5
D238
330
D185
100
AcDbEntity
  8
Defpoints
 62
     0
100
AcDbPoint
 10
28.01422380471703
 20
73.83536970474518
 30
0.0
  0
POINT
  5
D239
330
D185
100
AcDbEntity
  8
Defpoints
 62
     0
100
AcDbPoint
 10
56.01422380471703
 20
73.83536970474509
 30
0.0
  0
POINT
  5
D23A
330
D185
100
AcDbEntity
  8
Defpoints
 62
     0
100
AcDbPoint
 10
56.01422380471703
 20
88.78256725558578
 30
0.0
  0
ENDBLK
  5
D18D
330
D185
100
AcDbEntity
  8
0
100
AcDbBlockEnd
  0
BLOCK
  5
D190
330
D18F
100
AcDbEntity
  8
0
100
AcDbBlockBegin
  2
_D_23
 70
     0
 10
0.0
 20
0.0
 30
0.0
  3
_D_23
  1
_D_23
  0
LINE
  5
D191
330
D18F
100
AcDbEntity
  8
0
  6
Continuous
 62
     0
370
    -2
100
AcDbLine
 10
48.01422380471697
 20
64.39786970474518
 30
0.0
 11
48.01422380471697
 21
80.45522621732567
 31
0.0
  0
LINE
  5
D192
330
D18F
100
AcDbEntity
  8
0
  6
Continuous
 62
     0
370
    -2
100
AcDbLine
 10
56.01422380471703
 20
73.89786970474509
 30
0.0
 11
56.01422380471703
 21
80.45522621732567
 31
0.0
  0
LINE
  5
D193
330
D18F
100
AcDbEntity
  8
0
  6
Continuous
 62
     0
370
    -2
100
AcDbLine
 10
51.21422380471697
 20
80.45522621732567
 30
0.0
 11
52.81422380471702
 21
80.45522621732567
 31
0.0
  0
SOLID
  5
D194
330
D18F
100
AcDbEntity
  8
0
 62
     0
100
AcDbTrace
 10
51.21422380471697
 20
80.988559550659
 30
0.0
 11
51.21422380471697
 21
79.92189288399234
 31
0.0
 12
48.01422380471697
 22
80.45522621732567
 32
0.0
 13
48.01422380471697
 23
80.45522621732567
 33
0.0
  0
SOLID
  5
D195
330
D18F
100
AcDbEntity
  8
0
 62
     0
100
AcDbTrace
 10
52.81422380471702
 20
79.92189288399234
 30
0.0
 11
52.81422380471702
 21
80.988559550659
 31
0.0
 12
56.01422380471703
 22
80.45522621732567
 32
0.0
 13
56.01422380471703
 23
80.45522621732567
 33
0.0
  0
MTEXT
  5
D196
330
D18F
100
AcDbEntity
  8
0
  6
HIDDEN
 62
     0
370
     0
100
AcDbMText
 10
52.14964961117376
 20
84.45522621732566
 30
0.0
 40
3.2
 41
0.0
 71
     2
 72
     1
  1
\A1;8
  7
SLDTEXTSTYLE4
 73
     1
 44
1.0
  0
POINT
  5
D197
330
D18F
100
AcDbEntity
  8
Defpoints
 62
     0
100
AcDbPoint
 10
48.01422380471697
 20
64.33536970474518
 30
0.0
  0
POINT
  5
D198
330
D18F
100
AcDbEntity
  8
Defpoints
 62
     0
100
AcDbPoint
 10
56.01422380471703
 20
73.83536970474509
 30
0.0
  0
POINT
  5
D23B
330
D18F
100
AcDbEntity
  8
Defpoints
 62
     0
100
AcDbPoint
 10
56.01422380471703
 20
80.45522621732567
 30
0.0
  0
ENDBLK
  5
D199
330
D18F
100
AcDbEntity
  8
0
100
AcDbBlockEnd
  0
BLOCK
  5
D19C
330
D19B
100
AcDbEntity
  8
0
100
AcDbBlockBegin
  2
_D_24
 70
     0
 10
0.0
 20
0.0
 30
0.0
  3
_D_24
  1
_D_24
  0
LINE
  5
D19D
330
D19B
100
AcDbEntity
  8
0
  6
Continuous
 62
     0
370
    -2
100
AcDbLine
 10
36.01422380471698
 20
64.3978697047452
 30
0.0
 11
36.01422380471698
 21
80.4552262173257
 31
0.0
  0
LINE
  5
D19E
330
D19B
100
AcDbEntity
  8
0
  6
Continuous
 62
     0
370
    -2
100
AcDbLine
 10
28.01422380471703
 20
73.89786970474518
 30
0.0
 11
28.01422380471703
 21
80.4552262173257
 31
0.0
  0
LINE
  5
D19F
330
D19B
100
AcDbEntity
  8
0
  6
Continuous
 62
     0
370
    -2
100
AcDbLine
 10
32.81422380471697
 20
80.4552262173257
 30
0.0
 11
31.21422380471703
 21
80.4552262173257
 31
0.0
  0
SOLID
  5
D1A0
330
D19B
100
AcDbEntity
  8
0
 62
     0
100
AcDbTrace
 10
32.81422380471697
 20
79.92189288399237
 30
0.0
 11
32.81422380471697
 21
80.98855955065903
 31
0.0
 12
36.01422380471698
 22
80.4552262173257
 32
0.0
 13
36.01422380471698
 23
80.4552262173257
 33
0.0
  0
SOLID
  5
D1A1
330
D19B
100
AcDbEntity
  8
0
 62
     0
100
AcDbTrace
 10
31.21422380471703
 20
80.98855955065903
 30
0.0
 11
31.21422380471703
 21
79.92189288399237
 31
0.0
 12
28.01422380471703
 22
80.4552262173257
 32
0.0
 13
28.01422380471703
 23
80.4552262173257
 33
0.0
  0
MTEXT
  5
D1A2
330
D19B
100
AcDbEntity
  8
0
  6
HIDDEN
 62
     0
370
     0
100
AcDbMText
 10
32.80014163810432
 20
84.45522621732569
 30
0.0
 40
3.2
 41
0.0
 71
     2
 72
     1
  1
\A1;8
  7
SLDTEXTSTYLE4
 73
     1
 44
1.0
  0
POINT
  5
D1A3
330
D19B
100
AcDbEntity
  8
Defpoints
 62
     0
100
AcDbPoint
 10
36.01422380471698
 20
64.3353697047452
 30
0.0
  0
POINT
  5
D1A4
330
D19B
100
AcDbEntity
  8
Defpoints
 62
     0
100
AcDbPoint
 10
28.01422380471703
 20
73.83536970474518
 30
0.0
  0
POINT
  5
D23C
330
D19B
100
AcDbEntity
  8
Defpoints
 62
     0
100
AcDbPoint
 10
28.01422380471703
 20
80.45522621732573
 30
0.0
  0
ENDBLK
  5
D1A5
330
D19B
100
AcDbEntity
  8
0
100
AcDbBlockEnd
  0
BLOCK
  5
D1A8
330
D1A7
100
AcDbEntity
  8
0
100
AcDbBlockBegin
  2
SW_CENTERMARKSYMBOL_3
 70
     0
 10
0.0
 20
0.0
 30
0.0
  3
SW_CENTERMARKSYMBOL_3
  1
SW_CENTERMARKSYMBOL_3
  0
LINE
  5
D1A9
330
D1A7
100
AcDbEntity
  8
0
  6
Continuous
 62
     0
370
     0
100
AcDbLine
 10
0.0
 20
0.0
 30
0.0
 11
0.0
 21
2.500000000000002
 31
0.0
  0
LINE
  5
D1AA
330
D1A7
100
AcDbEntity
  8
0
  6
Continuous
 62
     0
370
     0
100
AcDbLine
 10
0.0
 20
0.0
 30
0.0
 11
-2.500000000000002
 21
0.0
 31
0.0
  0
LINE
  5
D1AB
330
D1A7
100
AcDbEntity
  8
0
  6
Continuous
 62
     0
370
     0
100
AcDbLine
 10
0.0
 20
0.0
 30
0.0
 11
0.0
 21
-2.500000000000002
 31
0.0
  0
LINE
  5
D1AC
330
D1A7
100
AcDbEntity
  8
0
  6
Continuous
 62
     0
370
     0
100
AcDbLine
 10
0.0
 20
0.0
 30
0.0
 11
2.500000000000002
 21
0.0
 31
0.0
  0
LINE
  5
D1AD
330
D1A7
100
AcDbEntity
  8
0
  6
Continuous
 62
     0
370
     0
100
AcDbLine
 10
0.0
 20
2.500000000000002
 30
0.0
 11
0.0
 21
39.71854213812823
 31
0.0
  0
LINE
  5
D1AE
330
D1A7
100
AcDbEntity
  8
0
  6
Continuous
 62
     0
370
     0
100
AcDbLine
 10
-2.500000000000002
 20
0.0
 30
0.0
 11
-4.999999999999997
 21
0.0
 31
0.0
  0
LINE
  5
D1AF
330
D1A7
100
AcDbEntity
  8
0
  6
Continuous
 62
     0
370
     0
100
AcDbLine
 10
0.0
 20
-2.500000000000002
 30
0.0
 11
0.0
 21
-11.29325963163111
 31
0.0
  0
LINE
  5
D1B0
330
D1A7
100
AcDbEntity
  8
0
  6
Continuous
 62
     0
370
     0
100
AcDbLine
 10
2.500000000000002
 20
0.0
 30
0.0
 11
4.99999999999999
 21
0.0
 31
0.0
  0
ENDBLK
  5
D1B1
330
D1A7
100
AcDbEntity
  8
0
100
AcDbBlockEnd
  0
BLOCK
  5
D1B4
330
D1B3
100
AcDbEntity
  8
0
100
AcDbBlockBegin
  2
SW_CENTERMARKSYMBOL_4
 70
     0
 10
0.0
 20
0.0
 30
0.0
  3
SW_CENTERMARKSYMBOL_4
  1
SW_CENTERMARKSYMBOL_4
  0
LINE
  5
D1B5
330
D1B3
100
AcDbEntity
  8
0
  6
Continuous
 62
     0
370
     0
100
AcDbLine
 10
0.0
 20
0.0
 30
0.0
 11
0.0
 21
2.500000000000002
 31
0.0
  0
LINE
  5
D1B6
330
D1B3
100
AcDbEntity
  8
0
  6
Continuous
 62
     0
370
     0
100
AcDbLine
 10
0.0
 20
0.0
 30
0.0
 11
-2.499999999999995
 21
0.0
 31
0.0
  0
LINE
  5
D1B7
330
D1B3
100
AcDbEntity
  8
0
  6
Continuous
 62
     0
370
     0
100
AcDbLine
 10
0.0
 20
0.0
 30
0.0
 11
0.0
 21
-2.500000000000002
 31
0.0
  0
LINE
  5
D1B8
330
D1B3
100
AcDbEntity
  8
0
  6
Continuous
 62
     0
370
     0
100
AcDbLine
 10
0.0
 20
0.0
 30
0.0
 11
2.500000000000002
 21
0.0
 31
0.0
  0
LINE
  5
D1B9
330
D1B3
100
AcDbEntity
  8
0
  6
Continuous
 62
     0
370
     0
100
AcDbLine
 10
0.0
 20
2.500000000000002
 30
0.0
 11
0.0
 21
4.500000000000004
 31
0.0
  0
LINE
  5
D1BA
330
D1B3
100
AcDbEntity
  8
0
  6
Continuous
 62
     0
370
     0
100
AcDbLine
 10
-2.499999999999995
 20
0.0
 30
0.0
 11
-4.499999999999997
 21
0.0
 31
0.0
  0
LINE
  5
D1BB
330
D1B3
100
AcDbEntity
  8
0
  6
Continuous
 62
     0
370
     0
100
AcDbLine
 10
0.0
 20
-2.500000000000002
 30
0.0
 11
0.0
 21
-4.500000000000004
 31
0.0
  0
LINE
  5
D1BC
330
D1B3
100
AcDbEntity
  8
0
  6
Continuous
 62
     0
370
     0
100
AcDbLine
 10
2.500000000000002
 20
0.0
 30
0.0
 11
4.500000000000004
 21
0.0
 31
0.0
  0
ENDBLK
  5
D1BD
330
D1B3
100
AcDbEntity
  8
0
100
AcDbBlockEnd
  0
BLOCK
  5
D1C0
330
D1BF
100
AcDbEntity
  8
0
100
AcDbBlockBegin
  2
SW_CENTERMARKSYMBOL_5
 70
     0
 10
0.0
 20
0.0
 30
0.0
  3
SW_CENTERMARKSYMBOL_5
  1
SW_CENTERMARKSYMBOL_5
  0
LINE
  5
D1C1
330
D1BF
100
AcDbEntity
  8
0
  6
Continuous
 62
     0
370
     0
100
AcDbLine
 10
0.0
 20
0.0
 30
0.0
 11
0.0
 21
2.500000000000002
 31
0.0
  0
LINE
  5
D1C2
330
D1BF
100
AcDbEntity
  8
0
  6
Continuous
 62
     0
370
     0
100
AcDbLine
 10
0.0
 20
0.0
 30
0.0
 11
-2.500000000000002
 21
0.0
 31
0.0
  0
LINE
  5
D1C3
330
D1BF
100
AcDbEntity
  8
0
  6
Continuous
 62
     0
370
     0
100
AcDbLine
 10
0.0
 20
0.0
 30
0.0
 11
0.0
 21
-2.500000000000002
 31
0.0
  0
LINE
  5
D1C4
330
D1BF
100
AcDbEntity
  8
0
  6
Continuous
 62
     0
370
     0
100
AcDbLine
 10
0.0
 20
0.0
 30
0.0
 11
2.500000000000002
 21
0.0
 31
0.0
  0
LINE
  5
D1C5
330
D1BF
100
AcDbEntity
  8
0
  6
Continuous
 62
     0
370
     0
100
AcDbLine
 10
0.0
 20
2.500000000000002
 30
0.0
 11
0.0
 21
4.500000000000004
 31
0.0
  0
LINE
  5
D1C6
330
D1BF
100
AcDbEntity
  8
0
  6
Continuous
 62
     0
370
     0
100
AcDbLine
 10
-2.500000000000002
 20
0.0
 30
0.0
 11
-4.500000000000004
 21
0.0
 31
0.0
  0
LINE
  5
D1C7
330
D1BF
100
AcDbEntity
  8
0
  6
Continuous
 62
     0
370
     0
100
AcDbLine
 10
0.0
 20
-2.500000000000002
 30
0.0
 11
0.0
 21
-4.500000000000004
 31
0.0
  0
LINE
  5
D1C8
330
D1BF
100
AcDbEntity
  8
0
  6
Continuous
 62
     0
370
     0
100
AcDbLine
 10
2.500000000000002
 20
0.0
 30
0.0
 11
4.500000000000004
 21
0.0
 31
0.0
  0
ENDBLK
  5
D1C9
330
D1BF
100
AcDbEntity
  8
0
100
AcDbBlockEnd
  0
BLOCK
  5
D1CC
330
D1CB
100
AcDbEntity
  8
0
100
AcDbBlockBegin
  2
SW_CENTERMARKSYMBOL_6
 70
     0
 10
0.0
 20
0.0
 30
0.0
  3
SW_CENTERMARKSYMBOL_6
  1
SW_CENTERMARKSYMBOL_6
  0
LINE
  5
D1CD
330
D1CB
100
AcDbEntity
  8
0
  6
Continuous
 62
     0
370
     0
100
AcDbLine
 10
0.0
 20
0.0
 30
0.0
 11
0.0
 21
2.500000000000002
 31
0.0
  0
LINE
  5
D1CE
330
D1CB
100
AcDbEntity
  8
0
  6
Continuous
 62
     0
370
     0
100
AcDbLine
 10
0.0
 20
0.0
 30
0.0
 11
-2.499999999999995
 21
0.0
 31
0.0
  0
LINE
  5
D1CF
330
D1CB
100
AcDbEntity
  8
0
  6
Continuous
 62
     0
370
     0
100
AcDbLine
 10
0.0
 20
0.0
 30
0.0
 11
0.0
 21
-2.500000000000002
 31
0.0
  0
LINE
  5
D1D0
330
D1CB
100
AcDbEntity
  8
0
  6
Continuous
 62
     0
370
     0
100
AcDbLine
 10
0.0
 20
0.0
 30
0.0
 11
2.500000000000002
 21
0.0
 31
0.0
  0
LINE
  5
D1D1
330
D1CB
100
AcDbEntity
  8
0
  6
Continuous
 62
     0
370
     0
100
AcDbLine
 10
0.0
 20
2.500000000000002
 30
0.0
 11
0.0
 21
4.449999999999954
 31
0.0
  0
LINE
  5
D1D2
330
D1CB
100
AcDbEntity
  8
0
  6
Continuous
 62
     0
370
     0
100
AcDbLine
 10
-2.499999999999995
 20
0.0
 30
0.0
 11
-4.449999999999974
 21
0.0
 31
0.0
  0
LINE
  5
D1D3
330
D1CB
100
AcDbEntity
  8
0
  6
Continuous
 62
     0
370
     0
100
AcDbLine
 10
0.0
 20
-2.500000000000002
 30
0.0
 11
0.0
 21
-4.449999999999982
 31
0.0
  0
LINE
  5
D1D4
330
D1CB
100
AcDbEntity
  8
0
  6
Continuous
 62
     0
370
     0
100
AcDbLine
 10
2.500000000000002
 20
0.0
 30
0.0
 11
4.449999999999982
 21
0.0
 31
0.0
  0
ENDBLK
  5
D1D5
330
D1CB
100
AcDbEntity
  8
0
100
AcDbBlockEnd
  0
BLOCK
  5
DE59
330
DE58
100
AcDbEntity
  8
0
100
AcDbBlockBegin
  2
SW_NOTE_0
 70
     0
 10
0.0
 20
0.0
 30
0.0
  3
SW_NOTE_0
  1
SW_NOTE_0
  0
MTEXT
  5
DE5A
330
DE58
100
AcDbEntity
  8
0
  6
Continuous
 62
     0
370
     0
100
AcDbMText
 10
0.0
 20
2.387460876369325
 30
0.0
 40
1.852083333333333
 41
0.0
 71
     1
 72
     1
  1
FINITURA
  7
SLDTEXTSTYLE0
 73
     1
 44
1.0
  0
MTEXT
  5
DE5B
330
DE58
100
AcDbEntity
  8
0
  6
Continuous
 62
     0
370
     0
100
AcDbMText
 10
0.0
 20
-0.0819835382314046
 30
0.0
 40
1.852083333333333
 41
0.0
 71
     1
 72
     1
  1
SPECIFICA:
  7
SLDTEXTSTYLE0
 73
     1
 44
1.0
  0
ENDBLK
  5
DE5C
330
DE58
100
AcDbEntity
  8
0
100
AcDbBlockEnd
  0
BLOCK
  5
DE64
330
DE63
100
AcDbEntity
  8
0
100
AcDbBlockBegin
  2
SW_NOTE_1
 70
     0
 10
0.0
 20
0.0
 30
0.0
  3
SW_NOTE_1
  1
SW_NOTE_1
  0
MTEXT
  5
DE65
330
DE63
100
AcDbEntity
  8
0
  6
Continuous
 62
     0
370
     0
100
AcDbMText
 10
0.0
 20
2.387460876369325
 30
0.0
 40
1.852083333333333
 41
0.0
 71
     1
 72
     1
  1
CROMATURA
  7
SLDTEXTSTYLE0
 73
     1
 44
1.0
  0
MTEXT
  5
DE66
330
DE63
100
AcDbEntity
  8
0
  6
Continuous
 62
     0
370
     0
100
AcDbMText
 10
0.0
 20
-0.0819835382314046
 30
0.0
 40
1.852083333333333
 41
0.0
 71
     1
 72
     1
  1
A KANBAN
  7
SLDTEXTSTYLE0
 73
     1
 44
1.0
  0
ENDBLK
  5
DE67
330
DE63
100
AcDbEntity
  8
0
100
AcDbBlockEnd
  0
BLOCK
  5
DE81
330
DE80
100
AcDbEntity
  8
0
100
AcDbBlockBegin
  2
SW_NOTE_2
 70
     0
 10
0.0
 20
0.0
 30
0.0
  3
SW_NOTE_2
  1
SW_NOTE_2
  0
MTEXT
  5
DE82
330
DE80
100
AcDbEntity
  8
0
  6
Continuous
 62
     0
370
     0
100
AcDbMText
 10
0.0
 20
2.728526715850658
 30
0.0
 40
2.116666666666666
 41
0.0
 71
     1
 72
     1
  1
Approvato:
  7
SLDTEXTSTYLE0
 73
     1
 44
1.0
  0
MTEXT
  5
DE83
330
DE80
100
AcDbEntity
  8
0
  6
Continuous
 62
     0
370
     0
100
AcDbMText
 10
15.84560198038815
 20
2.728526715850658
 30
0.0
 40
2.116666666666666
 41
0.0
 71
     1
 72
     1
  1
A. Biasotti
  7
SLDTEXTSTYLE0
 73
     1
 44
1.0
  0
ENDBLK
  5
DE84
330
DE80
100
AcDbEntity
  8
0
100
AcDbBlockEnd
  0
BLOCK
  5
DE89
330
DE88
100
AcDbEntity
  8
0
100
AcDbBlockBegin
  2
SW_NOTE_3
 70
     0
 10
0.0
 20
0.0
 30
0.0
  3
SW_NOTE_3
  1
SW_NOTE_3
  0
MTEXT
  5
DE8A
330
DE88
100
AcDbEntity
  8
0
  6
Continuous
 62
     0
370
     0
100
AcDbMText
 10
0.0
 20
2.449228705566728
 30
0.0
 40
1.9
 41
0.0
 71
     1
 72
     1
  1
Dimensioni in mm   -
  7
SLDTEXTSTYLE0
 73
     1
 44
1.0
  0
MTEXT
  5
DE8B
330
DE88
100
AcDbEntity
  8
0
  6
Continuous
 62
     0
370
     0
100
AcDbMText
 10
25.96666663885117
 20
2.449228705566728
 30
0.0
 40
1.9
 41
0.0
 71
     1
 72
     1
  1
NB
  7
SLDTEXTSTYLE0
 73
     1
 44
1.0
  0
MTEXT
  5
DE8C
330
DE88
100
AcDbEntity
  8
0
  6
Continuous
 62
     0
370
     0
100
AcDbMText
 10
29.73500080406666
 20
2.449228705566728
 30
0.0
 40
1.9
 41
0.0
 71
     1
 72
     1
  1
:  LE QUOTE INDICATE A DISEGNO SI RIFERISCONO ALLA LAVORAZIONE MECCANICA. - PRIMA DEI TRATTAMENTI SUPERFICIALI
  7
SLDTEXTSTYLE0
 73
     1
 44
1.0
  0
ENDBLK
  5
DE8D
330
DE88
100
AcDbEntity
  8
0
100
AcDbBlockEnd
  0
BLOCK
  5
644F7
330
644F4
100
AcDbEntity
  8
0
100
AcDbBlockBegin
  2
A$C4A843887
 70
     0
 10
0.0
 20
0.0
 30
0.0
  3
A$C4A843887
  1
A$C4A843887
  0
LINE
  5
644F8
330
644F4
100
AcDbEntity
  8
0
100
AcDbLine
 10
-0.0000030725166198
 20
0.9999970166581988
 30
0.0
 11
-0.0000030725166198
 21
3.749997016657744
 31
0.0
  0
LINE
  5
644F9
330
644F4
100
AcDbEntity
  8
0
100
AcDbLine
 10
26.99999692748338
 20
0.9999970166581988
 30
0.0
 11
26.99999692748338
 21
3.749997016657744
 31
0.0
  0
LINE
  5
644FA
330
644F4
100
AcDbEntity
  8
0
100
AcDbLine
 10
25.99999692748338
 20
-0.0000029833418012
 30
0.0
 11
0.9999969274833802
 21
-0.0000029833418012
 31
0.0
  0
LINE
  5
644FB
330
644F4
100
AcDbEntity
  8
0
100
AcDbLine
 10
26.99999692748338
 20
3.749997016657744
 30
0.0
 11
-0.0000030725166198
 21
3.749997016657744
 31
0.0
  0
ARC
  5
644FC
330
644F4
100
AcDbEntity
  8
0
100
AcDbCircle
 10
25.99999692748338
 20
0.9999970166581988
 30
0.0
 40
1.0
100
AcDbArc
 50
270.0
 51
0.0
  0
ARC
  5
644FD
330
644F4
100
AcDbEntity
  8
0
100
AcDbCircle
 10
0.9999969274833802
 20
0.9999970166581988
 30
0.0
 40
1.0
100
AcDbArc
 50
180.0
 51
270.0
  0
ENDBLK
  5
644FE
330
644F4
100
AcDbEntity
  8
0
100
AcDbBlockEnd
  0
BLOCK
  5
689B6
330
689B5
100
AcDbEntity
  8
0
100
AcDbBlockBegin
  2
*D42
 70
     1
 10
0.0
 20
0.0
 30
0.0
  3
*D42
  1
*D6161
  0
LINE
  5
689B8
330
689B5
100
AcDbEntity
  8
0
  6
Continuous
 62
     0
370
    -2
100
AcDbLine
 10
7499.095654551036
 20
476.8249773397762
 30
0.0
 11
7454.936166917891
 21
476.8249773397762
 31
0.0
  0
LINE
  5
689B9
330
689B5
100
AcDbEntity
  8
0
  6
Continuous
 62
     0
370
    -2
100
AcDbLine
 10
7499.095654551036
 20
411.8249773397761
 30
0.0
 11
7454.936166917891
 21
411.8249773397761
 31
0.0
  0
LINE
  5
689BA
330
689B5
100
AcDbEntity
  8
0
  6
Continuous
 62
     0
370
    -2
100
AcDbLine
 10
7455.936166917891
 20
471.0749773397762
 30
0.0
 11
7455.936166917891
 21
417.5749773397761
 31
0.0
  0
SOLID
  5
689BB
330
689B5
100
AcDbEntity
  8
0
 62
     0
100
AcDbTrace
 10
7456.894500251224
 20
471.0749773397762
 30
0.0
 11
7454.977833584558
 21
471.0749773397762
 31
0.0
 12
7455.936166917891
 22
476.8249773397762
 32
0.0
 13
7455.936166917891
 23
476.8249773397762
 33
0.0
  0
SOLID
  5
689BC
330
689B5
100
AcDbEntity
  8
0
 62
     0
100
AcDbTrace
 10
7454.977833584558
 20
417.5749773397761
 30
0.0
 11
7456.894500251224
 21
417.5749773397761
 31
0.0
 12
7455.936166917891
 22
411.8249773397761
 32
0.0
 13
7455.936166917891
 23
411.8249773397761
 33
0.0
  0
MTEXT
  5
689BD
330
689B5
100
AcDbEntity
  8
0
  6
Continuous
370
    15
100
AcDbMText
 10
7450.154916917891
 20
443.1988982317613
 30
0.0
 40
6.25
 41
0.0
 71
     5
 72
     1
  1
65
 11
0.0
 21
1.0
 31
0.0
 73
     1
 44
1.0
  0
POINT
  5
689BE
330
689B5
100
AcDbEntity
  8
Defpoints
 62
     0
100
AcDbPoint
 10
7500.095654551036
 20
476.8249773397762
 30
0.0
  0
POINT
  5
689BF
330
689B5
100
AcDbEntity
  8
Defpoints
 62
     0
100
AcDbPoint
 10
7500.095654551036
 20
411.8249773397761
 30
0.0
  0
POINT
  5
689C0
330
689B5
100
AcDbEntity
  8
Defpoints
 62
     0
100
AcDbPoint
 10
7455.936166917891
 20
411.8249773397761
 30
0.0
  0
ENDBLK
  5
689B7
330
689B5
100
AcDbEntity
  8
0
100
AcDbBlockEnd
  0
BLOCK
  5
689C2
330
689C1
100
AcDbEntity
  8
0
100
AcDbBlockBegin
  2
*D43
 70
     1
 10
0.0
 20
0.0
 30
0.0
  3
*D43
  1
*D6162
  0
LINE
  5
689C4
330
689C1
100
AcDbEntity
  8
0
  6
Continuous
 62
     0
370
    -2
100
AcDbLine
 10
7507.295654551036
 20
461.8249773397762
 30
0.0
 11
7487.66392571363
 21
461.8249773397762
 31
0.0
  0
LINE
  5
689C5
330
689C1
100
AcDbEntity
  8
0
  6
Continuous
 62
     0
370
    -2
100
AcDbLine
 10
7507.295654551036
 20
426.8249773397762
 30
0.0
 11
7487.66392571363
 21
426.8249773397762
 31
0.0
  0
LINE
  5
689C6
330
689C1
100
AcDbEntity
  8
0
  6
Continuous
 62
     0
370
    -2
100
AcDbLine
 10
7488.66392571363
 20
456.0749773397762
 30
0.0
 11
7488.66392571363
 21
432.5749773397762
 31
0.0
  0
SOLID
  5
689C7
330
689C1
100
AcDbEntity
  8
0
 62
     0
100
AcDbTrace
 10
7489.622259046963
 20
456.0749773397762
 30
0.0
 11
7487.705592380297
 21
456.0749773397762
 31
0.0
 12
7488.66392571363
 22
461.8249773397762
 32
0.0
 13
7488.66392571363
 23
461.8249773397762
 33
0.0
  0
SOLID
  5
689C8
330
689C1
100
AcDbEntity
  8
0
 62
     0
100
AcDbTrace
 10
7487.705592380297
 20
432.5749773397762
 30
0.0
 11
7489.622259046963
 21
432.5749773397762
 31
0.0
 12
7488.66392571363
 22
426.8249773397762
 32
0.0
 13
7488.66392571363
 23
426.8249773397762
 33
0.0
  0
MTEXT
  5
689C9
330
689C1
100
AcDbEntity
  8
0
  6
Continuous
370
    15
100
AcDbMText
 10
7482.88267571363
 20
443.7916425975815
 30
0.0
 40
6.25
 41
0.0
 71
     5
 72
     1
  1
35
 11
0.0
 21
1.0
 31
0.0
 73
     1
 44
1.0
  0
POINT
  5
689CA
330
689C1
100
AcDbEntity
  8
Defpoints
 62
     0
100
AcDbPoint
 10
7508.295654551036
 20
461.8249773397762
 30
0.0
  0
POINT
  5
689CB
330
689C1
100
AcDbEntity
  8
Defpoints
 62
     0
100
AcDbPoint
 10
7508.295654551036
 20
426.8249773397762
 30
0.0
  0
POINT
  5
689CC
330
689C1
100
AcDbEntity
  8
Defpoints
 62
     0
100
AcDbPoint
 10
7488.66392571363
 20
426.8249773397762
 30
0.0
  0
ENDBLK
  5
689C3
330
689C1
100
AcDbEntity
  8
0
100
AcDbBlockEnd
  0
BLOCK
  5
689CE
330
689CD
100
AcDbEntity
  8
0
100
AcDbBlockBegin
  2
*D44
 70
     1
 10
0.0
 20
0.0
 30
0.0
  3
*D44
  1
*D6163
  0
LINE
  5
689D0
330
689CD
100
AcDbEntity
  8
0
  6
Continuous
 62
     0
370
    -2
100
AcDbLine
 10
7500.095654551036
 20
372.9514491127528
 30
0.0
 11
7500.095654551036
 21
390.9495236431027
 31
0.0
  0
LINE
  5
689D1
330
689CD
100
AcDbEntity
  8
0
  6
Continuous
 62
     0
370
    -2
100
AcDbLine
 10
7523.395654551036
 20
381.0514491127532
 30
0.0
 11
7523.395654551036
 21
390.9495236431027
 31
0.0
  0
LINE
  5
689D2
330
689CD
100
AcDbEntity
  8
0
  6
Continuous
 62
     0
370
    -2
100
AcDbLine
 10
7505.845654551036
 20
389.9495236431027
 30
0.0
 11
7517.645654551036
 21
389.9495236431027
 31
0.0
  0
SOLID
  5
689D3
330
689CD
100
AcDbEntity
  8
0
 62
     0
100
AcDbTrace
 10
7505.845654551036
 20
390.907856976436
 30
0.0
 11
7505.845654551036
 21
388.9911903097694
 31
0.0
 12
7500.095654551036
 22
389.9495236431027
 32
0.0
 13
7500.095654551036
 23
389.9495236431027
 33
0.0
  0
SOLID
  5
689D4
330
689CD
100
AcDbEntity
  8
0
 62
     0
100
AcDbTrace
 10
7517.645654551036
 20
388.9911903097694
 30
0.0
 11
7517.645654551036
 21
390.907856976436
 31
0.0
 12
7523.395654551036
 22
389.9495236431027
 32
0.0
 13
7523.395654551036
 23
389.9495236431027
 33
0.0
  0
MTEXT
  5
689D5
330
689CD
100
AcDbEntity
  8
0
  6
Continuous
370
    15
100
AcDbMText
 10
7511.900999863387
 20
396.0151486431027
 30
0.0
 40
6.25
 41
0.0
 71
     5
 72
     1
  1
23,3
 73
     1
 44
1.0
  0
POINT
  5
689D6
330
689CD
100
AcDbEntity
  8
Defpoints
 62
     0
100
AcDbPoint
 10
7500.095654551036
 20
371.9514491127528
 30
0.0
  0
POINT
  5
689D7
330
689CD
100
AcDbEntity
  8
Defpoints
 62
     0
100
AcDbPoint
 10
7523.395654551036
 20
380.0514491127532
 30
0.0
  0
POINT
  5
689D8
330
689CD
100
AcDbEntity
  8
Defpoints
 62
     0
100
AcDbPoint
 10
7523.395654551036
 20
389.9495236431027
 30
0.0
  0
ENDBLK
  5
689CF
330
689CD
100
AcDbEntity
  8
0
100
AcDbBlockEnd
  0
BLOCK
  5
689DA
330
689D9
100
AcDbEntity
  8
0
100
AcDbBlockBegin
  2
*D45
 70
     1
 10
0.0
 20
0.0
 30
0.0
  3
*D45
  1
*D6164
  0
LINE
  5
689DC
330
689D9
100
AcDbEntity
  8
0
  6
Continuous
 62
     0
370
    -2
100
AcDbLine
 10
7526.295654551036
 20
380.0514491127532
 30
0.0
 11
7540.344521349929
 21
380.0514491127532
 31
0.0
  0
LINE
  5
689DD
330
689D9
100
AcDbEntity
  8
0
  6
Continuous
 62
     0
370
    -2
100
AcDbLine
 10
7522.795654551036
 20
370.0514491127533
 30
0.0
 11
7540.344521349929
 21
370.0514491127533
 31
0.0
  0
LINE
  5
689DE
330
689D9
100
AcDbEntity
  8
0
  6
Continuous
 62
     0
370
    -2
100
AcDbLine
 10
7539.344521349929
 20
370.0514491127533
 30
0.0
 11
7539.344521349929
 21
346.2445741127531
 31
0.0
  0
LINE
  5
689DF
330
689D9
100
AcDbEntity
  8
0
  6
Continuous
 62
     0
370
    -2
100
AcDbLine
 10
7539.344521349929
 20
380.0514491127532
 30
0.0
 11
7539.344521349929
 21
370.0514491127533
 31
0.0
  0
LINE
  5
689E0
330
689D9
100
AcDbEntity
  8
0
  6
Continuous
 62
     0
370
    -2
100
AcDbLine
 10
7539.344521349929
 20
385.8014491127532
 30
0.0
 11
7539.344521349929
 21
391.5514491127532
 31
0.0
  0
LINE
  5
689E1
330
689D9
100
AcDbEntity
  8
0
  6
Continuous
 62
     0
370
    -2
100
AcDbLine
 10
7539.344521349929
 20
364.3014491127533
 30
0.0
 11
7539.344521349929
 21
358.5514491127533
 31
0.0
  0
SOLID
  5
689E2
330
689D9
100
AcDbEntity
  8
0
 62
     0
100
AcDbTrace
 10
7538.386188016596
 20
385.8014491127532
 30
0.0
 11
7540.302854683262
 21
385.8014491127532
 31
0.0
 12
7539.344521349929
 22
380.0514491127532
 32
0.0
 13
7539.344521349929
 23
380.0514491127532
 33
0.0
  0
SOLID
  5
689E3
330
689D9
100
AcDbEntity
  8
0
 62
     0
100
AcDbTrace
 10
7540.302854683262
 20
364.3014491127533
 30
0.0
 11
7538.386188016596
 21
364.3014491127533
 31
0.0
 12
7539.344521349929
 22
370.0514491127533
 32
0.0
 13
7539.344521349929
 23
370.0514491127533
 33
0.0
  0
MTEXT
  5
689E4
330
689D9
100
AcDbEntity
  8
0
  6
Continuous
370
    15
100
AcDbMText
 10
7533.563271349929
 20
352.3980116127532
 30
0.0
 40
6.25
 41
0.0
 71
     5
 72
     1
  1
10
 11
0.0
 21
1.0
 31
0.0
 73
     1
 44
1.0
  0
POINT
  5
689E5
330
689D9
100
AcDbEntity
  8
Defpoints
 62
     0
100
AcDbPoint
 10
7525.295654551036
 20
380.0514491127532
 30
0.0
  0
POINT
  5
691FC
330
689D9
100
AcDbEntity
  8
Defpoints
 62
     0
100
AcDbPoint
 10
7521.795654551036
 20
370.0514491127533
 30
0.0
  0
POINT
  5
691FD
330
689D9
100
AcDbEntity
  8
Defpoints
 62
     0
100
AcDbPoint
 10
7539.344521349929
 20
370.0514491127533
 30
0.0
  0
ENDBLK
  5
689DB
330
689D9
100
AcDbEntity
  8
0
100
AcDbBlockEnd
  0
BLOCK
  5
689F4
330
689F3
100
AcDbEntity
  8
0
100
AcDbBlockBegin
  2
*D46
 70
     1
 10
0.0
 20
0.0
 30
0.0
  3
*D46
  1
*D6166
  0
LINE
  5
689F6
330
689F3
100
AcDbEntity
  8
0
  6
Continuous
 62
     0
370
    -2
100
AcDbLine
 10
7503.595654551036
 20
625.4868678478841
 30
0.0
 11
7486.327967445849
 21
625.4868678478841
 31
0.0
  0
LINE
  5
689F7
330
689F3
100
AcDbEntity
  8
0
  6
Continuous
 62
     0
370
    -2
100
AcDbLine
 10
7503.595654551036
 20
589.9868678478841
 30
0.0
 11
7486.327967445849
 21
589.9868678478841
 31
0.0
  0
LINE
  5
689F8
330
689F3
100
AcDbEntity
  8
0
  6
Continuous
 62
     0
370
    -2
100
AcDbLine
 10
7487.327967445849
 20
619.7368678478841
 30
0.0
 11
7487.327967445849
 21
595.7368678478841
 31
0.0
  0
SOLID
  5
689F9
330
689F3
100
AcDbEntity
  8
0
 62
     0
100
AcDbTrace
 10
7488.286300779182
 20
619.7368678478841
 30
0.0
 11
7486.369634112516
 21
619.7368678478841
 31
0.0
 12
7487.327967445849
 22
625.4868678478841
 32
0.0
 13
7487.327967445849
 23
625.4868678478841
 33
0.0
  0
SOLID
  5
689FA
330
689F3
100
AcDbEntity
  8
0
 62
     0
100
AcDbTrace
 10
7486.369634112516
 20
595.7368678478841
 30
0.0
 11
7488.286300779182
 21
595.7368678478841
 31
0.0
 12
7487.327967445849
 22
589.9868678478841
 32
0.0
 13
7487.327967445849
 23
589.9868678478841
 33
0.0
  0
MTEXT
  5
689FB
330
689F3
100
AcDbEntity
  8
0
  6
Continuous
370
    15
100
AcDbMText
 10
7481.262342445849
 20
607.7368678478841
 30
0.0
 40
6.25
 41
0.0
 71
     5
 72
     1
  1
35,5
 11
0.0
 21
1.0
 31
0.0
 73
     1
 44
1.0
  0
POINT
  5
689FC
330
689F3
100
AcDbEntity
  8
Defpoints
 62
     0
100
AcDbPoint
 10
7504.595654551036
 20
625.4868678478841
 30
0.0
  0
POINT
  5
689FD
330
689F3
100
AcDbEntity
  8
Defpoints
 62
     0
100
AcDbPoint
 10
7504.595654551036
 20
589.9868678478841
 30
0.0
  0
POINT
  5
689FE
330
689F3
100
AcDbEntity
  8
Defpoints
 62
     0
100
AcDbPoint
 10
7487.327967445849
 20
589.9868678478841
 30
0.0
  0
ENDBLK
  5
689F5
330
689F3
100
AcDbEntity
  8
0
100
AcDbBlockEnd
  0
BLOCK
  5
68A00
330
689FF
100
AcDbEntity
  8
0
100
AcDbBlockBegin
  2
*D47
 70
     1
 10
0.0
 20
0.0
 30
0.0
  3
*D47
  1
*D6167
  0
LINE
  5
68A02
330
689FF
100
AcDbEntity
  8
0
  6
Continuous
 62
     0
370
    -2
100
AcDbLine
 10
7499.595654551036
 20
575.2368678478841
 30
0.0
 11
7449.881150818052
 21
575.2368678478841
 31
0.0
  0
LINE
  5
68A03
330
689FF
100
AcDbEntity
  8
0
  6
Continuous
 62
     0
370
    -2
100
AcDbLine
 10
7499.595654551036
 20
640.2368678478841
 30
0.0
 11
7449.881150818052
 21
640.2368678478841
 31
0.0
  0
LINE
  5
68A04
330
689FF
100
AcDbEntity
  8
0
  6
Continuous
 62
     0
370
    -2
100
AcDbLine
 10
7450.881150818052
 20
580.9868678478841
 30
0.0
 11
7450.881150818052
 21
634.4868678478841
 31
0.0
  0
SOLID
  5
68A05
330
689FF
100
AcDbEntity
  8
0
 62
     0
100
AcDbTrace
 10
7449.922817484719
 20
580.9868678478841
 30
0.0
 11
7451.839484151385
 21
580.9868678478841
 31
0.0
 12
7450.881150818052
 22
575.2368678478841
 32
0.0
 13
7450.881150818052
 23
575.2368678478841
 33
0.0
  0
SOLID
  5
68A06
330
689FF
100
AcDbEntity
  8
0
 62
     0
100
AcDbTrace
 10
7451.839484151385
 20
634.4868678478841
 30
0.0
 11
7449.922817484719
 21
634.4868678478841
 31
0.0
 12
7450.881150818052
 22
640.2368678478841
 32
0.0
 13
7450.881150818052
 23
640.2368678478841
 33
0.0
  0
MTEXT
  5
68A07
330
689FF
100
AcDbEntity
  8
0
  6
Continuous
370
    15
100
AcDbMText
 10
7445.099900818052
 20
607.7368678478841
 30
0.0
 40
6.25
 41
0.0
 71
     5
 72
     1
  1
65
 11
0.0
 21
1.0
 31
0.0
 73
     1
 44
1.0
  0
POINT
  5
68A08
330
689FF
100
AcDbEntity
  8
Defpoints
 62
     0
100
AcDbPoint
 10
7500.595654551036
 20
575.2368678478841
 30
0.0
  0
POINT
  5
68A09
330
689FF
100
AcDbEntity
  8
Defpoints
 62
     0
100
AcDbPoint
 10
7500.595654551036
 20
640.2368678478841
 30
0.0
  0
POINT
  5
68A0A
330
689FF
100
AcDbEntity
  8
Defpoints
 62
     0
100
AcDbPoint
 10
7450.881150818052
 20
640.2368678478841
 30
0.0
  0
ENDBLK
  5
68A01
330
689FF
100
AcDbEntity
  8
0
100
AcDbBlockEnd
  0
BLOCK
  5
68A0C
330
68A0B
100
AcDbEntity
  8
0
100
AcDbBlockBegin
  2
*D48
 70
     1
 10
0.0
 20
0.0
 30
0.0
  3
*D48
  1
*D6168
  0
LINE
  5
68A0E
330
68A0B
100
AcDbEntity
  8
0
  6
Continuous
 62
     0
370
    -2
100
AcDbLine
 10
7540.095654551037
 20
522.3550184257452
 30
0.0
 11
7540.095654551037
 21
551.1877368839907
 31
0.0
  0
LINE
  5
68A0F
330
68A0B
100
AcDbEntity
  8
0
  6
Continuous
 62
     0
370
    -2
100
AcDbLine
 10
7500.095654551036
 20
522.3550184257452
 30
0.0
 11
7500.095654551036
 21
551.1877368839907
 31
0.0
  0
LINE
  5
68A10
330
68A0B
100
AcDbEntity
  8
0
  6
Continuous
 62
     0
370
    -2
100
AcDbLine
 10
7534.345654551037
 20
550.1877368839907
 30
0.0
 11
7505.845654551036
 21
550.1877368839907
 31
0.0
  0
SOLID
  5
68A11
330
68A0B
100
AcDbEntity
  8
0
 62
     0
100
AcDbTrace
 10
7534.345654551037
 20
549.2294035506574
 30
0.0
 11
7534.345654551037
 21
551.1460702173241
 31
0.0
 12
7540.095654551037
 22
550.1877368839907
 32
0.0
 13
7540.095654551037
 23
550.1877368839907
 33
0.0
  0
SOLID
  5
68A12
330
68A0B
100
AcDbEntity
  8
0
 62
     0
100
AcDbTrace
 10
7505.845654551036
 20
551.1460702173241
 30
0.0
 11
7505.845654551036
 21
549.2294035506574
 31
0.0
 12
7500.095654551036
 22
550.1877368839907
 32
0.0
 13
7500.095654551036
 23
550.1877368839907
 33
0.0
  0
MTEXT
  5
68A13
330
68A0B
100
AcDbEntity
  8
0
  6
Continuous
370
    15
100
AcDbMText
 10
7520.095654551036
 20
555.9689868839907
 30
0.0
 40
6.25
 41
0.0
 71
     5
 72
     1
  1
40
 73
     1
 44
1.0
  0
POINT
  5
68A14
330
68A0B
100
AcDbEntity
  8
Defpoints
 62
     0
100
AcDbPoint
 10
7540.095654551037
 20
521.3550184257452
 30
0.0
  0
POINT
  5
68A15
330
68A0B
100
AcDbEntity
  8
Defpoints
 62
     0
100
AcDbPoint
 10
7500.095654551036
 20
521.3550184257452
 30
0.0
  0
POINT
  5
68A16
330
68A0B
100
AcDbEntity
  8
Defpoints
 62
     0
100
AcDbPoint
 10
7500.095654551036
 20
550.1877368839907
 30
0.0
  0
ENDBLK
  5
68A0D
330
68A0B
100
AcDbEntity
  8
0
100
AcDbBlockEnd
  0
BLOCK
  5
68A18
330
68A17
100
AcDbEntity
  8
0
100
AcDbBlockBegin
  2
*D49
 70
     1
 10
0.0
 20
0.0
 30
0.0
  3
*D49
  1
*D6169
  0
LINE
  5
68A1A
330
68A17
100
AcDbEntity
  8
0
  6
Continuous
 62
     0
370
    -2
100
AcDbLine
 10
7499.095654551036
 20
521.3550184257452
 30
0.0
 11
7486.482275687506
 21
521.3550184257452
 31
0.0
  0
LINE
  5
68A1B
330
68A17
100
AcDbEntity
  8
0
  6
Continuous
 62
     0
370
    -2
100
AcDbLine
 10
7499.095654551036
 20
519.3550184257452
 30
0.0
 11
7486.482275687506
 21
519.3550184257452
 31
0.0
  0
LINE
  5
68A1C
330
68A17
100
AcDbEntity
  8
0
  6
Continuous
 62
     0
370
    -2
100
AcDbLine
 10
7487.482275687506
 20
513.6050184257452
 30
0.0
 11
7487.482275687506
 21
499.0356434257461
 31
0.0
  0
LINE
  5
68A1D
330
68A17
100
AcDbEntity
  8
0
  6
Continuous
 62
     0
370
    -2
100
AcDbLine
 10
7487.482275687506
 20
521.3550184257452
 30
0.0
 11
7487.482275687506
 21
519.3550184257452
 31
0.0
  0
LINE
  5
68A1E
330
68A17
100
AcDbEntity
  8
0
  6
Continuous
 62
     0
370
    -2
100
AcDbLine
 10
7487.482275687506
 20
527.1050184257452
 30
0.0
 11
7487.482275687506
 21
532.8550184257452
 31
0.0
  0
SOLID
  5
68A1F
330
68A17
100
AcDbEntity
  8
0
 62
     0
100
AcDbTrace
 10
7486.523942354173
 20
527.1050184257452
 30
0.0
 11
7488.440609020839
 21
527.1050184257452
 31
0.0
 12
7487.482275687506
 22
521.3550184257452
 32
0.0
 13
7487.482275687506
 23
521.3550184257452
 33
0.0
  0
SOLID
  5
68A20
330
68A17
100
AcDbEntity
  8
0
 62
     0
100
AcDbTrace
 10
7488.440609020839
 20
513.6050184257452
 30
0.0
 11
7486.523942354173
 21
513.6050184257452
 31
0.0
 12
7487.482275687506
 22
519.3550184257452
 32
0.0
 13
7487.482275687506
 23
519.3550184257452
 33
0.0
  0
MTEXT
  5
68A21
330
68A17
100
AcDbEntity
  8
0
  6
Continuous
370
    15
100
AcDbMText
 10
7481.779150687506
 20
503.4453309257457
 30
0.0
 40
6.25
 41
0.0
 71
     5
 72
     1
  1
2
 11
0.0
 21
1.0
 31
0.0
 73
     1
 44
1.0
  0
POINT
  5
68A22
330
68A17
100
AcDbEntity
  8
Defpoints
 62
     0
100
AcDbPoint
 10
7500.095654551036
 20
521.3550184257452
 30
0.0
  0
POINT
  5
68A23
330
68A17
100
AcDbEntity
  8
Defpoints
 62
     0
100
AcDbPoint
 10
7500.095654551036
 20
519.3550184257452
 30
0.0
  0
POINT
  5
691FB
330
68A17
100
AcDbEntity
  8
Defpoints
 62
     0
100
AcDbPoint
 10
7487.482275687506
 20
519.3550184257452
 30
0.0
  0
ENDBLK
  5
68A19
330
68A17
100
AcDbEntity
  8
0
100
AcDbBlockEnd
  0
BLOCK
  5
68A25
330
68A24
100
AcDbEntity
  8
0
100
AcDbBlockBegin
  2
*D50
 70
     1
 10
0.0
 20
0.0
 30
0.0
  3
*D50
  1
*D6170
  0
LINE
  5
68A27
330
68A24
100
AcDbEntity
  8
0
  6
Continuous
 62
     0
370
    -2
100
AcDbLine
 10
7500.095654551036
 20
717.261087936936
 30
0.0
 11
7440.135448480052
 21
717.261087936936
 31
0.0
  0
LINE
  5
68A28
330
68A24
100
AcDbEntity
  8
0
  6
Continuous
 62
     0
370
    -2
100
AcDbLine
 10
7500.095654551036
 20
800.261087936936
 30
0.0
 11
7440.135448480052
 21
800.261087936936
 31
0.0
  0
LINE
  5
68A29
330
68A24
100
AcDbEntity
  8
0
  6
Continuous
 62
     0
370
    -2
100
AcDbLine
 10
7441.135448480052
 20
723.011087936936
 30
0.0
 11
7441.135448480052
 21
794.511087936936
 31
0.0
  0
SOLID
  5
68A2A
330
68A24
100
AcDbEntity
  8
0
 62
     0
100
AcDbTrace
 10
7440.177115146719
 20
723.011087936936
 30
0.0
 11
7442.093781813385
 21
723.011087936936
 31
0.0
 12
7441.135448480052
 22
717.261087936936
 32
0.0
 13
7441.135448480052
 23
717.261087936936
 33
0.0
  0
SOLID
  5
68A2B
330
68A24
100
AcDbEntity
  8
0
 62
     0
100
AcDbTrace
 10
7442.093781813385
 20
794.511087936936
 30
0.0
 11
7440.177115146719
 21
794.511087936936
 31
0.0
 12
7441.135448480052
 22
800.261087936936
 32
0.0
 13
7441.135448480052
 23
800.261087936936
 33
0.0
  0
MTEXT
  5
68A2C
330
68A24
100
AcDbEntity
  8
0
  6
Continuous
370
    15
100
AcDbMText
 10
7435.354198480052
 20
758.2817011097399
 30
0.0
 40
6.25
 41
0.0
 71
     5
 72
     1
  1
83
 11
0.0
 21
1.0
 31
0.0
 73
     1
 44
1.0
  0
POINT
  5
68A2D
330
68A24
100
AcDbEntity
  8
Defpoints
 62
     0
100
AcDbPoint
 10
7501.095654551036
 20
717.261087936936
 30
0.0
  0
POINT
  5
68A2E
330
68A24
100
AcDbEntity
  8
Defpoints
 62
     0
100
AcDbPoint
 10
7501.095654551036
 20
800.261087936936
 30
0.0
  0
POINT
  5
68A2F
330
68A24
100
AcDbEntity
  8
Defpoints
 62
     0
100
AcDbPoint
 10
7441.135448480052
 20
800.261087936936
 30
0.0
  0
ENDBLK
  5
68A26
330
68A24
100
AcDbEntity
  8
0
100
AcDbBlockEnd
  0
BLOCK
  5
68A31
330
68A30
100
AcDbEntity
  8
0
100
AcDbBlockBegin
  2
*D51
 70
     1
 10
0.0
 20
0.0
 30
0.0
  3
*D51
  1
*D6171
  0
LINE
  5
68A33
330
68A30
100
AcDbEntity
  8
0
  6
Continuous
 62
     0
370
    -2
100
AcDbLine
 10
7538.295654551036
 20
781.0610879369361
 30
0.0
 11
7538.295654551036
 21
817.7859715078079
 31
0.0
  0
LINE
  5
68A34
330
68A30
100
AcDbEntity
  8
0
  6
Continuous
 62
     0
370
    -2
100
AcDbLine
 10
7500.095654551036
 20
800.261087936936
 30
0.0
 11
7500.095654551036
 21
817.7859715078079
 31
0.0
  0
LINE
  5
68A35
330
68A30
100
AcDbEntity
  8
0
  6
Continuous
 62
     0
370
    -2
100
AcDbLine
 10
7532.545654551036
 20
816.7859715078079
 30
0.0
 11
7505.845654551036
 21
816.7859715078079
 31
0.0
  0
SOLID
  5
68A36
330
68A30
100
AcDbEntity
  8
0
 62
     0
100
AcDbTrace
 10
7532.545654551036
 20
815.8276381744745
 30
0.0
 11
7532.545654551036
 21
817.7443048411412
 31
0.0
 12
7538.295654551036
 22
816.7859715078079
 32
0.0
 13
7538.295654551036
 23
816.7859715078079
 33
0.0
  0
SOLID
  5
68A37
330
68A30
100
AcDbEntity
  8
0
 62
     0
100
AcDbTrace
 10
7505.845654551036
 20
817.7443048411412
 30
0.0
 11
7505.845654551036
 21
815.8276381744745
 31
0.0
 12
7500.095654551036
 22
816.7859715078079
 32
0.0
 13
7500.095654551036
 23
816.7859715078079
 33
0.0
  0
MTEXT
  5
68A38
330
68A30
100
AcDbEntity
  8
0
  6
Continuous
370
    15
100
AcDbMText
 10
7518.636747178945
 20
822.8515965078078
 30
0.0
 40
6.25
 41
0.0
 71
     5
 72
     1
  1
38,2
 73
     1
 44
1.0
  0
POINT
  5
68A39
330
68A30
100
AcDbEntity
  8
Defpoints
 62
     0
100
AcDbPoint
 10
7538.295654551036
 20
780.0610879369361
 30
0.0
  0
POINT
  5
68A3A
330
68A30
100
AcDbEntity
  8
Defpoints
 62
     0
100
AcDbPoint
 10
7500.095654551036
 20
799.261087936936
 30
0.0
  0
POINT
  5
68A3B
330
68A30
100
AcDbEntity
  8
Defpoints
 62
     0
100
AcDbPoint
 10
7500.095654551036
 20
816.7859715078079
 30
0.0
  0
ENDBLK
  5
68A32
330
68A30
100
AcDbEntity
  8
0
100
AcDbBlockEnd
  0
BLOCK
  5
68A3D
330
68A3C
100
AcDbEntity
  8
0
100
AcDbBlockBegin
  2
*D52
 70
     1
 10
0.0
 20
0.0
 30
0.0
  3
*D52
  1
*D6172
  0
LINE
  5
68A3F
330
68A3C
100
AcDbEntity
  8
0
  6
Continuous
 62
     0
370
    -2
100
AcDbLine
 10
7504.095654551036
 20
744.1110879369363
 30
0.0
 11
7483.754578826784
 21
744.1110879369363
 31
0.0
  0
LINE
  5
68A40
330
68A3C
100
AcDbEntity
  8
0
  6
Continuous
 62
     0
370
    -2
100
AcDbLine
 10
7504.095654551036
 20
773.4110879369356
 30
0.0
 11
7483.754578826784
 21
773.4110879369356
 31
0.0
  0
LINE
  5
68A41
330
68A3C
100
AcDbEntity
  8
0
  6
Continuous
 62
     0
370
    -2
100
AcDbLine
 10
7484.754578826784
 20
749.8610879369363
 30
0.0
 11
7484.754578826784
 21
767.6610879369356
 31
0.0
  0
SOLID
  5
68A42
330
68A3C
100
AcDbEntity
  8
0
 62
     0
100
AcDbTrace
 10
7483.796245493451
 20
749.8610879369363
 30
0.0
 11
7485.712912160117
 21
749.8610879369363
 31
0.0
 12
7484.754578826784
 22
744.1110879369363
 32
0.0
 13
7484.754578826784
 23
744.1110879369363
 33
0.0
  0
SOLID
  5
68A43
330
68A3C
100
AcDbEntity
  8
0
 62
     0
100
AcDbTrace
 10
7485.712912160117
 20
767.6610879369356
 30
0.0
 11
7483.796245493451
 21
767.6610879369356
 31
0.0
 12
7484.754578826784
 22
773.4110879369356
 32
0.0
 13
7484.754578826784
 23
773.4110879369356
 33
0.0
  0
MTEXT
  5
68A44
330
68A3C
100
AcDbEntity
  8
0
  6
Continuous
370
    15
100
AcDbMText
 10
7478.688953826784
 20
759.4976081913261
 30
0.0
 40
6.25
 41
0.0
 71
     5
 72
     1
  1
29,3
 11
0.0
 21
1.0
 31
0.0
 73
     1
 44
1.0
  0
POINT
  5
68A45
330
68A3C
100
AcDbEntity
  8
Defpoints
 62
     0
100
AcDbPoint
 10
7505.095654551036
 20
744.1110879369363
 30
0.0
  0
POINT
  5
68A46
330
68A3C
100
AcDbEntity
  8
Defpoints
 62
     0
100
AcDbPoint
 10
7505.095654551036
 20
773.4110879369356
 30
0.0
  0
POINT
  5
68A47
330
68A3C
100
AcDbEntity
  8
Defpoints
 62
     0
100
AcDbPoint
 10
7484.754578826784
 20
773.4110879369356
 30
0.0
  0
ENDBLK
  5
68A3E
330
68A3C
100
AcDbEntity
  8
0
100
AcDbBlockEnd
  0
BLOCK
  5
68A49
330
68A48
100
AcDbEntity
  8
0
100
AcDbBlockBegin
  2
*D53
 70
     1
 10
0.0
 20
0.0
 30
0.0
  3
*D53
  1
*D6173
  0
LINE
  5
68A4B
330
68A48
100
AcDbEntity
  8
0
  6
Continuous
 62
     0
370
    -2
100
AcDbLine
 10
7499.095654551036
 20
688.0736923617119
 30
0.0
 11
7494.968500521803
 21
688.0736923617119
 31
0.0
  0
LINE
  5
68A4C
330
68A48
100
AcDbEntity
  8
0
  6
Continuous
 62
     0
370
    -2
100
AcDbLine
 10
7499.095654551036
 20
687.0736923617119
 30
0.0
 11
7494.968500521803
 21
687.0736923617119
 31
0.0
  0
LINE
  5
68A4D
330
68A48
100
AcDbEntity
  8
0
  6
Continuous
 62
     0
370
    -2
100
AcDbLine
 10
7495.968500521803
 20
681.3236923617119
 30
0.0
 11
7495.968500521803
 21
669.1336923617114
 31
0.0
  0
LINE
  5
68A4E
330
68A48
100
AcDbEntity
  8
0
  6
Continuous
 62
     0
370
    -2
100
AcDbLine
 10
7495.968500521803
 20
688.0736923617119
 30
0.0
 11
7495.968500521803
 21
687.0736923617119
 31
0.0
  0
LINE
  5
68A4F
330
68A48
100
AcDbEntity
  8
0
  6
Continuous
 62
     0
370
    -2
100
AcDbLine
 10
7495.968500521803
 20
693.8236923617119
 30
0.0
 11
7495.968500521803
 21
699.5736923617119
 31
0.0
  0
SOLID
  5
68A50
330
68A48
100
AcDbEntity
  8
0
 62
     0
100
AcDbTrace
 10
7495.01016718847
 20
693.8236923617119
 30
0.0
 11
7496.926833855136
 21
693.8236923617119
 31
0.0
 12
7495.968500521803
 22
688.0736923617119
 32
0.0
 13
7495.968500521803
 23
688.0736923617119
 33
0.0
  0
SOLID
  5
68A51
330
68A48
100
AcDbEntity
  8
0
 62
     0
100
AcDbTrace
 10
7496.926833855136
 20
681.3236923617119
 30
0.0
 11
7495.01016718847
 21
681.3236923617119
 31
0.0
 12
7495.968500521803
 22
687.0736923617119
 32
0.0
 13
7495.968500521803
 23
687.0736923617119
 33
0.0
  0
MTEXT
  5
68A52
330
68A48
100
AcDbEntity
  8
0
  6
Continuous
370
    15
100
AcDbMText
 10
7490.343500521803
 20
672.3536923617116
 30
0.0
 40
6.25
 41
0.0
 71
     5
 72
     1
  1
1
 11
0.0
 21
1.0
 31
0.0
 73
     1
 44
1.0
  0
POINT
  5
68A53
330
68A48
100
AcDbEntity
  8
Defpoints
 62
     0
100
AcDbPoint
 10
7500.095654551036
 20
688.0736923617119
 30
0.0
  0
POINT
  5
68A54
330
68A48
100
AcDbEntity
  8
Defpoints
 62
     0
100
AcDbPoint
 10
7500.095654551036
 20
687.0736923617119
 30
0.0
  0
POINT
  5
691FA
330
68A48
100
AcDbEntity
  8
Defpoints
 62
     0
100
AcDbPoint
 10
7495.968500521803
 20
687.0736923617119
 30
0.0
  0
ENDBLK
  5
68A4A
330
68A48
100
AcDbEntity
  8
0
100
AcDbBlockEnd
  0
BLOCK
  5
69205
330
69204
100
AcDbEntity
  8
0
100
AcDbBlockBegin
  2
*D54
 70
     1
 10
0.0
 20
0.0
 30
0.0
  3
*D54
  1
*D6187
  0
LINE
  5
69207
330
69204
100
AcDbEntity
  8
0
  6
Continuous
 62
     0
370
    -2
100
AcDbLine
 10
7499.095654551036
 20
370.0514491127533
 30
0.0
 11
7487.145198723768
 21
370.0514491127533
 31
0.0
  0
LINE
  5
69208
330
69204
100
AcDbEntity
  8
0
  6
Continuous
 62
     0
370
    -2
100
AcDbLine
 10
7499.095654551036
 20
371.9514491127528
 30
0.0
 11
7487.145198723768
 21
371.9514491127528
 31
0.0
  0
LINE
  5
69209
330
69204
100
AcDbEntity
  8
0
  6
Continuous
 62
     0
370
    -2
100
AcDbLine
 10
7488.145198723768
 20
370.0514491127533
 30
0.0
 11
7488.145198723768
 21
344.3208241127531
 31
0.0
  0
LINE
  5
6920A
330
69204
100
AcDbEntity
  8
0
  6
Continuous
 62
     0
370
    -2
100
AcDbLine
 10
7488.145198723768
 20
370.0514491127533
 30
0.0
 11
7488.145198723768
 21
371.9514491127528
 31
0.0
  0
LINE
  5
6920B
330
69204
100
AcDbEntity
  8
0
  6
Continuous
 62
     0
370
    -2
100
AcDbLine
 10
7488.145198723768
 20
364.3014491127533
 30
0.0
 11
7488.145198723768
 21
358.5514491127533
 31
0.0
  0
LINE
  5
6920C
330
69204
100
AcDbEntity
  8
0
  6
Continuous
 62
     0
370
    -2
100
AcDbLine
 10
7488.145198723768
 20
377.7014491127528
 30
0.0
 11
7488.145198723768
 21
383.4514491127528
 31
0.0
  0
SOLID
  5
6920D
330
69204
100
AcDbEntity
  8
0
 62
     0
100
AcDbTrace
 10
7489.103532057101
 20
364.3014491127533
 30
0.0
 11
7487.186865390435
 21
364.3014491127533
 31
0.0
 12
7488.145198723768
 22
370.0514491127533
 32
0.0
 13
7488.145198723768
 23
370.0514491127533
 33
0.0
  0
SOLID
  5
6920E
330
69204
100
AcDbEntity
  8
0
 62
     0
100
AcDbTrace
 10
7487.186865390435
 20
377.7014491127528
 30
0.0
 11
7489.103532057101
 21
377.7014491127528
 31
0.0
 12
7488.145198723768
 22
371.9514491127528
 32
0.0
 13
7488.145198723768
 23
371.9514491127528
 33
0.0
  0
MTEXT
  5
6920F
330
69204
100
AcDbEntity
  8
0
  6
Continuous
370
    15
100
AcDbMText
 10
7482.079573723768
 20
351.4361366127532
 30
0.0
 40
6.25
 41
0.0
 71
     5
 72
     1
  1
1,9
 11
0.0
 21
1.0
 31
0.0
 73
     1
 44
1.0
  0
POINT
  5
69210
330
69204
100
AcDbEntity
  8
Defpoints
 62
     0
100
AcDbPoint
 10
7500.095654551036
 20
370.0514491127533
 30
0.0
  0
POINT
  5
69211
330
69204
100
AcDbEntity
  8
Defpoints
 62
     0
100
AcDbPoint
 10
7500.095654551036
 20
371.9514491127528
 30
0.0
  0
POINT
  5
69243
330
69204
100
AcDbEntity
  8
Defpoints
 62
     0
100
AcDbPoint
 10
7488.145198723768
 20
371.9514491127528
 30
0.0
  0
ENDBLK
  5
69206
330
69204
100
AcDbEntity
  8
0
100
AcDbBlockEnd
  0
BLOCK
  5
69459
330
69458
100
AcDbEntity
  8
0
100
AcDbBlockBegin
  2
*D55
 70
     1
 10
0.0
 20
0.0
 30
0.0
  3
*D55
  1
*D6218
  0
LINE
  5
6945B
330
69458
100
AcDbEntity
  8
0
  6
Continuous
 62
     0
370
    -2
100
AcDbLine
 10
7502.104601861654
 20
470.3249773397762
 30
0.0
 11
7470.361597694023
 21
470.3249773397762
 31
0.0
  0
LINE
  5
6945C
330
69458
100
AcDbEntity
  8
0
  6
Continuous
 62
     0
370
    -2
100
AcDbLine
 10
7502.104601861654
 20
418.3249773397761
 30
0.0
 11
7470.361597694023
 21
418.3249773397761
 31
0.0
  0
LINE
  5
6945D
330
69458
100
AcDbEntity
  8
0
  6
Continuous
 62
     0
370
    -2
100
AcDbLine
 10
7471.361597694023
 20
464.5749773397762
 30
0.0
 11
7471.361597694023
 21
424.0749773397761
 31
0.0
  0
SOLID
  5
6945E
330
69458
100
AcDbEntity
  8
0
 62
     0
100
AcDbTrace
 10
7472.319931027356
 20
464.5749773397762
 30
0.0
 11
7470.40326436069
 21
464.5749773397762
 31
0.0
 12
7471.361597694023
 22
470.3249773397762
 32
0.0
 13
7471.361597694023
 23
470.3249773397762
 33
0.0
  0
SOLID
  5
6945F
330
69458
100
AcDbEntity
  8
0
 62
     0
100
AcDbTrace
 10
7470.40326436069
 20
424.0749773397761
 30
0.0
 11
7472.319931027356
 21
424.0749773397761
 31
0.0
 12
7471.361597694023
 22
418.3249773397761
 32
0.0
 13
7471.361597694023
 23
418.3249773397761
 33
0.0
  0
MTEXT
  5
69460
330
69458
100
AcDbEntity
  8
0
  6
Continuous
370
     0
100
AcDbMText
 10
7465.580347694023
 20
444.3249773397761
 30
0.0
 40
6.25
 41
0.0
 71
     5
 72
     1
  1
52
 11
0.0
 21
1.0
 31
0.0
 73
     1
 44
1.0
  0
POINT
  5
69461
330
69458
100
AcDbEntity
  8
Defpoints
 62
     0
100
AcDbPoint
 10
7503.104601861654
 20
470.3249773397762
 30
0.0
  0
POINT
  5
69462
330
69458
100
AcDbEntity
  8
Defpoints
 62
     0
100
AcDbPoint
 10
7503.104601861654
 20
418.3249773397761
 30
0.0
  0
POINT
  5
69463
330
69458
100
AcDbEntity
  8
Defpoints
 62
     0
100
AcDbPoint
 10
7471.361597694023
 20
418.3249773397761
 30
0.0
  0
ENDBLK
  5
6945A
330
69458
100
AcDbEntity
  8
0
100
AcDbBlockEnd
  0
BLOCK
  5
6948E
330
6948D
100
AcDbEntity
  8
0
100
AcDbBlockBegin
  2
*D56
 70
     1
 10
0.0
 20
0.0
 30
0.0
  3
*D56
  1
*D6221
  0
LINE
  5
69490
330
6948D
100
AcDbEntity
  8
0
  6
Continuous
 62
     0
370
    -2
100
AcDbLine
 10
7502.404601861655
 20
632.7368678478841
 30
0.0
 11
7466.232107440752
 21
632.7368678478841
 31
0.0
  0
LINE
  5
69491
330
6948D
100
AcDbEntity
  8
0
  6
Continuous
 62
     0
370
    -2
100
AcDbLine
 10
7502.404601861655
 20
582.7368678478841
 30
0.0
 11
7466.232107440752
 21
582.7368678478841
 31
0.0
  0
LINE
  5
69492
330
6948D
100
AcDbEntity
  8
0
  6
Continuous
 62
     0
370
    -2
100
AcDbLine
 10
7467.232107440752
 20
626.9868678478841
 30
0.0
 11
7467.232107440752
 21
588.4868678478841
 31
0.0
  0
SOLID
  5
69493
330
6948D
100
AcDbEntity
  8
0
 62
     0
100
AcDbTrace
 10
7468.190440774085
 20
626.9868678478841
 30
0.0
 11
7466.273774107419
 21
626.9868678478841
 31
0.0
 12
7467.232107440752
 22
632.7368678478841
 32
0.0
 13
7467.232107440752
 23
632.7368678478841
 33
0.0
  0
SOLID
  5
69494
330
6948D
100
AcDbEntity
  8
0
 62
     0
100
AcDbTrace
 10
7466.273774107419
 20
588.4868678478841
 30
0.0
 11
7468.190440774085
 21
588.4868678478841
 31
0.0
 12
7467.232107440752
 22
582.7368678478841
 32
0.0
 13
7467.232107440752
 23
582.7368678478841
 33
0.0
  0
MTEXT
  5
69495
330
6948D
100
AcDbEntity
  8
0
  6
Continuous
370
     0
100
AcDbMText
 10
7461.450857440752
 20
607.7368678478841
 30
0.0
 40
6.25
 41
0.0
 71
     5
 72
     1
  1
50
 11
0.0
 21
1.0
 31
0.0
 73
     1
 44
1.0
  0
POINT
  5
69496
330
6948D
100
AcDbEntity
  8
Defpoints
 62
     0
100
AcDbPoint
 10
7503.404601861655
 20
632.7368678478841
 30
0.0
  0
POINT
  5
69497
330
6948D
100
AcDbEntity
  8
Defpoints
 62
     0
100
AcDbPoint
 10
7503.404601861655
 20
582.7368678478841
 30
0.0
  0
POINT
  5
69498
330
6948D
100
AcDbEntity
  8
Defpoints
 62
     0
100
AcDbPoint
 10
7467.232107440752
 20
582.7368678478841
 30
0.0
  0
ENDBLK
  5
6948F
330
6948D
100
AcDbEntity
  8
0
100
AcDbBlockEnd
  0
BLOCK
  5
6949D
330
6949C
100
AcDbEntity
  8
0
100
AcDbBlockBegin
  2
*D57
 70
     1
 10
0.0
 20
0.0
 30
0.0
  3
*D57
  1
*D6222
  0
LINE
  5
6949F
330
6949C
100
AcDbEntity
  8
0
  6
Continuous
 62
     0
370
    -2
100
AcDbLine
 10
7504.095654551036
 20
625.9868678478841
 30
0.0
 11
7504.095654551036
 21
654.1733619219785
 31
0.0
  0
LINE
  5
694A0
330
6949C
100
AcDbEntity
  8
0
  6
Continuous
 62
     0
370
    -2
100
AcDbLine
 10
7520.095654551036
 20
625.9868678478841
 30
0.0
 11
7520.095654551036
 21
654.1733619219785
 31
0.0
  0
LINE
  5
694A1
330
6949C
100
AcDbEntity
  8
0
  6
Continuous
 62
     0
370
    -2
100
AcDbLine
 10
7520.095654551036
 20
653.1733619219785
 30
0.0
 11
7543.812529551036
 21
653.1733619219785
 31
0.0
  0
LINE
  5
694A2
330
6949C
100
AcDbEntity
  8
0
  6
Continuous
 62
     0
370
    -2
100
AcDbLine
 10
7504.095654551036
 20
653.1733619219785
 30
0.0
 11
7520.095654551036
 21
653.1733619219785
 31
0.0
  0
LINE
  5
694A3
330
6949C
100
AcDbEntity
  8
0
  6
Continuous
 62
     0
370
    -2
100
AcDbLine
 10
7498.345654551036
 20
653.1733619219785
 30
0.0
 11
7492.595654551036
 21
653.1733619219785
 31
0.0
  0
LINE
  5
694A4
330
6949C
100
AcDbEntity
  8
0
  6
Continuous
 62
     0
370
    -2
100
AcDbLine
 10
7525.845654551036
 20
653.1733619219785
 30
0.0
 11
7531.595654551036
 21
653.1733619219785
 31
0.0
  0
SOLID
  5
694A5
330
6949C
100
AcDbEntity
  8
0
 62
     0
100
AcDbTrace
 10
7498.345654551036
 20
652.2150285886452
 30
0.0
 11
7498.345654551036
 21
654.1316952553119
 31
0.0
 12
7504.095654551036
 22
653.1733619219785
 32
0.0
 13
7504.095654551036
 23
653.1733619219785
 33
0.0
  0
SOLID
  5
694A6
330
6949C
100
AcDbEntity
  8
0
 62
     0
100
AcDbTrace
 10
7525.845654551036
 20
654.1316952553119
 30
0.0
 11
7525.845654551036
 21
652.2150285886452
 31
0.0
 12
7520.095654551036
 22
653.1733619219785
 32
0.0
 13
7520.095654551036
 23
653.1733619219785
 33
0.0
  0
MTEXT
  5
694A7
330
6949C
100
AcDbEntity
  8
0
  6
Continuous
370
     0
100
AcDbMText
 10
7537.704092051036
 20
658.9546119219785
 30
0.0
 40
6.25
 41
0.0
 71
     5
 72
     1
  1
16
 73
     1
 44
1.0
  0
POINT
  5
694A8
330
6949C
100
AcDbEntity
  8
Defpoints
 62
     0
100
AcDbPoint
 10
7504.095654551036
 20
624.9868678478841
 30
0.0
  0
POINT
  5
694A9
330
6949C
100
AcDbEntity
  8
Defpoints
 62
     0
100
AcDbPoint
 10
7520.095654551036
 20
624.9868678478841
 30
0.0
  0
POINT
  5
694AA
330
6949C
100
AcDbEntity
  8
Defpoints
 62
     0
100
AcDbPoint
 10
7520.095654551036
 20
653.1733619219785
 30
0.0
  0
ENDBLK
  5
6949E
330
6949C
100
AcDbEntity
  8
0
100
AcDbBlockEnd
  0
BLOCK
  5
694AF
330
694AE
100
AcDbEntity
  8
0
100
AcDbBlockBegin
  2
*D58
 70
     1
 10
0.0
 20
0.0
 30
0.0
  3
*D58
  1
*D6223
  0
LINE
  5
694B1
330
694AE
100
AcDbEntity
  8
0
  6
Continuous
 62
     0
370
    -2
100
AcDbLine
 10
7504.095654551036
 20
773.4110879369356
 30
0.0
 11
7504.095654551036
 21
781.6809510198451
 31
0.0
  0
LINE
  5
694B2
330
694AE
100
AcDbEntity
  8
0
  6
Continuous
 62
     0
370
    -2
100
AcDbLine
 10
7516.695654551036
 20
773.4110879369356
 30
0.0
 11
7516.695654551036
 21
781.6809510198451
 31
0.0
  0
LINE
  5
694B3
330
694AE
100
AcDbEntity
  8
0
  6
Continuous
 62
     0
370
    -2
100
AcDbLine
 10
7504.095654551036
 20
780.6809510198451
 30
0.0
 11
7473.876279551036
 21
780.6809510198451
 31
0.0
  0
LINE
  5
694B4
330
694AE
100
AcDbEntity
  8
0
  6
Continuous
 62
     0
370
    -2
100
AcDbLine
 10
7504.095654551036
 20
780.6809510198451
 30
0.0
 11
7516.695654551036
 21
780.6809510198451
 31
0.0
  0
LINE
  5
694B5
330
694AE
100
AcDbEntity
  8
0
  6
Continuous
 62
     0
370
    -2
100
AcDbLine
 10
7498.345654551036
 20
780.6809510198451
 30
0.0
 11
7492.595654551036
 21
780.6809510198451
 31
0.0
  0
LINE
  5
694B6
330
694AE
100
AcDbEntity
  8
0
  6
Continuous
 62
     0
370
    -2
100
AcDbLine
 10
7522.445654551036
 20
780.6809510198451
 30
0.0
 11
7528.195654551036
 21
780.6809510198451
 31
0.0
  0
SOLID
  5
694B7
330
694AE
100
AcDbEntity
  8
0
 62
     0
100
AcDbTrace
 10
7498.345654551036
 20
779.7226176865117
 30
0.0
 11
7498.345654551036
 21
781.6392843531785
 31
0.0
 12
7504.095654551036
 22
780.6809510198451
 32
0.0
 13
7504.095654551036
 23
780.6809510198451
 33
0.0
  0
SOLID
  5
694B8
330
694AE
100
AcDbEntity
  8
0
 62
     0
100
AcDbTrace
 10
7522.445654551036
 20
781.6392843531785
 30
0.0
 11
7522.445654551036
 21
779.7226176865117
 31
0.0
 12
7516.695654551036
 22
780.6809510198451
 32
0.0
 13
7516.695654551036
 23
780.6809510198451
 33
0.0
  0
MTEXT
  5
694B9
330
694AE
100
AcDbEntity
  8
0
  6
Continuous
370
     0
100
AcDbMText
 10
7483.235967051036
 20
786.7465760198451
 30
0.0
 40
6.25
 41
0.0
 71
     5
 72
     1
  1
12,6
 73
     1
 44
1.0
  0
POINT
  5
694BA
330
694AE
100
AcDbEntity
  8
Defpoints
 62
     0
100
AcDbPoint
 10
7504.095654551036
 20
772.4110879369356
 30
0.0
  0
POINT
  5
694BB
330
694AE
100
AcDbEntity
  8
Defpoints
 62
     0
100
AcDbPoint
 10
7516.695654551036
 20
772.4110879369356
 30
0.0
  0
POINT
  5
694BC
330
694AE
100
AcDbEntity
  8
Defpoints
 62
     0
100
AcDbPoint
 10
7516.695654551036
 20
780.6809510198451
 30
0.0
  0
ENDBLK
  5
694B0
330
694AE
100
AcDbEntity
  8
0
100
AcDbBlockEnd
  0
BLOCK
  5
694DA
330
694D9
100
AcDbEntity
  8
0
100
AcDbBlockBegin
  2
*D59
 70
     1
 10
0.0
 20
0.0
 30
0.0
  3
*D59
  1
*D6225
  0
LINE
  5
694DC
330
694D9
100
AcDbEntity
  8
0
  6
Continuous
 62
     0
370
    -2
100
AcDbLine
 10
7527.215943363464
 20
687.0736923617119
 30
0.0
 11
7562.514131530029
 21
687.0736923617119
 31
0.0
  0
LINE
  5
694DD
330
694D9
100
AcDbEntity
  8
0
  6
Continuous
 62
     0
370
    -2
100
AcDbLine
 10
7539.453590196087
 20
694.2736923617126
 30
0.0
 11
7562.514131530029
 21
694.2736923617126
 31
0.0
  0
LINE
  5
694DE
330
694D9
100
AcDbEntity
  8
0
  6
Continuous
 62
     0
370
    -2
100
AcDbLine
 10
7561.514131530029
 20
700.0236923617126
 30
0.0
 11
7561.514131530029
 21
720.7693173617122
 31
0.0
  0
LINE
  5
694DF
330
694D9
100
AcDbEntity
  8
0
  6
Continuous
 62
     0
370
    -2
100
AcDbLine
 10
7561.514131530029
 20
687.0736923617119
 30
0.0
 11
7561.514131530029
 21
694.2736923617126
 31
0.0
  0
LINE
  5
694E0
330
694D9
100
AcDbEntity
  8
0
  6
Continuous
 62
     0
370
    -2
100
AcDbLine
 10
7561.514131530029
 20
681.3236923617119
 30
0.0
 11
7561.514131530029
 21
675.5736923617119
 31
0.0
  0
SOLID
  5
694E1
330
694D9
100
AcDbEntity
  8
0
 62
     0
100
AcDbTrace
 10
7562.472464863362
 20
681.3236923617119
 30
0.0
 11
7560.555798196696
 21
681.3236923617119
 31
0.0
 12
7561.514131530029
 22
687.0736923617119
 32
0.0
 13
7561.514131530029
 23
687.0736923617119
 33
0.0
  0
SOLID
  5
694E2
330
694D9
100
AcDbEntity
  8
0
 62
     0
100
AcDbTrace
 10
7560.555798196696
 20
700.0236923617126
 30
0.0
 11
7562.472464863362
 21
700.0236923617126
 31
0.0
 12
7561.514131530029
 22
694.2736923617126
 32
0.0
 13
7561.514131530029
 23
694.2736923617126
 33
0.0
  0
MTEXT
  5
694E3
330
694D9
100
AcDbEntity
  8
0
  6
Continuous
370
     0
100
AcDbMText
 10
7555.448506530029
 20
713.2715048617124
 30
0.0
 40
6.25
 41
0.0
 71
     5
 72
     1
  1
7,2
 11
0.0
 21
1.0
 31
0.0
 73
     1
 44
1.0
  0
POINT
  5
694E4
330
694D9
100
AcDbEntity
  8
Defpoints
 62
     0
100
AcDbPoint
 10
7526.215943363464
 20
687.0736923617119
 30
0.0
  0
POINT
  5
694E5
330
694D9
100
AcDbEntity
  8
Defpoints
 62
     0
100
AcDbPoint
 10
7538.453590196087
 20
694.2736923617126
 30
0.0
  0
POINT
  5
694E6
330
694D9
100
AcDbEntity
  8
Defpoints
 62
     0
100
AcDbPoint
 10
7561.514131530029
 20
694.2736923617126
 30
0.0
  0
ENDBLK
  5
694DB
330
694D9
100
AcDbEntity
  8
0
100
AcDbBlockEnd
  0
BLOCK
  5
699FF
330
699FE
100
AcDbEntity
  8
0
100
AcDbBlockBegin
  2
*D60
 70
     1
 10
0.0
 20
0.0
 30
0.0
  3
*D60
  1
*D6256
  0
LINE
  5
69A01
330
699FE
100
AcDbEntity
  8
0
  6
Continuous
 62
     0
370
    -2
100
AcDbLine
 10
7501.804601861654
 20
792.261087936936
 30
0.0
 11
7456.046210508988
 21
792.261087936936
 31
0.0
  0
LINE
  5
69A02
330
699FE
100
AcDbEntity
  8
0
  6
Continuous
 62
     0
370
    -2
100
AcDbLine
 10
7501.804601861654
 20
725.261087936936
 30
0.0
 11
7456.046210508988
 21
725.261087936936
 31
0.0
  0
LINE
  5
69A03
330
699FE
100
AcDbEntity
  8
0
  6
Continuous
 62
     0
370
    -2
100
AcDbLine
 10
7457.046210508988
 20
786.511087936936
 30
0.0
 11
7457.046210508988
 21
731.011087936936
 31
0.0
  0
SOLID
  5
69A04
330
699FE
100
AcDbEntity
  8
0
 62
     0
100
AcDbTrace
 10
7458.004543842321
 20
786.511087936936
 30
0.0
 11
7456.087877175655
 21
786.511087936936
 31
0.0
 12
7457.046210508988
 22
792.261087936936
 32
0.0
 13
7457.046210508988
 23
792.261087936936
 33
0.0
  0
SOLID
  5
69A05
330
699FE
100
AcDbEntity
  8
0
 62
     0
100
AcDbTrace
 10
7456.087877175655
 20
731.011087936936
 30
0.0
 11
7458.004543842321
 21
731.011087936936
 31
0.0
 12
7457.046210508988
 22
725.261087936936
 32
0.0
 13
7457.046210508988
 23
725.261087936936
 33
0.0
  0
MTEXT
  5
69A06
330
699FE
100
AcDbEntity
  8
0
  6
Continuous
370
     0
100
AcDbMText
 10
7451.264960508988
 20
758.761087936936
 30
0.0
 40
6.25
 41
0.0
 71
     5
 72
     1
  1
67
 11
0.0
 21
1.0
 31
0.0
 73
     1
 44
1.0
  0
POINT
  5
69A07
330
699FE
100
AcDbEntity
  8
Defpoints
 62
     0
100
AcDbPoint
 10
7502.804601861654
 20
792.261087936936
 30
0.0
  0
POINT
  5
69A08
330
699FE
100
AcDbEntity
  8
Defpoints
 62
     0
100
AcDbPoint
 10
7502.804601861654
 20
725.261087936936
 30
0.0
  0
POINT
  5
69A09
330
699FE
100
AcDbEntity
  8
Defpoints
 62
     0
100
AcDbPoint
 10
7457.046210508988
 20
725.261087936936
 30
0.0
  0
ENDBLK
  5
69A00
330
699FE
100
AcDbEntity
  8
0
100
AcDbBlockEnd
  0
BLOCK
  5
69C52
330
69C51
100
AcDbEntity
  8
0
100
AcDbBlockBegin
  2
*D61
 70
     1
 10
0.0
 20
0.0
 30
0.0
  3
*D61
  1
*D6266
  0
LINE
  5
69C54
330
69C51
100
AcDbEntity
  8
0
  6
Continuous
 62
     0
370
    -2
100
AcDbLine
 10
7510.753950393394
 20
970.5040173835333
 30
0.0
 11
7532.800936840979
 21
970.5040173835333
 31
0.0
  0
LINE
  5
69C55
330
69C51
100
AcDbEntity
  8
0
  6
Continuous
 62
     0
370
    -2
100
AcDbLine
 10
7510.753950388994
 20
905.5040173835333
 30
0.0
 11
7532.800936840979
 21
905.5040173835333
 31
0.0
  0
LINE
  5
69C56
330
69C51
100
AcDbEntity
  8
0
  6
Continuous
 62
     0
370
    -2
100
AcDbLine
 10
7531.800936840979
 20
964.7540173835333
 30
0.0
 11
7531.800936840979
 21
911.2540173835333
 31
0.0
  0
SOLID
  5
69C57
330
69C51
100
AcDbEntity
  8
0
 62
     0
100
AcDbTrace
 10
7532.759270174312
 20
964.7540173835333
 30
0.0
 11
7530.842603507646
 21
964.7540173835333
 31
0.0
 12
7531.800936840979
 22
970.5040173835333
 32
0.0
 13
7531.800936840979
 23
970.5040173835333
 33
0.0
  0
SOLID
  5
69C58
330
69C51
100
AcDbEntity
  8
0
 62
     0
100
AcDbTrace
 10
7530.842603507646
 20
911.2540173835333
 30
0.0
 11
7532.759270174312
 21
911.2540173835333
 31
0.0
 12
7531.800936840979
 22
905.5040173835333
 32
0.0
 13
7531.800936840979
 23
905.5040173835333
 33
0.0
  0
MTEXT
  5
69C59
330
69C51
100
AcDbEntity
  8
0
  6
Continuous
370
     0
100
AcDbMText
 10
7526.019686840979
 20
938.0040173835333
 30
0.0
 40
6.25
 41
0.0
 71
     5
 72
     1
  1
65
 11
0.0
 21
1.0
 31
0.0
 73
     1
 44
1.0
  0
POINT
  5
69C5A
330
69C51
100
AcDbEntity
  8
Defpoints
 62
     0
100
AcDbPoint
 10
7509.753950393394
 20
970.5040173835333
 30
0.0
  0
POINT
  5
69C5B
330
69C51
100
AcDbEntity
  8
Defpoints
 62
     0
100
AcDbPoint
 10
7509.753950388994
 20
905.5040173835333
 30
0.0
  0
POINT
  5
69C5C
330
69C51
100
AcDbEntity
  8
Defpoints
 62
     0
100
AcDbPoint
 10
7531.800936840979
 20
905.5040173835333
 30
0.0
  0
ENDBLK
  5
69C53
330
69C51
100
AcDbEntity
  8
0
100
AcDbBlockEnd
  0
ENDSEC
  0
SECTION
  2
ENTITIES
  0
HATCH
  5
297E
330
1F
100
AcDbEntity
  8
0
  6
ByBlock
 62
   254
370
     0
100
AcDbHatch
 10
0.0
 20
0.0
 30
0.0
210
0.0
220
0.0
230
1.0
  2
SOLID
 70
     1
 71
     0
 91
        0
 75
     0
 76
     1
 98
        0
1001
ACAD
1010
0.0
1020
0.0
1030
0.0
  0
LINE
  5
69BA5
330
1F
100
AcDbEntity
  8
0
100
AcDbLine
 10
7353.528870379614
 20
865.8825048581192
 30
0.0
 11
7352.680342242214
 21
866.3067689269191
 31
0.0
  0
LINE
  5
69BA6
330
1F
100
AcDbEntity
  8
0
100
AcDbLine
 10
7347.984599488815
 20
856.9152834217192
 30
0.0
 11
7348.833127626214
 21
856.4910193529191
 31
0.0
  0
LINE
  5
69BA7
330
1F
100
AcDbEntity
  8
0
100
AcDbLine
 10
7353.528870382014
 20
909.183775046119
 30
0.0
 11
7352.680342244615
 21
909.608039114919
 31
0.0
  0
LINE
  5
69BA8
330
1F
100
AcDbEntity
  8
0
100
AcDbLine
 10
7347.984599491215
 20
900.216553609719
 30
0.0
 11
7348.833127628614
 21
899.7922895409191
 31
0.0
  0
LINE
  5
69BA9
330
1F
100
AcDbEntity
  8
0
100
AcDbLine
 10
7345.715189358314
 20
854.648675106719
 30
0.0
 11
7347.129402920715
 21
853.9415683254191
 31
0.0
  0
ARC
  5
69BAA
330
1F
100
AcDbEntity
  8
0
100
AcDbCircle
 10
7374.374101428714
 20
907.1745121716191
 30
0.0
 40
3.490932151508504
100
AcDbArc
 50
246.1019429137958
 51
293.8980570814042
  0
ARC
  5
69BAB
330
1F
100
AcDbEntity
  8
0
100
AcDbCircle
 10
7374.374101425615
 20
850.882860927219
 30
0.0
 40
3.490932151508444
100
AcDbArc
 50
246.1019429137943
 51
293.898057081389
  0
LINE
  5
69BAC
330
1F
100
AcDbEntity
  8
0
100
AcDbLine
 10
7357.403538680114
 20
912.4681470621191
 30
0.0
 11
7373.666994647415
 21
904.3364190771191
 31
0.0
  0
ARC
  5
69BAD
330
1F
100
AcDbEntity
  8
0
100
AcDbCircle
 10
7374.374101428714
 20
905.9322423196191
 30
0.0
 40
1.745466075754155
100
AcDbArc
 50
246.1019429138095
 51
293.898057081389
  0
LINE
  5
69BAE
330
1F
100
AcDbEntity
  8
0
100
AcDbLine
 10
7375.081208209815
 20
904.3364190770191
 30
0.0
 11
7375.788314991015
 21
904.689972467619
 31
0.0
  0
LINE
  5
69BAF
330
1F
100
AcDbEntity
  8
0
100
AcDbLine
 10
7375.788314991015
 20
904.689972467619
 30
0.0
 11
7376.495421772214
 21
904.3364190769192
 31
0.0
  0
LINE
  5
69BB0
330
1F
100
AcDbEntity
  8
0
100
AcDbLine
 10
7376.495421772214
 20
904.3364190769192
 30
0.0
 11
7375.788314991015
 21
903.9828656864191
 31
0.0
  0
LINE
  5
69BB1
330
1F
100
AcDbEntity
  8
0
100
AcDbLine
 10
7372.959887866215
 20
903.9828656865192
 30
0.0
 11
7356.696431898915
 21
912.1145936715192
 31
0.0
  0
LINE
  5
69BB2
330
1F
100
AcDbEntity
  8
0
100
AcDbLine
 10
7356.696431898915
 20
912.1145936715192
 30
0.0
 11
7357.403538680114
 21
912.4681470621191
 31
0.0
  0
LINE
  5
69BB3
330
1F
100
AcDbEntity
  8
0
100
AcDbLine
 10
7356.696431898915
 20
912.1145936715192
 30
0.0
 11
7356.696431895814
 21
855.822942427019
 31
0.0
  0
LINE
  5
69BB4
330
1F
100
AcDbEntity
  8
0
100
AcDbLine
 10
7372.959887863114
 20
847.691214442019
 30
0.0
 11
7356.696431895814
 21
855.822942427019
 31
0.0
  0
LINE
  5
69BB5
330
1F
100
AcDbEntity
  8
0
100
AcDbLine
 10
7362.353286147614
 20
894.996747384219
 30
0.0
 11
7362.353286146114
 21
867.2839344639191
 31
0.0
  0
LINE
  5
69BB6
330
1F
100
AcDbEntity
  8
0
100
AcDbLine
 10
7362.353286146114
 20
867.2839344639191
 30
0.0
 11
7370.131460739114
 21
863.3948471667192
 31
0.0
  0
LINE
  5
69BB7
330
1F
100
AcDbEntity
  8
0
100
AcDbLine
 10
7370.131460739114
 20
863.3948471667192
 30
0.0
 11
7370.131460740715
 21
891.1076600870191
 31
0.0
  0
LINE
  5
69BB8
330
1F
100
AcDbEntity
  8
0
100
AcDbLine
 10
7370.131460740715
 20
891.1076600870191
 30
0.0
 11
7362.353286147614
 21
894.996747384219
 31
0.0
  0
LWPOLYLINE
  5
69BB9
330
1F
100
AcDbEntity
  8
0
100
AcDbPolyline
 90
       46
 70
   128
 43
0.0
 10
7363.767499707815
 20
855.318497433719
 10
7364.161140681615
 20
855.1553893455192
 10
7364.547119881615
 20
855.0628807684192
 10
7364.917924661814
 20
855.0427722764192
 10
7365.266337728815
 20
855.0954552586192
 10
7365.585577618614
 20
855.2199043006191
 10
7365.869430689914
 20
855.413697143419
 10
7366.112372065614
 20
855.6730618297191
 10
7366.309673168114
 20
855.9929501209191
 10
7366.457493755815
 20
856.367135755319
 10
7366.552956669315
 20
856.7883356352191
 10
7366.594203831414
 20
857.2483515839191
 10
7366.580432413114
 20
857.7382299144191
 10
7366.511910459314
 20
858.2484357021191
 10
7366.389971672014
 20
858.769038371819
 10
7366.216989450914
 20
859.2899049847191
 10
7365.996330698214
 20
859.8008974645192
 10
7365.732290285615
 20
860.2920699240191
 10
7365.430007459315
 20
860.753862249819
 10
7365.095365810715
 20
861.1772861798191
 10
7364.734878758814
 20
861.5541002487192
 10
7364.355562774114
 20
861.876970199219
 10
7363.964800810714
 20
862.139611735119
 10
7363.570198605815
 20
862.336912837619
 10
7363.179436642415
 20
862.465033265219
 10
7362.800120657615
 20
862.5214792994192
 10
7362.439633605714
 20
862.5051522825191
 10
7362.104991957114
 20
862.416370001219
 10
7361.802709130715
 20
862.256860501719
 10
7361.538668718114
 20
862.0297284550192
 10
7361.318009965315
 20
861.7393947278191
 10
7361.145027744215
 20
861.391510336119
 10
7361.023088956915
 20
860.9928464538192
 10
7360.954567003015
 20
860.551162619919
 10
7360.940795584715
 20
860.0750557078192
 10
7360.982042746715
 20
859.5737925969191
 10
7361.077505660114
 20
859.0571298036192
 10
7361.225326247814
 20
858.535123581419
 10
7361.422627350315
 20
858.0179341877191
 10
7361.665568725914
 20
857.515628125719
 10
7361.949421797214
 20
857.0379822116191
 10
7362.268661687014
 20
856.5942932798192
 10
7362.617074754015
 20
856.1931972305191
 10
7362.987879534115
 20
855.8425009423191
 10
7363.373858734114
 20
855.5490303194191
 10
7363.767499707815
 20
855.318497433719
  0
LWPOLYLINE
  5
69BBA
330
1F
100
AcDbEntity
  8
0
100
AcDbPolyline
 90
       46
 70
   128
 43
0.0
 10
7363.767499710215
 20
898.6197676217192
 10
7364.161140684015
 20
898.456659533619
 10
7364.547119884014
 20
898.3641509564189
 10
7364.917924664214
 20
898.344042464519
 10
7365.266337731215
 20
898.3967254467192
 10
7365.585577621015
 20
898.5211744887191
 10
7365.869430692314
 20
898.7149673314192
 10
7366.112372068014
 20
898.9743320177191
 10
7366.309673170515
 20
899.2942203089191
 10
7366.457493758215
 20
899.668405943319
 10
7366.552956671714
 20
900.0896058232191
 10
7366.594203833814
 20
900.5496217719191
 10
7366.580432415514
 20
901.0395001024191
 10
7366.511910461714
 20
901.5497058902191
 10
7366.389971674414
 20
902.0703085598192
 10
7366.216989453314
 20
902.5911751727191
 10
7365.996330700715
 20
903.1021676525191
 10
7365.732290288014
 20
903.5933401120191
 10
7365.430007461714
 20
904.055132437919
 10
7365.095365813115
 20
904.4785563678191
 10
7364.734878761215
 20
904.855370436719
 10
7364.355562776514
 20
905.178240387219
 10
7363.964800813114
 20
905.440881923119
 10
7363.570198608214
 20
905.638183025619
 10
7363.179436644815
 20
905.7663034532192
 10
7362.800120660015
 20
905.822749487419
 10
7362.439633608114
 20
905.8064224705191
 10
7362.104991959514
 20
905.7176401893192
 10
7361.802709133114
 20
905.5581306897192
 10
7361.538668720515
 20
905.3309986430191
 10
7361.318009967815
 20
905.0406649159191
 10
7361.145027746615
 20
904.6927805242191
 10
7361.023088959315
 20
904.294116641919
 10
7360.954567005415
 20
903.8524328079192
 10
7360.940795587115
 20
903.3763258958191
 10
7360.982042749114
 20
902.8750627849191
 10
7361.077505662514
 20
902.358399991619
 10
7361.225326250214
 20
901.836393769419
 10
7361.422627352715
 20
901.3192043757191
 10
7361.665568728315
 20
900.816898313819
 10
7361.949421799614
 20
900.3392523996191
 10
7362.268661689414
 20
899.895563467819
 10
7362.617074756415
 20
899.4944674186191
 10
7362.987879536515
 20
899.1437711303191
 10
7363.373858736514
 20
898.8503005074191
 10
7363.767499710215
 20
898.6197676217192
  0
LINE
  5
69BBB
330
1F
100
AcDbEntity
  8
0
100
AcDbLine
 10
7376.495421772214
 20
904.3364190769192
 30
0.0
 11
7376.495421769015
 21
848.0447678325191
 31
0.0
  0
LINE
  5
69BBC
330
1F
100
AcDbEntity
  8
0
100
AcDbLine
 10
7376.495421769015
 20
848.0447678325191
 30
0.0
 11
7375.788314987814
 21
847.6912144419192
 31
0.0
  0
LINE
  5
69BBD
330
1F
100
AcDbEntity
  8
0
100
AcDbLine
 10
7364.474606491814
 20
905.0354988386192
 30
0.0
 11
7364.633009373614
 21
904.9490439882192
 31
0.0
  0
LWPOLYLINE
  5
69BBE
330
1F
100
AcDbEntity
  8
0
100
AcDbPolyline
 90
       31
 70
   128
 43
0.0
 10
7366.578945309515
 20
901.0571721164191
 10
7366.553056334214
 20
900.8785157092192
 10
7366.458075468714
 20
900.524397617219
 10
7366.311723798614
 20
900.219825868019
 10
7366.117791755314
 20
899.9726887101191
 10
7365.881302076715
 20
899.789386865919
 10
7365.608379721414
 20
899.6746677570189
 10
7365.306093235014
 20
899.6315025481191
 10
7364.982271678715
 20
899.661009195319
 10
7364.645301860714
 20
899.7624234920191
 10
7364.303911122314
 20
899.933118861319
 10
7363.966941304315
 20
900.1686743826191
 10
7363.643119748014
 20
900.462989291719
 10
7363.340833261615
 20
900.8084409871191
 10
7363.067910906315
 20
901.1960824513191
 10
7362.831421227815
 20
901.6158739741192
 10
7362.637489184514
 20
902.0569431754192
 10
7362.491137514415
 20
902.5078665947191
 10
7362.396156649014
 20
902.956965552219
 10
7362.355006542714
 20
903.392608620819
 10
7362.368752961815
 20
903.803512874019
 10
7362.437039881114
 20
904.1790361074189
 10
7362.558098705415
 20
904.509452466419
 10
7362.728794074615
 20
904.786204341019
 10
7362.944705068415
 20
905.002124003019
 10
7363.200239705415
 20
905.1516192465191
 10
7363.488779772814
 20
905.230818223319
 10
7363.802852234415
 20
905.237669721519
 10
7364.134322778415
 20
905.171996290819
 10
7364.474606491814
 20
905.0354988386192
 10
7364.474606491814
 20
905.0354988386192
  0
LINE
  5
69BBF
330
1F
100
AcDbEntity
  8
0
100
AcDbLine
 10
7363.060392927315
 20
867.6374878545192
 30
0.0
 11
7362.353286146114
 21
867.2839344639191
 31
0.0
  0
LINE
  5
69BC0
330
1F
100
AcDbEntity
  8
0
100
AcDbLine
 10
7363.060392928815
 20
894.6431939936191
 30
0.0
 11
7363.060392927315
 21
867.6374878545192
 31
0.0
  0
LINE
  5
69BC1
330
1F
100
AcDbEntity
  8
0
100
AcDbLine
 10
7363.060392927315
 20
867.6374878545192
 30
0.0
 11
7370.131460739214
 21
864.1019539479192
 31
0.0
  0
LINE
  5
69BC2
330
1F
100
AcDbEntity
  8
0
100
AcDbLine
 10
7364.474606489414
 20
861.734228650619
 30
0.0
 11
7364.633009371314
 21
861.6477738001191
 31
0.0
  0
LWPOLYLINE
  5
69BC3
330
1F
100
AcDbEntity
  8
0
100
AcDbPolyline
 90
       31
 70
   128
 43
0.0
 10
7366.578945307115
 20
857.755901928619
 10
7366.553056331814
 20
857.577245521219
 10
7366.458075466315
 20
857.2231274291192
 10
7366.311723796214
 20
856.918555680019
 10
7366.117791752915
 20
856.671418522019
 10
7365.881302074315
 20
856.488116677919
 10
7365.608379719015
 20
856.3733975690192
 10
7365.306093232614
 20
856.3302323601191
 10
7364.982271676315
 20
856.359739007319
 10
7364.645301858314
 20
856.4611533040191
 10
7364.303911119914
 20
856.631848673319
 10
7363.966941301915
 20
856.8674041946191
 10
7363.643119745614
 20
857.1617191037191
 10
7363.340833259214
 20
857.5071707991191
 10
7363.067910903915
 20
857.8948122633191
 10
7362.831421225414
 20
858.3146037861192
 10
7362.637489182114
 20
858.755672987419
 10
7362.491137512015
 20
859.206596406619
 10
7362.396156646614
 20
859.6556953642192
 10
7362.355006540314
 20
860.091338432819
 10
7362.368752959414
 20
860.502242686019
 10
7362.437039878714
 20
860.8777659193191
 10
7362.558098702914
 20
861.208182278419
 10
7362.728794072214
 20
861.484934153019
 10
7362.944705065915
 20
861.7008538150191
 10
7363.200239703015
 20
861.8503490585191
 10
7363.488779770414
 20
861.929548035319
 10
7363.802852232015
 20
861.9363995334191
 10
7364.134322775914
 20
861.870726102819
 10
7364.474606489414
 20
861.734228650619
 10
7364.474606489414
 20
861.734228650619
  0
LWPOLYLINE
  5
69BC4
330
1F
100
AcDbEntity
  8
0
100
AcDbPolyline
 90
       53
 70
   128
 43
0.0
 10
7350.321228909014
 20
865.1798927803192
 10
7349.892194180415
 20
864.8062016462189
 10
7349.481953128215
 20
864.3797309332191
 10
7349.096487990914
 20
863.9066995448192
 10
7348.741419718014
 20
863.394005343819
 10
7348.421926004515
 20
862.849124566119
 10
7348.142665788215
 20
862.2800028004191
 10
7347.907711312015
 20
861.6949391236191
 10
7347.720488741014
 20
861.1024650815192
 10
7347.583728202115
 20
860.511220279919
 10
7347.499423971814
 20
859.929826399319
 10
7347.468805395714
 20
859.3667614717191
 10
7347.492318961415
 20
858.8302362516191
 10
7347.569621788414
 20
858.3280744848192
 10
7347.699586627315
 20
857.8675988208191
 10
7347.880318298015
 20
857.4555240316191
 10
7348.109181325915
 20
857.0978590955191
 10
7348.382838372714
 20
856.799819572719
 10
7348.697298902414
 20
856.565751550619
 10
7349.047977372315
 20
856.399068268019
 10
7349.429760100815
 20
856.302200342419
 10
7349.837079835915
 20
856.2765603265192
 10
7350.263996938715
 20
856.322522109319
 10
7350.704285996514
 20
856.4394154645191
 10
7351.151526603415
 20
856.625535823919
 10
7351.599196984314
 20
856.8781691335192
 10
7352.040769096914
 20
857.1936314306191
 10
7352.469803825515
 20
857.5673225648192
 10
7352.880044877615
 20
857.9937932778192
 10
7353.265510015014
 20
858.4668246662189
 10
7353.620578287914
 20
858.9795188672191
 10
7353.940072001315
 20
859.5243996449191
 10
7354.219332217614
 20
860.093521410619
 10
7354.454286693915
 20
860.678585087419
 10
7354.641509264815
 20
861.2710591294191
 10
7354.778269803714
 20
861.8623039311191
 10
7354.862574034015
 20
862.4436978117191
 10
7354.893192610214
 20
863.006762739319
 10
7354.869679044415
 20
863.543287959419
 10
7354.792376217414
 20
864.045449726119
 10
7354.662411378615
 20
864.505925390219
 10
7354.481679707815
 20
864.9180001794192
 10
7354.252816679915
 20
865.275665115519
 10
7353.979159633114
 20
865.5737046383191
 10
7353.664699103414
 20
865.8077726604191
 10
7353.314020633515
 20
865.974455943019
 10
7352.932237905015
 20
866.0713238685192
 10
7352.524918169915
 20
866.0969638845191
 10
7352.098001067115
 20
866.0510021017191
 10
7351.657712009314
 20
865.9341087464192
 10
7351.210471402414
 20
865.7479883871191
 10
7350.762801021515
 20
865.4953550775191
 10
7350.321228909014
 20
865.1798927803192
  0
ARC
  5
69BC5
330
1F
100
AcDbEntity
  8
0
100
AcDbCircle
 10
7348.960841425715
 20
858.8196725443191
 30
0.0
 40
2.140034170230055
100
AcDbArc
 50
212.5454437074971
 51
242.859082187203
  0
ARC
  5
69BC6
330
1F
100
AcDbEntity
  8
0
100
AcDbCircle
 10
7351.739930300015
 20
864.3693145433191
 30
0.0
 40
2.153625805315833
100
AcDbArc
 50
64.10874382269715
 51
94.22652554800328
  0
LWPOLYLINE
  5
69BC7
330
1F
100
AcDbEntity
  8
0
100
AcDbPolyline
 90
       53
 70
   128
 43
0.0
 10
7354.867553517915
 20
906.865957788519
 10
7354.788055488214
 20
907.366544392819
 10
7354.655958452615
 20
907.825155808919
 10
7354.473188683314
 20
908.2351044496191
 10
7354.242411375115
 20
908.5904123406191
 10
7353.966991780914
 20
908.8858982927189
 10
7353.650946138614
 20
909.1172534555191
 10
7353.298883105114
 20
909.2811041496192
 10
7352.915936552515
 20
909.375061063019
 10
7352.507690703715
 20
909.3977540923191
 10
7352.080098702414
 20
909.3488523220191
 10
7351.639395803015
 20
909.2290688501192
 10
7351.192008446014
 20
909.0401503893191
 10
7350.744460546714
 20
908.7848517963192
 10
7350.303278361014
 20
908.4668958992191
 10
7349.874895318814
 20
908.0909192112191
 10
7349.465558209415
 20
907.6624043189191
 10
7349.081236089714
 20
907.1875999345192
 10
7348.727533241515
 20
906.6734297749191
 10
7348.409607448914
 20
906.127391598919
 10
7348.132094785815
 20
905.5574478728191
 10
7347.899042011814
 20
904.9719096594191
 10
7347.713847561015
 20
904.379315424519
 10
7347.579211985714
 20
903.7883065262191
 10
7347.497098575614
 20
903.2075012053191
 10
7347.468704729215
 20
902.645368911219
 10
7347.494444492814
 20
902.110106798519
 10
7347.573942522515
 20
901.609520194219
 10
7347.706039558115
 20
901.1509087781191
 10
7347.888809327414
 20
900.7409601374192
 10
7348.119586635515
 20
900.3856522464192
 10
7348.395006229714
 20
900.0901662943191
 10
7348.711051872115
 20
899.858811131519
 10
7349.063114905514
 20
899.6949604374191
 10
7349.446061458115
 20
899.6010035240191
 10
7349.854307307014
 20
899.578310494719
 10
7350.281899308215
 20
899.6272122650192
 10
7350.722602207615
 20
899.7469957369191
 10
7351.169989564614
 20
899.9359141977192
 10
7351.617537464014
 20
900.1912127908191
 10
7352.058719649614
 20
900.5091686878189
 10
7352.487102691915
 20
900.8851453758192
 10
7352.896439801215
 20
901.3136602681192
 10
7353.280761921014
 20
901.7884646526192
 10
7353.634464769115
 20
902.3026348121192
 10
7353.952390561714
 20
902.8486729881191
 10
7354.229903224815
 20
903.4186167142192
 10
7354.462955998914
 20
904.0041549276192
 10
7354.648150449614
 20
904.5967491626192
 10
7354.782786024914
 20
905.1877580608192
 10
7354.864899435014
 20
905.768563381719
 10
7354.893293281414
 20
906.3306956758191
 10
7354.867553517915
 20
906.865957788519
  0
ARC
  5
69BC8
330
1F
100
AcDbEntity
  8
0
100
AcDbCircle
 10
7351.739370035015
 20
907.667656693919
 30
0.0
 40
2.156504727328382
100
AcDbArc
 50
64.12932242982049
 51
94.20594692470736
  0
ARC
  5
69BC9
330
1F
100
AcDbEntity
  8
0
100
AcDbCircle
 10
7348.958989537815
 20
902.1189073699192
 30
0.0
 40
2.137378251899652
100
AcDbArc
 50
212.5261569200791
 51
242.8783690019948
  0
LINE
  5
69BCA
330
1F
100
AcDbEntity
  8
0
100
AcDbLine
 10
7355.282218336614
 20
914.9430207965191
 30
0.0
 11
7372.959887866215
 21
906.1041860302192
 31
0.0
  0
LINE
  5
69BCB
330
1F
100
AcDbEntity
  8
0
100
AcDbLine
 10
7372.959887866215
 20
906.1041860302192
 30
0.0
 11
7371.545674303915
 21
905.3970792490192
 31
0.0
  0
LINE
  5
69BCC
330
1F
100
AcDbEntity
  8
0
100
AcDbLine
 10
7371.545674303915
 20
905.3970792490192
 30
0.0
 11
7355.282218336614
 21
913.5288072340192
 31
0.0
  0
LINE
  5
69BCD
330
1F
100
AcDbEntity
  8
0
100
AcDbLine
 10
7355.282218336614
 20
913.5288072340192
 30
0.0
 11
7348.918257305914
 21
910.346826718719
 31
0.0
  0
LINE
  5
69BCE
330
1F
100
AcDbEntity
  8
0
100
AcDbLine
 10
7347.504043743515
 20
911.0539335000191
 30
0.0
 11
7355.282218336614
 21
914.9430207965191
 31
0.0
  0
LINE
  5
69BCF
330
1F
100
AcDbEntity
  8
0
100
AcDbLine
 10
7372.959887866215
 20
906.1041860302192
 30
0.0
 11
7372.959887866115
 21
904.6899724678191
 31
0.0
  0
LINE
  5
69BD0
330
1F
100
AcDbEntity
  8
0
100
AcDbLine
 10
7365.348772999514
 20
904.1654028828192
 30
0.0
 11
7363.413946320014
 21
905.132816222719
 31
0.0
  0
LINE
  5
69BD1
330
1F
100
AcDbEntity
  8
0
100
AcDbLine
 10
7363.413946320014
 20
905.132816222719
 30
0.0
 11
7363.296095189815
 21
905.186925177819
 31
0.0
  0
LINE
  5
69BD2
330
1F
100
AcDbEntity
  8
0
100
AcDbLine
 10
7363.296095189515
 20
900.866431379019
 30
0.0
 11
7363.413946319714
 21
900.8026892039192
 31
0.0
  0
LINE
  5
69BD3
330
1F
100
AcDbEntity
  8
0
100
AcDbLine
 10
7363.413946319714
 20
900.8026892039192
 30
0.0
 11
7365.647210431514
 21
899.6860571479191
 31
0.0
  0
LINE
  5
69BD4
330
1F
100
AcDbEntity
  8
0
100
AcDbLine
 10
7363.413946317314
 20
857.5014190159189
 30
0.0
 11
7365.647210429114
 21
856.384786959819
 31
0.0
  0
LINE
  5
69BD5
330
1F
100
AcDbEntity
  8
0
100
AcDbLine
 10
7365.348772997115
 20
860.864132694819
 30
0.0
 11
7363.413946317614
 21
861.831546034719
 31
0.0
  0
LINE
  5
69BD6
330
1F
100
AcDbEntity
  8
0
100
AcDbLine
 10
7363.413946317614
 20
861.831546034719
 30
0.0
 11
7363.296095187515
 21
861.885654989819
 31
0.0
  0
LINE
  5
69BD7
330
1F
100
AcDbEntity
  8
0
100
AcDbLine
 10
7363.296095187315
 20
857.5651611909192
 30
0.0
 11
7363.413946317314
 21
857.5014190159189
 31
0.0
  0
LINE
  5
69BD8
330
1F
100
AcDbEntity
  8
0
100
AcDbLine
 10
7356.696431895814
 20
856.5300492083192
 30
0.0
 11
7355.282218333415
 21
857.237155989619
 31
0.0
  0
LINE
  5
69BD9
330
1F
100
AcDbEntity
  8
0
100
AcDbLine
 10
7355.282218336614
 20
913.5288072340192
 30
0.0
 11
7355.282218333415
 21
857.237155989619
 31
0.0
  0
LINE
  5
69BDA
330
1F
100
AcDbEntity
  8
0
100
AcDbLine
 10
7355.282218333415
 20
857.237155989619
 30
0.0
 11
7348.918257302815
 21
854.0551754743191
 31
0.0
  0
LWPOLYLINE
  5
69BDB
330
1F
100
AcDbEntity
  8
0
100
AcDbPolyline
 90
       12
 70
   128
 43
0.0
 10
7346.089830178214
 20
856.105063526919
 10
7346.118619488115
 20
855.626465120819
 10
7346.204401350315
 20
855.1863989078191
 10
7346.345429493715
 20
854.793823367219
 10
7346.538832991814
 20
854.4567302049192
 10
7346.780674707215
 20
854.1819816654191
 10
7347.066031440015
 20
853.9751708368191
 10
7347.389094150015
 20
853.8405077911192
 10
7347.743286212014
 20
853.7807338797192
 10
7348.121397297115
 20
853.7970659269191
 10
7348.515730153915
 20
853.8891714595192
 10
7348.918257302815
 20
854.0551754743191
  0
LINE
  5
69BDC
330
1F
100
AcDbEntity
  8
0
100
AcDbLine
 10
7346.089830180915
 20
905.4685115413191
 30
0.0
 11
7346.089830178214
 21
856.105063526919
 31
0.0
  0
ARC
  5
69BDD
330
1F
100
AcDbEntity
  8
0
100
AcDbCircle
 10
7351.882754051015
 20
905.368910858819
 30
0.0
 40
5.793780049342779
100
AcDbArc
 50
120.7750547268997
 51
179.0149816156008
  0
LWPOLYLINE
  5
69BDE
330
1F
100
AcDbEntity
  8
0
100
AcDbPolyline
 90
       35
 70
   128
 43
0.0
 10
7354.049731909215
 20
865.5068576294192
 10
7353.974620931414
 20
865.6212231520191
 10
7353.705993346214
 20
865.945430459219
 10
7353.394972014815
 20
866.2063106741192
 10
7353.045922994915
 20
866.400201610319
 10
7352.663746169715
 20
866.5243814641191
 10
7352.253806464115
 20
866.577107022519
 10
7351.821858532914
 20
866.5576381343191
 10
7351.373965978214
 20
866.466248100019
 10
7350.916416229715
 20
866.304219835319
 10
7350.455632283015
 20
866.0738278619191
 10
7349.998082534515
 20
865.778306378119
 10
7349.550189979815
 20
865.4218038578191
 10
7349.118242048615
 20
865.009324814819
 10
7348.708302342914
 20
864.546659550719
 10
7348.326125517715
 20
864.0403028717191
 10
7347.977076497815
 20
863.4973629156192
 10
7347.666055166314
 20
862.9254613693191
 10
7347.397427581014
 20
862.3326264768192
 10
7347.174964684315
 20
861.7271803405191
 10
7347.001789367714
 20
861.1176220970191
 10
7346.880332633014
 20
860.5125086079191
 10
7346.812299466515
 20
859.920334340219
 10
7346.798644904715
 20
859.3494121225191
 10
7346.839560627815
 20
858.807756451219
 10
7346.934472268615
 20
858.3029709847191
 10
7347.082047475915
 20
857.8421418044192
 10
7347.280214617114
 20
857.4317379419191
 10
7347.526191860115
 20
857.077520567719
 10
7347.816526223414
 20
856.7844621174191
 10
7348.147142049114
 20
856.5566764892191
 10
7348.513398215715
 20
856.3973612940191
 10
7348.910153289515
 20
856.3087529679191
 10
7349.331837698815
 20
856.2920953776191
 10
7349.446162326514
 20
856.299718466319
  0
LWPOLYLINE
  5
69BDF
330
1F
100
AcDbEntity
  8
0
100
AcDbPolyline
 90
       25
 70
   128
 43
0.0
 10
7350.686024258815
 20
909.4986593876191
 10
7350.226049572215
 20
909.2352400240192
 10
7349.772531922014
 20
908.9086544500191
 10
7349.331837701715
 20
908.5234872114191
 10
7348.910153292414
 20
908.0851452117191
 10
7348.513398218614
 20
907.5997818118191
 10
7348.147142051915
 20
907.074210450019
 10
7347.816526226215
 20
906.515808996019
 10
7347.526191862815
 20
905.9324161824192
 10
7347.280214619815
 20
905.3322215652191
 10
7347.082047478514
 20
904.723650561419
 10
7346.934472271215
 20
904.1152461738192
 10
7346.839560630315
 20
903.5155490665192
 10
7346.798644907114
 20
902.9329776721191
 10
7346.812299468815
 20
902.3757100161191
 10
7346.880332635315
 20
901.8515689149191
 10
7347.001789370014
 20
901.367912160519
 10
7347.174964686515
 20
900.931529233619
 10
7347.397427583114
 20
900.548545993919
 10
7347.666055168414
 20
900.2243386867191
 10
7347.977076499815
 20
899.9634584718191
 10
7348.326125519615
 20
899.7695675356191
 10
7348.708302344815
 20
899.645387681819
 10
7349.118242050515
 20
899.5926621234192
 10
7349.446162329815
 20
899.6009886544192
  0
ARC
  5
69BE0
330
1F
100
AcDbEntity
  8
0
100
AcDbCircle
 10
7352.018515499114
 20
907.4515834969192
 30
0.0
 40
2.442550431035763
100
AcDbArc
 50
33.7369108928855
 51
123.0610770491809
  0
ARC
  5
69BE1
330
1F
100
AcDbEntity
  8
0
100
AcDbCircle
 10
7350.421335069414
 20
906.1033871485191
 30
0.0
 40
5.74617245290075
100
AcDbArc
 50
120.5102810717988
 51
179.2797552705995
  0
ARC
  5
69BE2
330
1F
100
AcDbEntity
  8
0
100
AcDbCircle
 10
7348.852797771615
 20
902.031791916719
 30
0.0
 40
2.264399921273101
100
AcDbArc
 50
249.3384603014012
 51
270.7975692152962
  0
ARC
  5
69BE3
330
1F
100
AcDbEntity
  8
0
100
AcDbCircle
 10
7351.751858605615
 20
907.827306661719
 30
0.0
 40
2.260398291777417
100
AcDbArc
 50
36.05310786210094
 51
57.55065789772302
  0
LINE
  5
69BE4
330
1F
100
AcDbEntity
  8
0
100
AcDbLine
 10
7364.828159882114
 20
901.509795985119
 30
0.0
 11
7366.505406720915
 21
900.671172565619
 31
0.0
  0
LINE
  5
69BE5
330
1F
100
AcDbEntity
  8
0
100
AcDbLine
 10
7344.675616618614
 20
906.1756183226192
 30
0.0
 11
7344.675616615815
 21
856.8121703082192
 31
0.0
  0
ARC
  5
69BE6
330
1F
100
AcDbEntity
  8
0
100
AcDbCircle
 10
7366.557335199715
 20
904.5291958698191
 30
0.0
 40
3.479486017038592
100
AcDbArc
 50
170.2533874476005
 51
240.200733053799
  0
LINE
  5
69BE7
330
1F
100
AcDbEntity
  8
0
100
AcDbLine
 10
7363.413946317814
 20
867.5758866160191
 30
0.0
 11
7370.131460739214
 21
864.2171294047192
 31
0.0
  0
LWPOLYLINE
  5
69BE8
330
1F
100
AcDbEntity
  8
0
100
AcDbPolyline
 90
        3
 70
   128
 43
0.0
 10
7363.060392927315
 20
867.796406477219
 10
7363.106976807914
 20
867.762263550619
 10
7363.413946317814
 20
867.5758866160191
  0
ARC
  5
69BE9
330
1F
100
AcDbEntity
  8
0
100
AcDbCircle
 10
7351.776745173815
 20
864.5525397250191
 30
0.0
 40
2.224690445674795
100
AcDbArc
 50
35.8784787994144
 51
57.72528696141698
  0
ARC
  5
69BEA
330
1F
100
AcDbEntity
  8
0
100
AcDbCircle
 10
7348.846424171915
 20
858.6941226481191
 30
0.0
 40
2.228103707149634
100
AcDbArc
 50
249.1615496331827
 51
270.9744798814829
  0
LINE
  5
69BEB
330
1F
100
AcDbEntity
  8
0
100
AcDbLine
 10
7364.828159879715
 20
858.208525797119
 30
0.0
 11
7366.505406718515
 21
857.3699023775192
 31
0.0
  0
ARC
  5
69BEC
330
1F
100
AcDbEntity
  8
0
100
AcDbCircle
 10
7366.557335197214
 20
861.2279256818191
 30
0.0
 40
3.479486016949393
100
AcDbArc
 50
170.2533874412016
 51
240.2007330544088
  0
ARC
  5
69BED
330
1F
100
AcDbEntity
  8
0
100
AcDbCircle
 10
7346.976727402414
 20
856.5863600382191
 30
0.0
 40
2.312163733420423
100
AcDbArc
 50
174.3954527236039
 51
236.9336888639018
  0
LINE
  5
69BEE
330
1F
100
AcDbEntity
  8
0
  6
Continuous
 62
     8
370
     0
100
AcDbLine
 10
7372.959887866215
 20
903.9828656865192
 30
0.0
 11
7372.959887863114
 21
847.691214442019
 31
0.0
  0
LINE
  5
69BEF
330
1F
100
AcDbEntity
  8
0
  6
Continuous
 62
     8
370
     0
100
AcDbLine
 10
7375.788314991015
 20
903.9828656864191
 30
0.0
 11
7375.788314987814
 21
847.6912144419192
 31
0.0
  0
LINE
  5
69BF0
330
1F
100
AcDbEntity
  8
0
  6
Continuous
 62
     8
370
     0
100
AcDbLine
 10
7347.504043743515
 20
911.0539335000191
 30
0.0
 11
7348.918257305914
 21
910.346826718719
 31
0.0
  0
LINE
  5
69BF1
330
1F
100
AcDbEntity
  8
0
  6
Continuous
 62
     8
370
     0
100
AcDbLine
 10
7346.089830180915
 20
905.4685115413191
 30
0.0
 11
7344.675616618614
 21
906.1756183226192
 31
0.0
  0
LINE
  5
69BF2
330
1F
100
AcDbEntity
  8
0
  6
Continuous
 62
     8
370
     0
100
AcDbLine
 10
7364.828159882114
 20
901.509795985119
 30
0.0
 11
7363.413946319714
 21
900.8026892039192
 31
0.0
  0
LINE
  5
69BF3
330
1F
100
AcDbEntity
  8
0
  6
Continuous
 62
     8
370
     0
100
AcDbLine
 10
7344.675616615815
 20
856.8121703082192
 30
0.0
 11
7346.089830178214
 21
856.105063526919
 31
0.0
  0
LINE
  5
69BF4
330
1F
100
AcDbEntity
  8
0
  6
Continuous
 62
     8
370
     0
100
AcDbLine
 10
7363.413946317814
 20
867.5758866160191
 30
0.0
 11
7363.298770861014
 21
867.5182988876192
 31
0.0
  0
LINE
  5
69BF5
330
1F
100
AcDbEntity
  8
0
  6
Continuous
 62
     8
370
     0
100
AcDbLine
 10
7364.828159879715
 20
858.208525797119
 30
0.0
 11
7363.413946317314
 21
857.5014190159189
 31
0.0
  0
LINE
  5
69BF6
330
1F
100
AcDbEntity
  8
0
100
AcDbLine
 10
7482.453950389894
 20
918.2540173854333
 30
0.0
 11
7481.753950389894
 21
918.2540173854333
 31
0.0
  0
LINE
  5
69BF7
330
1F
100
AcDbEntity
  8
0
100
AcDbLine
 10
7481.753950389094
 20
907.7540173854333
 30
0.0
 11
7482.453950389094
 21
907.7540173854333
 31
0.0
  0
LINE
  5
69BF8
330
1F
100
AcDbEntity
  8
0
100
AcDbLine
 10
7482.453950393294
 20
968.2540173854333
 30
0.0
 11
7481.753950393294
 21
968.2540173854333
 31
0.0
  0
LINE
  5
69BF9
330
1F
100
AcDbEntity
  8
0
100
AcDbLine
 10
7481.753950392495
 20
957.7540173854333
 30
0.0
 11
7482.453950392494
 21
957.7540173854333
 31
0.0
  0
LINE
  5
69BFA
330
1F
100
AcDbEntity
  8
0
100
AcDbLine
 10
7509.753950393394
 20
970.5040173835333
 30
0.0
 11
7507.753950393394
 21
970.5040173836334
 31
0.0
  0
LINE
  5
69BFB
330
1F
100
AcDbEntity
  8
0
100
AcDbLine
 10
7509.753950393394
 20
970.5040173835333
 30
0.0
 11
7509.753950388994
 21
905.5040173835333
 31
0.0
  0
LINE
  5
69BFC
330
1F
100
AcDbEntity
  8
0
100
AcDbLine
 10
7509.753950388994
 20
905.5040173835333
 30
0.0
 11
7507.753950388994
 21
905.5040173836331
 31
0.0
  0
LINE
  5
69BFD
330
1F
100
AcDbEntity
  8
0
100
AcDbLine
 10
7484.753950393394
 20
970.5040173852334
 30
0.0
 11
7484.753950388994
 21
905.5040173852334
 31
0.0
  0
LINE
  5
69BFE
330
1F
100
AcDbEntity
  8
0
100
AcDbLine
 10
7507.753950393394
 20
970.5040173836334
 30
0.0
 11
7484.753950393394
 21
970.5040173852334
 31
0.0
  0
LINE
  5
69BFF
330
1F
100
AcDbEntity
  8
0
100
AcDbLine
 10
7492.753950392294
 20
954.0040173847332
 30
0.0
 11
7492.753950390094
 21
922.0040173847332
 31
0.0
  0
LINE
  5
69C00
330
1F
100
AcDbEntity
  8
0
100
AcDbLine
 10
7492.753950390094
 20
922.0040173847332
 30
0.0
 11
7503.753950390094
 21
922.0040173839333
 31
0.0
  0
LINE
  5
69C01
330
1F
100
AcDbEntity
  8
0
100
AcDbLine
 10
7503.753950390094
 20
922.0040173839333
 30
0.0
 11
7503.753950392294
 21
954.0040173839333
 31
0.0
  0
LINE
  5
69C02
330
1F
100
AcDbEntity
  8
0
100
AcDbLine
 10
7503.753950392294
 20
954.0040173839333
 30
0.0
 11
7492.753950392294
 21
954.0040173847332
 31
0.0
  0
CIRCLE
  5
69C03
330
1F
100
AcDbEntity
  8
0
100
AcDbCircle
 10
7494.753950389494
 20
913.0040173845333
 30
0.0
 40
4.0
  0
CIRCLE
  5
69C04
330
1F
100
AcDbEntity
  8
0
100
AcDbCircle
 10
7494.753950392894
 20
963.0040173845333
 30
0.0
 40
4.0
  0
LINE
  5
69C05
330
1F
100
AcDbEntity
  8
0
100
AcDbLine
 10
7507.753950388994
 20
905.5040173836331
 30
0.0
 11
7484.753950388994
 21
905.5040173852334
 31
0.0
  0
CIRCLE
  5
69C06
330
1F
100
AcDbEntity
  8
0
100
AcDbCircle
 10
7494.753950389494
 20
913.0040173845333
 30
0.0
 40
3.0
  0
CIRCLE
  5
69C07
330
1F
100
AcDbEntity
  8
0
100
AcDbCircle
 10
7494.753950392894
 20
963.0040173845333
 30
0.0
 40
3.0
  0
LINE
  5
69C08
330
1F
100
AcDbEntity
  8
0
100
AcDbLine
 10
7482.453950389794
 20
918.1112760209334
 30
0.0
 11
7482.453950389094
 21
907.7540173854333
 31
0.0
  0
LINE
  5
69C09
330
1F
100
AcDbEntity
  8
0
100
AcDbLine
 10
7482.453950389894
 20
918.2540173854333
 30
0.0
 11
7482.453950389794
 21
918.1112760209334
 31
0.0
  0
LINE
  5
69C0A
330
1F
100
AcDbEntity
  8
0
100
AcDbLine
 10
7482.453950393294
 20
968.2540173854333
 30
0.0
 11
7482.453950392494
 21
957.7540173854333
 31
0.0
  0
LINE
  5
69C0B
330
1F
100
AcDbEntity
  8
0
100
AcDbLine
 10
7479.753950393094
 20
966.5040173856333
 30
0.0
 11
7479.753950389294
 21
909.5040173856333
 31
0.0
  0
LINE
  5
69C0C
330
1F
100
AcDbEntity
  8
0
100
AcDbLine
 10
7481.753950393094
 20
966.5040173854333
 30
0.0
 11
7481.753950389294
 21
909.5040173854333
 31
0.0
  0
LINE
  5
69C0D
330
1F
100
AcDbEntity
  8
0
100
AcDbLine
 10
7481.753950388994
 20
905.5040173854333
 30
0.0
 11
7479.753950388994
 21
905.5040173856333
 31
0.0
  0
LINE
  5
69C0E
330
1F
100
AcDbEntity
  8
0
100
AcDbLine
 10
7479.753950388994
 20
905.5040173856333
 30
0.0
 11
7479.753950389294
 21
909.5040173856333
 31
0.0
  0
LINE
  5
69C0F
330
1F
100
AcDbEntity
  8
0
100
AcDbLine
 10
7481.753950389294
 20
909.5040173854333
 30
0.0
 11
7481.753950388994
 21
905.5040173854333
 31
0.0
  0
LINE
  5
69C10
330
1F
100
AcDbEntity
  8
0
100
AcDbLine
 10
7479.753950393394
 20
970.5040173856333
 30
0.0
 11
7481.753950393394
 21
970.5040173854333
 31
0.0
  0
LINE
  5
69C11
330
1F
100
AcDbEntity
  8
0
100
AcDbLine
 10
7479.753950393094
 20
966.5040173856333
 30
0.0
 11
7479.753950393394
 21
970.5040173856333
 31
0.0
  0
LINE
  5
69C12
330
1F
100
AcDbEntity
  8
0
100
AcDbLine
 10
7481.753950393394
 20
970.5040173854333
 30
0.0
 11
7481.753950393094
 21
966.5040173854333
 31
0.0
  0
LINE
  5
69C13
330
1F
100
AcDbEntity
  8
0
100
AcDbLine
 10
7496.412262788194
 20
965.5040173844333
 30
0.0
 11
7493.253950393094
 21
965.5040173846334
 31
0.0
  0
LINE
  5
69C14
330
1F
100
AcDbEntity
  8
0
100
AcDbLine
 10
7493.253950393094
 20
965.5040173846334
 30
0.0
 11
7493.087283726394
 21
965.4984556425333
 31
0.0
  0
LINE
  5
69C15
330
1F
100
AcDbEntity
  8
0
100
AcDbLine
 10
7493.087283725994
 20
960.5095791268333
 30
0.0
 11
7493.253950392694
 21
960.5040173846334
 31
0.0
  0
LINE
  5
69C16
330
1F
100
AcDbEntity
  8
0
100
AcDbLine
 10
7493.253950392694
 20
960.5040173846334
 30
0.0
 11
7496.412262787894
 21
960.5040173844333
 31
0.0
  0
LINE
  5
69C17
330
1F
100
AcDbEntity
  8
0
100
AcDbLine
 10
7493.253950389294
 20
910.5040173846334
 30
0.0
 11
7496.412262784494
 21
910.5040173844333
 31
0.0
  0
LINE
  5
69C18
330
1F
100
AcDbEntity
  8
0
100
AcDbLine
 10
7496.412262784794
 20
915.5040173844333
 30
0.0
 11
7493.253950389694
 21
915.5040173846334
 31
0.0
  0
LINE
  5
69C19
330
1F
100
AcDbEntity
  8
0
100
AcDbLine
 10
7493.253950389694
 20
915.5040173846334
 30
0.0
 11
7493.087283722994
 21
915.4984556425333
 31
0.0
  0
LINE
  5
69C1A
330
1F
100
AcDbEntity
  8
0
100
AcDbLine
 10
7493.087283722694
 20
910.5095791268333
 30
0.0
 11
7493.253950389294
 21
910.5040173846334
 31
0.0
  0
LINE
  5
69C1B
330
1F
100
AcDbEntity
  8
0
100
AcDbLine
 10
7484.753950393394
 20
970.5040173852334
 30
0.0
 11
7481.753950393394
 21
970.5040173854333
 31
0.0
  0
LINE
  5
69C1C
330
1F
100
AcDbEntity
  8
0
100
AcDbLine
 10
7484.753950388994
 20
905.5040173852334
 30
0.0
 11
7481.753950388994
 21
905.5040173854333
 31
0.0
  0
LINE
  5
69C1D
330
1F
100
AcDbEntity
  8
0
  6
Continuous
 62
     8
370
     0
100
AcDbLine
 10
7507.753950393394
 20
970.5040173836334
 30
0.0
 11
7507.753950388994
 21
905.5040173836331
 31
0.0
  0
LINE
  5
69C1E
330
1F
100
AcDbEntity
  8
0
  6
Continuous
 62
     8
370
     0
100
AcDbLine
 10
7479.753950389294
 20
909.5040173856333
 30
0.0
 11
7481.753950389294
 21
909.5040173854333
 31
0.0
  0
LINE
  5
69C1F
330
1F
100
AcDbEntity
  8
0
  6
Continuous
 62
     8
370
     0
100
AcDbLine
 10
7481.753950393094
 20
966.5040173854333
 30
0.0
 11
7479.753950393094
 21
966.5040173856333
 31
0.0
  0
LINE
  5
69C20
330
1F
100
AcDbEntity
  8
0
100
AcDbLine
 10
7482.453950392895
 20
870.3574688457085
 30
0.0
 11
7481.753950393394
 21
870.3574688457085
 31
0.0
  0
LINE
  5
69C21
330
1F
100
AcDbEntity
  8
0
100
AcDbLine
 10
7481.753950393294
 20
859.8574688457085
 30
0.0
 11
7482.453950392895
 21
859.8574688457085
 31
0.0
  0
LINE
  5
69C22
330
1F
100
AcDbEntity
  8
0
100
AcDbLine
 10
7484.753950393394
 20
871.6074688457085
 30
0.0
 11
7507.753950393394
 21
871.6074688457085
 31
0.0
  0
ARC
  5
69C23
330
1F
100
AcDbEntity
  8
0
100
AcDbCircle
 10
7507.753950393394
 20
872.6074688457085
 30
0.0
 40
1.0
100
AcDbArc
 50
270.0
 51
0.000000003895238
  0
LINE
  5
69C24
330
1F
100
AcDbEntity
  8
0
100
AcDbLine
 10
7508.753950393394
 20
872.6074688457085
 30
0.0
 11
7508.753950393394
 21
873.6074688457085
 31
0.0
  0
LINE
  5
69C25
330
1F
100
AcDbEntity
  8
0
100
AcDbLine
 10
7508.753950393394
 20
873.6074688457085
 30
0.0
 11
7509.753950393394
 21
873.6074688457085
 31
0.0
  0
LINE
  5
69C26
330
1F
100
AcDbEntity
  8
0
100
AcDbLine
 10
7509.753950393394
 20
873.6074688457085
 30
0.0
 11
7509.753950393394
 21
872.6074688457085
 31
0.0
  0
ARC
  5
69C27
330
1F
100
AcDbEntity
  8
0
100
AcDbCircle
 10
7507.753950393394
 20
872.6074688457085
 30
0.0
 40
2.000000000000014
100
AcDbArc
 50
270.0
 51
0.000000003895238
  0
LINE
  5
69C28
330
1F
100
AcDbEntity
  8
0
100
AcDbLine
 10
7507.753950393394
 20
870.6074688457085
 30
0.0
 11
7484.753950393394
 21
870.6074688457085
 31
0.0
  0
LINE
  5
69C29
330
1F
100
AcDbEntity
  8
0
100
AcDbLine
 10
7484.753950393394
 20
870.6074688457085
 30
0.0
 11
7484.753950393394
 21
871.6074688457085
 31
0.0
  0
LINE
  5
69C2A
330
1F
100
AcDbEntity
  8
0
100
AcDbLine
 10
7482.453950392895
 20
870.3210442358082
 30
0.0
 11
7482.453950392895
 21
859.8574688457085
 31
0.0
  0
LINE
  5
69C2B
330
1F
100
AcDbEntity
  8
0
100
AcDbLine
 10
7482.453950392895
 20
870.3574688457085
 30
0.0
 11
7482.453950392895
 21
870.3210442358082
 31
0.0
  0
LINE
  5
69C2C
330
1F
100
AcDbEntity
  8
0
100
AcDbLine
 10
7504.753950393394
 20
873.6074688457085
 30
0.0
 11
7504.753950393394
 21
871.6074688457085
 31
0.0
  0
LINE
  5
69C2D
330
1F
100
AcDbEntity
  8
0
100
AcDbLine
 10
7504.753950393394
 20
871.6074688457085
 30
0.0
 11
7481.753950393394
 21
871.6074688457085
 31
0.0
  0
LINE
  5
69C2E
330
1F
100
AcDbEntity
  8
0
100
AcDbLine
 10
7481.753950393394
 20
871.6074688457085
 30
0.0
 11
7481.753950393394
 21
862.6074688457085
 31
0.0
  0
LINE
  5
69C2F
330
1F
100
AcDbEntity
  8
0
100
AcDbLine
 10
7479.753950393394
 20
862.6074688457085
 30
0.0
 11
7479.753950393394
 21
873.6074688457085
 31
0.0
  0
LINE
  5
69C30
330
1F
100
AcDbEntity
  8
0
100
AcDbLine
 10
7479.753950393394
 20
873.6074688457085
 30
0.0
 11
7504.753950393394
 21
873.6074688457085
 31
0.0
  0
LINE
  5
69C31
330
1F
100
AcDbEntity
  8
0
100
AcDbLine
 10
7481.753950393094
 20
858.6074688457085
 30
0.0
 11
7479.753950393094
 21
858.6074688457085
 31
0.0
  0
LINE
  5
69C32
330
1F
100
AcDbEntity
  8
0
100
AcDbLine
 10
7481.753950393394
 20
862.6074688457085
 30
0.0
 11
7481.753950393094
 21
858.6074688457085
 31
0.0
  0
LINE
  5
69C33
330
1F
100
AcDbEntity
  8
0
100
AcDbLine
 10
7479.753950393094
 20
858.6074688457085
 30
0.0
 11
7479.753950393394
 21
862.6074688457085
 31
0.0
  0
LINE
  5
69C34
330
1F
100
AcDbEntity
  8
0
  6
Continuous
 62
     8
370
     0
100
AcDbLine
 10
7479.753950393394
 20
862.6074688457085
 30
0.0
 11
7481.753950393394
 21
862.6074688457085
 31
0.0
  0
TEXT
  5
69C38
330
1F
100
AcDbEntity
  8
0
  6
Continuous
 62
     0
370
    15
100
AcDbText
 10
7295.735193372604
 20
961.2154382553144
 30
0.0
 40
17.96134648357718
  1
0671W10
 41
0.6999999999999998
100
AcDbText
  0
VIEWPORT
  5
3D5D3
330
1B
100
AcDbEntity
 67
     1
  8
0
100
AcDbViewport
 10
202.5
 20
128.5
 30
0.0
 40
486.0
 41
308.4
 68
     1
 69
     1
 12
202.5
 22
128.5
 13
0.0
 23
0.0
 14
0.5
 24
0.5
 15
0.0
 25
0.0
 16
0.0
 26
0.0
 36
1.0
 17
0.0
 27
0.0
 37
0.0
 42
50.0
 43
0.0
 44
0.0
 45
308.4
 50
0.0
 51
0.0
 72
   100
 90
   557152
  1

281
     0
 71
     1
 74
     0
110
0.0
120
0.0
130
0.0
111
1.0
121
0.0
131
0.0
112
0.0
122
1.0
132
0.0
 79
     0
146
0.0
  0
VIEWPORT
  5
3D5D4
330
1B
100
AcDbEntity
 67
     1
  8
0
100
AcDbViewport
 10
202.5
 20
128.5
 30
0.0
 40
324.0
 41
205.6
 68
     2
 69
     2
 12
2662.039759795405
 22
2586.566770327359
 13
0.0
 23
0.0
 14
0.5
 24
0.5
 15
0.0
 25
0.0
 16
0.0
 26
0.0
 36
1.0
 17
0.0
 27
0.0
 37
0.0
 42
50.0
 43
0.0
 44
0.0
 45
2749.176388913603
 50
0.0
 51
0.0
 72
   100
 90
   557152
  1

281
     0
 71
     1
 74
     0
110
0.0
120
0.0
130
0.0
111
1.0
121
0.0
131
0.0
112
0.0
122
1.0
132
0.0
 79
     0
146
0.0
  0
ENDSEC
  0
SECTION
  2
OBJECTS
  0
DICTIONARY
  5
C
330
0
100
AcDbDictionary
281
     1
  3
ACAD_DETAILVIEWSTYLE
350
C0B8
  3
ACAD_GROUP
350
D
  3
ACAD_IMAGE_VARS
350
E7
  3
ACAD_LAYOUT
350
1A
  3
ACAD_MLINESTYLE
350
17
  3
ACAD_PLOTSETTINGS
350
19
  3
ACAD_PLOTSTYLENAME
350
E
  3
ACAD_SCALELIST
350
AD
  3
ACAD_SECTIONVIEWSTYLE
350
C0B9
  3
AcadDim
350
BF00
  3
AcDbVariableDictionary
350
151
  3
AcStStandard
350
1F89E
  3
APPDATA
350
E6
  3
DWGPROPS
350
6B7F9
  0
DICTIONARY
  5
11A2
330
1F
100
AcDbDictionary
280
     1
281
     1
  3
ACAD_SORTENTS
360
11A3
  0
DICTIONARY
  5
1798
330
177F
100
AcDbDictionary
280
     1
281
     1
  3
ACAD_SORTENTS
360
1799
  0
DICTIONARY
  5
644F5
330
644F4
100
AcDbDictionary
280
     1
281
     1
  3
ACAD_SORTENTS
360
644F6
  0
DICTIONARY
  5
C0B8
102
{ACAD_REACTORS
330
C
102
}
330
C
100
AcDbDictionary
281
     1
  0
DICTIONARY
  5
D
102
{ACAD_REACTORS
330
C
102
}
330
C
100
AcDbDictionary
281
     1
  0
RASTERVARIABLES
  5
E7
102
{ACAD_REACTORS
330
C
102
}
330
C
100
AcDbRasterVariables
 90
        0
 70
     1
 71
     1
 72
     1
  0
DICTIONARY
  5
1A
102
{ACAD_REACTORS
330
C
102
}
330
C
100
AcDbDictionary
281
     1
  3
Layout1
350
1E
  3
Layout2
350
26
  3
Model
350
22
  0
DICTIONARY
  5
17
102
{ACAD_REACTORS
330
C
102
}
330
C
100
AcDbDictionary
281
     1
  3
Standard
350
18
  0
DICTIONARY
  5
19
102
{ACAD_REACTORS
330
C
102
}
330
C
100
AcDbDictionary
281
     1
  0
ACDBDICTIONARYWDFLT
  5
E
102
{ACAD_REACTORS
330
C
102
}
330
C
100
AcDbDictionary
281
     1
  3
Normal
350
F
100
AcDbDictionaryWithDefault
340
F
  0
DICTIONARY
  5
AD
102
{ACAD_REACTORS
330
C
102
}
330
C
100
AcDbDictionary
281
     1
  3
A0
350
AE
  3
A1
350
AF
  3
A2
350
B0
  3
A3
350
B1
  3
A4
350
B2
  3
A5
350
B3
  3
A6
350
B4
  3
A7
350
B5
  3
A8
350
B6
  3
A9
350
B7
  3
B0
350
B8
  3
B1
350
B9
  3
B2
350
BA
  3
B3
350
BB
  3
B4
350
BC
  3
B5
350
BD
  3
B6
350
BE
  3
B7
350
BF
  3
B8
350
C0
  3
B9
350
C1
  3
C0
350
C2
  3
C1
350
C3
  3
C2
350
C4
  3
C3
350
C5
  3
C4
350
C6
  3
C5
350
C7
  3
C6
350
C8
  3
C7
350
C9
  3
C8
350
CA
  3
C9
350
CB
  3
D0
350
CC
  3
D1
350
CD
  3
D2
350
CE
  0
DICTIONARY
  5
C0B9
102
{ACAD_REACTORS
330
C
102
}
330
C
100
AcDbDictionary
281
     1
  0
XRECORD
  5
BF00
102
{ACAD_REACTORS
330
C
102
}
330
C
100
AcDbXrecord
280
     1
340
0
 72
     0
 71
     0
 70
     0
 69
     0
 68
     1
 67
     3
 66
     0
 65
     0
 64
     0
 63
     3
 62
     1
 61
     0
 60
     0
 40
0.0
  0
DICTIONARY
  5
151
102
{ACAD_REACTORS
330
C
102
}
330
C
100
AcDbDictionary
281
     1
  3
HPTRANSPARENCY
350
C6AD
  0
DICTIONARY
  5
1F89E
102
{ACAD_REACTORS
330
C
102
}
330
C
100
AcDbDictionary
281
     1
  0
DICTIONARY
  5
E6
102
{ACAD_REACTORS
330
C
102
}
330
C
100
AcDbDictionary
281
     1
  0
XRECORD
  5
6B7F9
102
{ACAD_REACTORS
330
C
102
}
330
C
100
AcDbXrecord
280
     1
  1
DWGPROPS COOKIE
  2

  3

  4

  6

  7

  8
raffaele
  9

300
=
301
=
302
=
303
=
304
=
305
=
306
=
307
=
308
=
309
=
 40
0.0
 41
2456227.330943947
 42
2457417.465074803
  1

 90
        0
  0
SORTENTSTABLE
  5
11A3
102
{ACAD_REACTORS
330
11A2
102
}
330
11A2
100
AcDbSortentsTable
330
1F
331
0
  5
388B8
331
297E
  5
2C075
  0
SORTENTSTABLE
  5
1799
102
{ACAD_REACTORS
330
1798
330
1798
102
}
330
1798
100
AcDbSortentsTable
330
177F
  0
SORTENTSTABLE
  5
644F6
102
{ACAD_REACTORS
330
644F5
102
}
330
644F5
100
AcDbSortentsTable
330
644F4
  0
LAYOUT
  5
1E
102
{ACAD_REACTORS
330
1A
102
}
330
1A
100
AcDbPlotSettings
  1

  2
none_device
  4
ISO_A3_(420.00_x_297.00_MM)
  6

 40
7.5
 41
20.0
 42
7.5
 43
20.0
 44
420.0
 45
297.0
 46
0.0
 47
0.0
 48
0.0
 49
0.0
140
0.0
141
0.0
142
1.0
143
1.0
 70
   688
 72
     1
 73
     0
 74
     5
  7

 75
    16
147
1.0
148
0.0
149
0.0
100
AcDbLayout
  1
Layout1
 70
     1
 71
     1
 10
0.0
 20
0.0
 11
0.0
 21
0.0
 12
0.0
 22
0.0
 32
0.0
 14
1.000000000000000E+20
 24
1.000000000000000E+20
 34
1.000000000000000E+20
 15
-1.000000000000000E+20
 25
-1.000000000000000E+20
 35
-1.000000000000000E+20
146
0.0
 13
0.0
 23
0.0
 33
0.0
 16
1.0
 26
0.0
 36
0.0
 17
0.0
 27
1.0
 37
0.0
 76
     0
330
1B
331
3D5D3
  0
LAYOUT
  5
26
102
{ACAD_REACTORS
330
1A
102
}
330
1A
100
AcDbPlotSettings
  1

  2
none_device
  4

  6

 40
0.0
 41
0.0
 42
0.0
 43
0.0
 44
0.0
 45
0.0
 46
0.0
 47
0.0
 48
0.0
 49
0.0
140
0.0
141
0.0
142
1.0
143
1.0
 70
   688
 72
     0
 73
     0
 74
     5
  7

 75
    16
147
1.0
148
0.0
149
0.0
100
AcDbLayout
  1
Layout2
 70
     1
 71
     2
 10
0.0
 20
0.0
 11
0.0
 21
0.0
 12
0.0
 22
0.0
 32
0.0
 14
0.0
 24
0.0
 34
0.0
 15
0.0
 25
0.0
 35
0.0
146
0.0
 13
0.0
 23
0.0
 33
0.0
 16
1.0
 26
0.0
 36
0.0
 17
0.0
 27
1.0
 37
0.0
 76
     0
330
23
  0
LAYOUT
  5
22
102
{ACAD_REACTORS
330
1A
102
}
330
1A
100
AcDbPlotSettings
  1

  2
none_device
  4
ISO_A3_(420.00_x_297.00_MM)
  6

 40
7.5
 41
20.0
 42
7.5
 43
20.0
 44
420.0
 45
297.0
 46
0.0
 47
0.0
 48
0.0
 49
0.0
140
0.0
141
0.0
142
1.0
143
6.022727566214384
 70
  1712
 72
     1
 73
     0
 74
     0
  7

 75
     0
147
0.1660377277580488
148
0.0
149
0.0
100
AcDbLayout
  1
Model
 70
     1
 71
     0
 10
0.0
 20
0.0
 11
210.0
 21
297.0
 12
0.0
 22
0.0
 32
0.0
 14
7296.288402844299
 24
847.3919287757105
 34
0.0
 15
7532.800936840979
 25
979.6258184009811
 35
0.0
146
0.0
 13
0.0
 23
0.0
 33
0.0
 16
1.0
 26
0.0
 36
0.0
 17
0.0
 27
1.0
 37
0.0
 76
     0
330
1F
331
29
  0
MLINESTYLE
  5
18
102
{ACAD_REACTORS
330
17
102
}
330
17
100
AcDbMlineStyle
  2
Standard
 70
     0
  3

 62
   256
 51
90.0
 52
90.0
 71
     2
 49
0.5
 62
   256
  6
BYLAYER
 49
-0.5
 62
   256
  6
BYLAYER
  0
ACDBPLACEHOLDER
  5
F
102
{ACAD_REACTORS
330
E
102
}
330
E
  0
SCALE
  5
AE
102
{ACAD_REACTORS
330
AD
102
}
330
AD
100
AcDbScale
 70
     0
300
1:1
140
1.0
141
1.0
290
     1
  0
SCALE
  5
AF
102
{ACAD_REACTORS
330
AD
102
}
330
AD
100
AcDbScale
 70
     0
300
1:2
140
1.0
141
2.0
290
     0
  0
SCALE
  5
B0
102
{ACAD_REACTORS
330
AD
102
}
330
AD
100
AcDbScale
 70
     0
300
1:4
140
1.0
141
4.0
290
     0
  0
SCALE
  5
B1
102
{ACAD_REACTORS
330
AD
102
}
330
AD
100
AcDbScale
 70
     0
300
1:5
140
1.0
141
5.0
290
     0
  0
SCALE
  5
B2
102
{ACAD_REACTORS
330
AD
102
}
330
AD
100
AcDbScale
 70
     0
300
1:8
140
1.0
141
8.0
290
     0
  0
SCALE
  5
B3
102
{ACAD_REACTORS
330
AD
102
}
330
AD
100
AcDbScale
 70
     0
300
1:10
140
1.0
141
10.0
290
     0
  0
SCALE
  5
B4
102
{ACAD_REACTORS
330
AD
102
}
330
AD
100
AcDbScale
 70
     0
300
1:16
140
1.0
141
16.0
290
     0
  0
SCALE
  5
B5
102
{ACAD_REACTORS
330
AD
102
}
330
AD
100
AcDbScale
 70
     0
300
1:20
140
1.0
141
20.0
290
     0
  0
SCALE
  5
B6
102
{ACAD_REACTORS
330
AD
102
}
330
AD
100
AcDbScale
 70
     0
300
1:30
140
1.0
141
30.0
290
     0
  0
SCALE
  5
B7
102
{ACAD_REACTORS
330
AD
102
}
330
AD
100
AcDbScale
 70
     0
300
1:40
140
1.0
141
40.0
290
     0
  0
SCALE
  5
B8
102
{ACAD_REACTORS
330
AD
102
}
330
AD
100
AcDbScale
 70
     0
300
1:50
140
1.0
141
50.0
290
     0
  0
SCALE
  5
B9
102
{ACAD_REACTORS
330
AD
102
}
330
AD
100
AcDbScale
 70
     0
300
1:100
140
1.0
141
100.0
290
     0
  0
SCALE
  5
BA
102
{ACAD_REACTORS
330
AD
102
}
330
AD
100
AcDbScale
 70
     0
300
2:1
140
2.0
141
1.0
290
     0
  0
SCALE
  5
BB
102
{ACAD_REACTORS
330
AD
102
}
330
AD
100
AcDbScale
 70
     0
300
4:1
140
4.0
141
1.0
290
     0
  0
SCALE
  5
BC
102
{ACAD_REACTORS
330
AD
102
}
330
AD
100
AcDbScale
 70
     0
300
8:1
140
8.0
141
1.0
290
     0
  0
SCALE
  5
BD
102
{ACAD_REACTORS
330
AD
102
}
330
AD
100
AcDbScale
 70
     0
300
10:1
140
10.0
141
1.0
290
     0
  0
SCALE
  5
BE
102
{ACAD_REACTORS
330
AD
102
}
330
AD
100
AcDbScale
 70
     0
300
100:1
140
100.0
141
1.0
290
     0
  0
SCALE
  5
BF
102
{ACAD_REACTORS
330
AD
102
}
330
AD
100
AcDbScale
 70
     0
300
1/128" = 1'-0"
140
0.0078125
141
12.0
290
     0
  0
SCALE
  5
C0
102
{ACAD_REACTORS
330
AD
102
}
330
AD
100
AcDbScale
 70
     0
300
1/64" = 1'-0"
140
0.015625
141
12.0
290
     0
  0
SCALE
  5
C1
102
{ACAD_REACTORS
330
AD
102
}
330
AD
100
AcDbScale
 70
     0
300
1/32" = 1'-0"
140
0.03125
141
12.0
290
     0
  0
SCALE
  5
C2
102
{ACAD_REACTORS
330
AD
102
}
330
AD
100
AcDbScale
 70
     0
300
1/16" = 1'-0"
140
0.0625
141
12.0
290
     0
  0
SCALE
  5
C3
102
{ACAD_REACTORS
330
AD
102
}
330
AD
100
AcDbScale
 70
     0
300
3/32" = 1'-0"
140
0.09375
141
12.0
290
     0
  0
SCALE
  5
C4
102
{ACAD_REACTORS
330
AD
102
}
330
AD
100
AcDbScale
 70
     0
300
1/8" = 1'-0"
140
0.125
141
12.0
290
     0
  0
SCALE
  5
C5
102
{ACAD_REACTORS
330
AD
102
}
330
AD
100
AcDbScale
 70
     0
300
3/16" = 1'-0"
140
0.1875
141
12.0
290
     0
  0
SCALE
  5
C6
102
{ACAD_REACTORS
330
AD
102
}
330
AD
100
AcDbScale
 70
     0
300
1/4" = 1'-0"
140
0.25
141
12.0
290
     0
  0
SCALE
  5
C7
102
{ACAD_REACTORS
330
AD
102
}
330
AD
100
AcDbScale
 70
     0
300
3/8" = 1'-0"
140
0.375
141
12.0
290
     0
  0
SCALE
  5
C8
102
{ACAD_REACTORS
330
AD
102
}
330
AD
100
AcDbScale
 70
     0
300
1/2" = 1'-0"
140
0.5
141
12.0
290
     0
  0
SCALE
  5
C9
102
{ACAD_REACTORS
330
AD
102
}
330
AD
100
AcDbScale
 70
     0
300
3/4" = 1'-0"
140
0.75
141
12.0
290
     0
  0
SCALE
  5
CA
102
{ACAD_REACTORS
330
AD
102
}
330
AD
100
AcDbScale
 70
     0
300
1" = 1'-0"
140
1.0
141
12.0
290
     0
  0
SCALE
  5
CB
102
{ACAD_REACTORS
330
AD
102
}
330
AD
100
AcDbScale
 70
     0
300
1-1/2" = 1'-0"
140
1.5
141
12.0
290
     0
  0
SCALE
  5
CC
102
{ACAD_REACTORS
330
AD
102
}
330
AD
100
AcDbScale
 70
     0
300
3" = 1'-0"
140
3.0
141
12.0
290
     0
  0
SCALE
  5
CD
102
{ACAD_REACTORS
330
AD
102
}
330
AD
100
AcDbScale
 70
     0
300
6" = 1'-0"
140
6.0
141
12.0
290
     0
  0
SCALE
  5
CE
102
{ACAD_REACTORS
330
AD
102
}
330
AD
100
AcDbScale
 70
     0
300
1'-0" = 1'-0"
140
12.0
141
12.0
290
     0
  0
DICTIONARYVAR
  5
C6AD
102
{ACAD_REACTORS
330
151
102
}
330
151
100
DictionaryVariables
280
     0
  1
ByLayer
  0
ENDSEC
  0
EOF
