  0
SECTION
  2
HEADER
  9
$ACADVER
  1
AC1015
  9
$ACADMAINTVER
 70
     6
  9
$DWGCODEPAGE
  3
ANSI_1252
  9
$INSBASE
 10
0.0
 20
0.0
 30
0.0
  9
$EXTMIN
 10
0.0
 20
0.0
 30
0.0
  9
$EXTMAX
 10
840.0
 20
594.0
 30
0.0
  9
$LIMMIN
 10
0.0
 20
0.0
  9
$LIMMAX
 10
840.0
 20
594.0
  9
$ORTHOMODE
 70
     0
  9
$REGENMODE
 70
     1
  9
$FILLMODE
 70
     1
  9
$QTEXTMODE
 70
     0
  9
$MIRRTEXT
 70
     1
  9
$LTSCALE
 40
1.0
  9
$ATTMODE
 70
     1
  9
$TEXTSIZE
 40
2.8
  9
$TRACEWID
 40
1.0
  9
$TEXTSTYLE
  7
Standard
  9
$CLAYER
  8
0
  9
$CELTYPE
  6
ByLayer
  9
$CECOLOR
 62
   256
  9
$CELTSCALE
 40
1.0
  9
$DISPSILH
 70
     0
  9
$DIMSCALE
 40
1.0
  9
$DIMASZ
 40
3.2
  9
$DIMEXO
 40
0.1
  9
$DIMDLI
 40
3.75
  9
$DIMRND
 40
0.0
  9
$DIMDLE
 40
0.0
  9
$DIMEXE
 40
1.0
  9
$DIMTP
 40
0.0
  9
$DIMTM
 40
0.0
  9
$DIMTXT
 40
3.2
  9
$DIMCEN
 40
2.5
  9
$DIMTSZ
 40
0.0
  9
$DIMTOL
 70
     0
  9
$DIMLIM
 70
     0
  9
$DIMTIH
 70
     1
  9
$DIMTOH
 70
     1
  9
$DIMSE1
 70
     0
  9
$DIMSE2
 70
     0
  9
$DIMTAD
 70
     1
  9
$DIMZIN
 70
     0
  9
$DIMBLK
  1

  9
$DIMASO
 70
     1
  9
$DIMSHO
 70
     1
  9
$DIMPOST
  1

  9
$DIMAPOST
  1

  9
$DIMALT
 70
     0
  9
$DIMALTD
 70
     3
  9
$DIMALTF
 40
0.0393700787
  9
$DIMLFAC
 40
1.0
  9
$DIMTOFL
 70
     1
  9
$DIMTVP
 40
0.0
  9
$DIMTIX
 70
     0
  9
$DIMSOXD
 70
     0
  9
$DIMSAH
 70
     0
  9
$DIMBLK1
  1

  9
$DIMBLK2
  1

  9
$DIMSTYLE
  2
ISO-25
  9
$DIMCLRD
 70
     0
  9
$DIMCLRE
 70
     0
  9
$DIMCLRT
 70
     0
  9
$DIMTFAC
 40
1.0
  9
$DIMGAP
 40
2.0
  9
$DIMJUST
 70
     0
  9
$DIMSD1
 70
     0
  9
$DIMSD2
 70
     0
  9
$DIMTOLJ
 70
     0
  9
$DIMTZIN
 70
     0
  9
$DIMALTZ
 70
     0
  9
$DIMALTTZ
 70
     0
  9
$DIMUPT
 70
     0
  9
$DIMDEC
 70
     2
  9
$DIMTDEC
 70
     2
  9
$DIMALTU
 70
     2
  9
$DIMALTTD
 70
     3
  9
$DIMTXSTY
  7
Standard
  9
$DIMAUNIT
 70
     0
  9
$DIMADEC
 70
     2
  9
$DIMALTRND
 40
0.0
  9
$DIMAZIN
 70
     0
  9
$DIMDSEP
 70
    44
  9
$DIMATFIT
 70
     3
  9
$DIMFRAC
 70
     0
  9
$DIMLDRBLK
  1

  9
$DIMLUNIT
 70
     2
  9
$DIMLWD
 70
    -2
  9
$DIMLWE
 70
    -2
  9
$DIMTMOVE
 70
     0
  9
$LUNITS
 70
     2
  9
$LUPREC
 70
     2
  9
$SKETCHINC
 40
1.0
  9
$FILLETRAD
 40
10.0
  9
$AUNITS
 70
     0
  9
$AUPREC
 70
     2
  9
$MENU
  1
.
  9
$ELEVATION
 40
0.0
  9
$PELEVATION
 40
0.0
  9
$THICKNESS
 40
0.0
  9
$LIMCHECK
 70
     0
  9
$CHAMFERA
 40
0.0
  9
$CHAMFERB
 40
0.0
  9
$CHAMFERC
 40
0.0
  9
$CHAMFERD
 40
0.0
  9
$SKPOLY
 70
     0
  9
$TDCREATE
 40
2457966.643939676
  9
$TDUCREATE
 40
2457966.560606343
  9
$TDUPDATE
 40
2457966.643948623
  9
$TDUUPDATE
 40
2457966.560615289
  9
$TDINDWG
 40
0.0000000116
  9
$TDUSRTIMER
 40
0.0000000116
  9
$USRTIMER
 70
     1
  9
$ANGBASE
 50
0.0
  9
$ANGDIR
 70
     0
  9
$PDMODE
 70
     0
  9
$PDSIZE
 40
-1.0
  9
$PLINEWID
 40
0.0
  9
$SPLFRAME
 70
     0
  9
$SPLINETYPE
 70
     6
  9
$SPLINESEGS
 70
     8
  9
$HANDSEED
  5
1C4
  9
$SURFTAB1
 70
     6
  9
$SURFTAB2
 70
     6
  9
$SURFTYPE
 70
     6
  9
$SURFU
 70
     6
  9
$SURFV
 70
     6
  9
$UCSBASE
  2

  9
$UCSNAME
  2

  9
$UCSORG
 10
0.0
 20
0.0
 30
0.0
  9
$UCSXDIR
 10
1.0
 20
0.0
 30
0.0
  9
$UCSYDIR
 10
0.0
 20
1.0
 30
0.0
  9
$UCSORTHOREF
  2

  9
$UCSORTHOVIEW
 70
     0
  9
$UCSORGTOP
 10
0.0
 20
0.0
 30
0.0
  9
$UCSORGBOTTOM
 10
0.0
 20
0.0
 30
0.0
  9
$UCSORGLEFT
 10
0.0
 20
0.0
 30
0.0
  9
$UCSORGRIGHT
 10
0.0
 20
0.0
 30
0.0
  9
$UCSORGFRONT
 10
0.0
 20
0.0
 30
0.0
  9
$UCSORGBACK
 10
0.0
 20
0.0
 30
0.0
  9
$PUCSBASE
  2

  9
$PUCSNAME
  2

  9
$PUCSORG
 10
0.0
 20
0.0
 30
0.0
  9
$PUCSXDIR
 10
1.0
 20
0.0
 30
0.0
  9
$PUCSYDIR
 10
0.0
 20
1.0
 30
0.0
  9
$PUCSORTHOREF
  2

  9
$PUCSORTHOVIEW
 70
     0
  9
$PUCSORGTOP
 10
0.0
 20
0.0
 30
0.0
  9
$PUCSORGBOTTOM
 10
0.0
 20
0.0
 30
0.0
  9
$PUCSORGLEFT
 10
0.0
 20
0.0
 30
0.0
  9
$PUCSORGRIGHT
 10
0.0
 20
0.0
 30
0.0
  9
$PUCSORGFRONT
 10
0.0
 20
0.0
 30
0.0
  9
$PUCSORGBACK
 10
0.0
 20
0.0
 30
0.0
  9
$USERI1
 70
     0
  9
$USERI2
 70
     0
  9
$USERI3
 70
     0
  9
$USERI4
 70
     0
  9
$USERI5
 70
     0
  9
$USERR1
 40
0.0
  9
$USERR2
 40
0.0
  9
$USERR3
 40
0.0
  9
$USERR4
 40
0.0
  9
$USERR5
 40
0.0
  9
$WORLDVIEW
 70
     1
  9
$SHADEDGE
 70
     3
  9
$SHADEDIF
 70
    70
  9
$TILEMODE
 70
     1
  9
$MAXACTVP
 70
    64
  9
$PINSBASE
 10
0.0
 20
0.0
 30
0.0
  9
$PLIMCHECK
 70
     0
  9
$PEXTMIN
 10
1.0000000000E+20
 20
1.0000000000E+20
 30
1.0000000000E+20
  9
$PEXTMAX
 10
-1.0000000000E+20
 20
-1.0000000000E+20
 30
-1.0000000000E+20
  9
$PLIMMIN
 10
0.0
 20
0.0
  9
$PLIMMAX
 10
420.0
 20
297.0
  9
$UNITMODE
 70
     0
  9
$VISRETAIN
 70
     1
  9
$PLINEGEN
 70
     0
  9
$PSLTSCALE
 70
     1
  9
$TREEDEPTH
 70
  3020
  9
$CMLSTYLE
  2
Standard
  9
$CMLJUST
 70
     0
  9
$CMLSCALE
 40
20.0
  9
$PROXYGRAPHICS
 70
     1
  9
$MEASUREMENT
 70
     1
  9
$CELWEIGHT
370
    -1
  9
$ENDCAPS
280
     0
  9
$JOINSTYLE
280
     0
  9
$LWDISPLAY
290
     1
  9
$INSUNITS
 70
     4
  9
$HYPERLINKBASE
  1

  9
$STYLESHEET
  1

  9
$XEDIT
290
     1
  9
$CEPSNTYPE
380
     0
  9
$PSTYLEMODE
290
     1
  9
$FINGERPRINTGUID
  2
{C3D5AB27-47FD-4823-BC3D-F41707788F24}
  9
$VERSIONGUID
  2
{FAEB1C32-E019-11D5-929B-00C0DF256EC4}
  9
$EXTNAMES
290
     1
  9
$PSVPSCALE
 40
0.0
  9
$OLESTARTUP
290
     0
  0
ENDSEC
  0
SECTION
  2
CLASSES
  0
CLASS
  1
ACDBDICTIONARYWDFLT
  2
AcDbDictionaryWithDefault
  3
ObjectDBX Classes
 90
        0
280
     0
281
     0
  0
CLASS
  1
VISUALSTYLE
  2
AcDbVisualStyle
  3
ObjectDBX Classes
 90
     4095
280
     0
281
     0
  0
CLASS
  1
MATERIAL
  2
AcDbMaterial
  3
ObjectDBX Classes
 90
     1153
280
     0
281
     0
  0
CLASS
  1
SCALE
  2
AcDbScale
  3
ObjectDBX Classes
 90
     1153
280
     0
281
     0
  0
CLASS
  1
TABLESTYLE
  2
AcDbTableStyle
  3
ObjectDBX Classes
 90
     4095
280
     0
281
     0
  0
CLASS
  1
MLEADERSTYLE
  2
AcDbMLeaderStyle
  3
ACDB_MLEADERSTYLE_CLASS
 90
     4095
280
     0
281
     0
  0
CLASS
  1
SUN
  2
AcDbSun
  3
SCENEOE
 90
     1153
280
     0
281
     0
  0
CLASS
  1
ACDBPLACEHOLDER
  2
AcDbPlaceHolder
  3
ObjectDBX Classes
 90
        0
280
     0
281
     0
  0
CLASS
  1
LAYOUT
  2
AcDbLayout
  3
ObjectDBX Classes
 90
        0
280
     0
281
     0
  0
ENDSEC
  0
SECTION
  2
TABLES
  0
TABLE
  2
VPORT
  5
8
330
0
100
AcDbSymbolTable
 70
     1
  0
VPORT
  5
29
330
8
100
AcDbSymbolTableRecord
100
AcDbViewportTableRecord
  2
*Active
 70
     0
 10
0.0
 20
0.0
 11
1.0
 21
1.0
 12
420.0
 22
297.0
 13
0.0
 23
0.0
 14
10.0
 24
10.0
 15
10.0
 25
10.0
 16
0.0
 26
0.0
 36
1.0
 17
0.0
 27
0.0
 37
0.0
 40
594.0
 41
1.4141414141
 42
50.0
 43
0.0
 44
0.0
 50
0.0
 51
0.0
 71
     0
 72
  2000
 73
     1
 74
     3
 75
     0
 76
     0
 77
     0
 78
     0
281
     0
 65
     1
110
0.0
120
0.0
130
0.0
111
1.0
121
0.0
131
0.0
112
0.0
122
1.0
132
0.0
 79
     0
146
0.0
  0
ENDTAB
  0
TABLE
  2
LTYPE
  5
5
330
0
100
AcDbSymbolTable
 70
     6
  0
LTYPE
  5
14
330
5
100
AcDbSymbolTableRecord
100
AcDbLinetypeTableRecord
  2
ByBlock
 70
     0
  3

 72
    65
 73
     0
 40
0.0
  0
LTYPE
  5
15
330
5
100
AcDbSymbolTableRecord
100
AcDbLinetypeTableRecord
  2
ByLayer
 70
     0
  3

 72
    65
 73
     0
 40
0.0
  0
LTYPE
  5
16
330
5
100
AcDbSymbolTableRecord
100
AcDbLinetypeTableRecord
  2
Continuous
 70
     0
  3
Solid line
 72
    65
 73
     0
 40
0.0
  0
LTYPE
  5
6E
330
5
100
AcDbSymbolTableRecord
100
AcDbLinetypeTableRecord
  2
HIDDEN
 70
     0
  3
Hidden __ __ __ __ __ __ __ __ __ __ __ __ __ __
 72
    65
 73
     2
 40
1.905
 49
1.27
 74
     0
 49
-0.635
 74
     0
  0
LTYPE
  5
6F
330
5
100
AcDbSymbolTableRecord
100
AcDbLinetypeTableRecord
  2
PHANTOM
 70
     0
  3
Phantom ______  __  __  ______  __  __  ______
 72
    65
 73
     6
 40
12.7
 49
6.35
 74
     0
 49
-1.27
 74
     0
 49
1.27
 74
     0
 49
-1.27
 74
     0
 49
1.27
 74
     0
 49
-1.27
 74
     0
  0
LTYPE
  5
70
330
5
100
AcDbSymbolTableRecord
100
AcDbLinetypeTableRecord
  2
CENTER
 70
     0
  3
Center ____ _ ____ _ ____ _ ____ _ ____ _ ____
 72
    65
 73
     4
 40
10.16
 49
6.35
 74
     0
 49
-1.27
 74
     0
 49
1.27
 74
     0
 49
-1.27
 74
     0
  0
LTYPE
  5
71
330
5
100
AcDbSymbolTableRecord
100
AcDbLinetypeTableRecord
  2
CENTERX2
 70
     0
  3
Center (2x) ________  __  ________  __  _____
 72
    65
 73
     4
 40
20.32
 49
12.7
 74
     0
 49
-2.54
 74
     0
 49
2.54
 74
     0
 49
-2.54
 74
     0
  0
LTYPE
  5
72
330
5
100
AcDbSymbolTableRecord
100
AcDbLinetypeTableRecord
  2
DOT2
 70
     0
  3
Dot (.5x) ........................................
 72
    65
 73
     2
 40
0.635
 49
0.0
 74
     0
 49
-0.635
 74
     0
  0
ENDTAB
  0
TABLE
  2
LAYER
  5
2
330
0
100
AcDbSymbolTable
 70
     4
  0
LAYER
  5
10
330
2
100
AcDbSymbolTableRecord
100
AcDbLayerTableRecord
  2
0
 70
     0
 62
     7
  6
Continuous
370
    -3
390
F
  0
LAYER
  5
73
330
2
100
AcDbSymbolTableRecord
100
AcDbLayerTableRecord
  2
QUOTE
 70
     0
 62
     3
  6
Continuous
370
    -3
390
F
  0
LAYER
  5
74
330
2
100
AcDbSymbolTableRecord
100
AcDbLayerTableRecord
  2
ASSI
 70
     0
 62
     1
  6
CENTERX2
370
    -3
390
F
  0
LAYER
  5
75
330
2
100
AcDbSymbolTableRecord
100
AcDbLayerTableRecord
  2
TRATTEGGIO
 70
     0
 62
     4
  6
Continuous
370
    -3
390
F
  0
ENDTAB
  0
TABLE
  2
STYLE
  5
3
330
0
100
AcDbSymbolTable
 70
     2
  0
STYLE
  5
11
330
3
100
AcDbSymbolTableRecord
100
AcDbTextStyleTableRecord
  2
Standard
 70
     0
 40
0.0
 41
1.0
 50
0.0
 71
     0
 42
2.8
  3
txt
  4

  0
STYLE
  5
76
330
3
100
AcDbSymbolTableRecord
100
AcDbTextStyleTableRecord
  2
SLDTEXTSTYLE0
 70
     0
 40
0.0
 41
0.75
 50
0.0
 71
     0
 42
2.8
  3
TXT
  4

  0
ENDTAB
  0
TABLE
  2
VIEW
  5
6
330
0
100
AcDbSymbolTable
 70
     0
  0
ENDTAB
  0
TABLE
  2
UCS
  5
7
330
0
100
AcDbSymbolTable
 70
     0
  0
ENDTAB
  0
TABLE
  2
APPID
  5
9
330
0
100
AcDbSymbolTable
 70
     1
  0
APPID
  5
12
330
9
100
AcDbSymbolTableRecord
100
AcDbRegAppTableRecord
  2
ACAD
 70
     0
  0
ENDTAB
  0
TABLE
  2
DIMSTYLE
  5
A
330
0
100
AcDbSymbolTable
 70
     1
100
AcDbDimStyleTable
  0
DIMSTYLE
105
27
330
A
100
AcDbSymbolTableRecord
100
AcDbDimStyleTableRecord
  2
ISO-25
 70
     0
 41
2.5
 42
0.625
 43
3.75
 44
1.25
 73
     0
 74
     0
 77
     1
 78
     8
140
2.5
141
2.5
143
0.0393700787
147
0.625
171
     3
172
     1
178
     0
271
     2
272
     2
274
     3
278
    44
283
     0
284
     8
340
11
  0
ENDTAB
  0
TABLE
  2
BLOCK_RECORD
  5
1
330
0
100
AcDbSymbolTable
 70
     1
  0
BLOCK_RECORD
  5
1F
330
1
100
AcDbSymbolTableRecord
100
AcDbBlockTableRecord
  2
*Model_Space
340
22
  0
BLOCK_RECORD
  5
1B
330
1
100
AcDbSymbolTableRecord
100
AcDbBlockTableRecord
  2
*Paper_Space
340
1E
  0
BLOCK_RECORD
  5
23
330
1
100
AcDbSymbolTableRecord
100
AcDbBlockTableRecord
  2
*Paper_Space0
340
26
  0
ENDTAB
  0
ENDSEC
  0
SECTION
  2
BLOCKS
  0
BLOCK
  5
20
330
1F
100
AcDbEntity
  8
0
100
AcDbBlockBegin
  2
*Model_Space
 70
     0
 10
0.0
 20
0.0
 30
0.0
  3
*Model_Space
  1

  0
ENDBLK
  5
21
330
1F
100
AcDbEntity
  8
0
100
AcDbBlockEnd
  0
BLOCK
  5
1C
330
1B
100
AcDbEntity
 67
     1
  8
0
100
AcDbBlockBegin
  2
*Paper_Space
 70
     0
 10
0.0
 20
0.0
 30
0.0
  3
*Paper_Space
  1

  0
ENDBLK
  5
1D
330
1B
100
AcDbEntity
 67
     1
  8
0
100
AcDbBlockEnd
  0
BLOCK
  5
24
330
23
100
AcDbEntity
  8
0
100
AcDbBlockBegin
  2
*Paper_Space0
 70
     0
 10
0.0
 20
0.0
 30
0.0
  3
*Paper_Space0
  1

  0
ENDBLK
  5
25
330
23
100
AcDbEntity
  8
0
100
AcDbBlockEnd
  0
ENDSEC
  0
SECTION
  2
ENTITIES
  0
MTEXT
  5
77
330
1F
100
AcDbEntity
  8
0
  6
Continuous
 62
     7
370
     0
100
AcDbMText
 10
132.7000961406
 20
511.8437927255
 30
0.0
 40
9.2604166667
 41
0.0
 71
     1
 72
     1
  1
846E20
  7
SLDTEXTSTYLE0
 73
     1
 44
1.0
  0
LINE
  5
78
330
1F
100
AcDbEntity
  8
0
100
AcDbLine
 10
209.3230107171
 20
489.3106409573
 30
0.0
 11
209.3230107171
 21
482.3106409573
 31
0.0
  0
LINE
  5
79
330
1F
100
AcDbEntity
  8
0
100
AcDbLine
 10
225.4230107171
 20
482.3106409573
 30
0.0
 11
225.4230107171
 21
489.3106409573
 31
0.0
  0
LINE
  5
7A
330
1F
100
AcDbEntity
  8
0
100
AcDbLine
 10
225.2730107171
 20
493.8106409573
 30
0.0
 11
224.7730107171
 21
494.3106409573
 31
0.0
  0
LINE
  5
7B
330
1F
100
AcDbEntity
  8
0
100
AcDbLine
 10
209.9730107171
 20
494.3106409573
 30
0.0
 11
209.4730107171
 21
493.8106409573
 31
0.0
  0
LINE
  5
7C
330
1F
100
AcDbEntity
  8
0
100
AcDbLine
 10
209.4730107171
 20
493.8106409573
 30
0.0
 11
209.4730107171
 21
489.3106409573
 31
0.0
  0
LINE
  5
7D
330
1F
100
AcDbEntity
  8
0
100
AcDbLine
 10
225.2730107171
 20
489.3106409573
 30
0.0
 11
225.2730107171
 21
493.8106409573
 31
0.0
  0
LINE
  5
7E
330
1F
100
AcDbEntity
  8
0
100
AcDbLine
 10
223.3730107171
 20
473.7631184329
 30
0.0
 11
223.3730107171
 21
482.3106409573
 31
0.0
  0
LINE
  5
7F
330
1F
100
AcDbEntity
  8
0
100
AcDbLine
 10
211.3730107171
 20
482.3106409573
 30
0.0
 11
211.3730107171
 21
473.7631184329
 31
0.0
  0
LINE
  5
80
330
1F
100
AcDbEntity
  8
0
100
AcDbLine
 10
222.980418253
 20
494.3106409573
 30
0.0
 11
222.6513228806
 21
494.8806508627
 31
0.0
  0
LINE
  5
81
330
1F
100
AcDbEntity
  8
0
100
AcDbLine
 10
212.0946985536
 20
494.8806508627
 30
0.0
 11
211.7656031812
 21
494.3106409573
 31
0.0
  0
ARC
  5
82
330
1F
100
AcDbEntity
  8
0
100
AcDbCircle
 10
222.2183101787
 20
494.6306508627
 30
0.0
 40
0.5000000000000568
100
AcDbArc
 50
30.0
 51
90.0
  0
ARC
  5
83
330
1F
100
AcDbEntity
  8
0
100
AcDbCircle
 10
212.5277112555
 20
494.6306508627
 30
0.0
 40
0.5000000000000568
100
AcDbArc
 50
90.0
 51
150.0
  0
LINE
  5
84
330
1F
100
AcDbEntity
  8
0
100
AcDbLine
 10
229.6230107171
 20
473.2631184329
 30
0.0
 11
229.1230107171
 21
473.7631184329
 31
0.0
  0
LINE
  5
85
330
1F
100
AcDbEntity
  8
0
100
AcDbLine
 10
205.6230107171
 20
473.7631184329
 30
0.0
 11
205.1230107171
 21
473.2631184329
 31
0.0
  0
LINE
  5
86
330
1F
100
AcDbEntity
  8
0
100
AcDbLine
 10
229.6230107171
 20
438.7631184329
 30
0.0
 11
229.6230107171
 21
473.2631184329
 31
0.0
  0
LINE
  5
87
330
1F
100
AcDbEntity
  8
0
100
AcDbLine
 10
205.1230107171
 20
473.2631184329
 30
0.0
 11
205.1230107171
 21
438.7631184329
 31
0.0
  0
LINE
  5
88
330
1F
100
AcDbEntity
  8
0
100
AcDbLine
 10
209.3230107171
 20
482.3106409573
 30
0.0
 11
225.4230107171
 21
482.3106409573
 31
0.0
  0
LINE
  5
89
330
1F
100
AcDbEntity
  8
0
100
AcDbLine
 10
209.3230107171
 20
489.3106409573
 30
0.0
 11
225.4230107171
 21
489.3106409573
 31
0.0
  0
LINE
  5
8A
330
1F
100
AcDbEntity
  8
0
100
AcDbLine
 10
209.4730107171
 20
493.8106409573
 30
0.0
 11
225.2730107171
 21
493.8106409573
 31
0.0
  0
LINE
  5
8B
330
1F
100
AcDbEntity
  8
0
100
AcDbLine
 10
209.9730107171
 20
494.3106409573
 30
0.0
 11
224.7730107171
 21
494.3106409573
 31
0.0
  0
LINE
  5
8C
330
1F
100
AcDbEntity
  8
0
100
AcDbLine
 10
218.4634351295
 20
427.2849262992
 30
0.0
 11
219.0836545818
 21
428.9021238231
 31
0.0
  0
LINE
  5
8D
330
1F
100
AcDbEntity
  8
0
100
AcDbLine
 10
219.0836545818
 20
428.9021238231
 30
0.0
 11
217.9932301694
 21
430.2478483866
 31
0.0
  0
LINE
  5
8E
330
1F
100
AcDbEntity
  8
0
100
AcDbLine
 10
217.9932301694
 20
430.2478483866
 30
0.0
 11
216.2825863047
 21
429.9763754262
 31
0.0
  0
LINE
  5
8F
330
1F
100
AcDbEntity
  8
0
100
AcDbLine
 10
216.2825863047
 20
429.9763754262
 30
0.0
 11
215.6623668524
 21
428.3591779024
 31
0.0
  0
LINE
  5
90
330
1F
100
AcDbEntity
  8
0
100
AcDbLine
 10
216.7527912648
 20
427.0134533389
 30
0.0
 11
215.6623668524
 21
428.3591779024
 31
0.0
  0
LINE
  5
91
330
1F
100
AcDbEntity
  8
0
100
AcDbLine
 10
216.7527912648
 20
427.0134533389
 30
0.0
 11
218.4634351295
 21
427.2849262992
 31
0.0
  0
CIRCLE
  5
92
330
1F
100
AcDbEntity
  8
0
100
AcDbCircle
 10
217.3730107171
 20
428.6306508627
 30
0.0
 40
3.499999999999958
  0
LINE
  5
93
330
1F
100
AcDbEntity
  8
0
100
AcDbLine
 10
222.2183101787
 20
495.1306508627
 30
0.0
 11
212.5277112555
 21
495.1306508627
 31
0.0
  0
CIRCLE
  5
94
330
1F
100
AcDbEntity
  8
0
100
AcDbCircle
 10
208.6230107171
 20
428.7631184329
 30
0.0
 40
2.5
  0
CIRCLE
  5
95
330
1F
100
AcDbEntity
  8
0
100
AcDbCircle
 10
208.6230107171
 20
428.7631184329
 30
0.0
 40
3.5
  0
LINE
  5
96
330
1F
100
AcDbEntity
  8
0
100
AcDbLine
 10
229.8730107171
 20
438.7631184329
 30
0.0
 11
204.8730107171
 21
438.7631184329
 31
0.0
  0
LINE
  5
97
330
1F
100
AcDbEntity
  8
0
100
AcDbLine
 10
229.8730107171
 20
368.7631184329
 30
0.0
 11
229.8730107171
 21
438.7631184329
 31
0.0
  0
LINE
  5
98
330
1F
100
AcDbEntity
  8
0
100
AcDbLine
 10
204.8730107171
 20
368.7631184329
 30
0.0
 11
229.8730107171
 21
368.7631184329
 31
0.0
  0
LINE
  5
99
330
1F
100
AcDbEntity
  8
0
100
AcDbLine
 10
204.8730107171
 20
438.7631184329
 30
0.0
 11
204.8730107171
 21
368.7631184329
 31
0.0
  0
LINE
  5
9A
330
1F
100
AcDbEntity
  8
0
100
AcDbLine
 10
213.3730107171
 20
430.2631184329
 30
0.0
 11
213.3730107171
 21
409.2631184329
 31
0.0
  0
ARC
  5
9B
330
1F
100
AcDbEntity
  8
0
100
AcDbCircle
 10
217.3730107171
 20
409.2631184329
 30
0.0
 40
4.000000000000028
100
AcDbArc
 50
180.0
 51
0.0
  0
LINE
  5
9C
330
1F
100
AcDbEntity
  8
0
100
AcDbLine
 10
221.3730107171
 20
409.2631184329
 30
0.0
 11
221.3730107171
 21
430.2631184329
 31
0.0
  0
ARC
  5
9D
330
1F
100
AcDbEntity
  8
0
100
AcDbCircle
 10
217.3730107171
 20
430.2631184329
 30
0.0
 40
4.000000000000028
100
AcDbArc
 50
0.0
 51
180.0
  0
CIRCLE
  5
9E
330
1F
100
AcDbEntity
  8
0
100
AcDbCircle
 10
226.1230107171
 20
428.7631184329
 30
0.0
 40
3.5
  0
CIRCLE
  5
9F
330
1F
100
AcDbEntity
  8
0
100
AcDbCircle
 10
226.1230107171
 20
400.7631184329
 30
0.0
 40
3.5
  0
CIRCLE
  5
A0
330
1F
100
AcDbEntity
  8
0
100
AcDbCircle
 10
208.6230107171
 20
400.7631184329
 30
0.0
 40
3.5
  0
CIRCLE
  5
A1
330
1F
100
AcDbEntity
  8
0
100
AcDbCircle
 10
208.6230107171
 20
400.7631184329
 30
0.0
 40
2.5
  0
CIRCLE
  5
A2
330
1F
100
AcDbEntity
  8
0
100
AcDbCircle
 10
226.1230107171
 20
400.7631184329
 30
0.0
 40
2.5
  0
CIRCLE
  5
A3
330
1F
100
AcDbEntity
  8
0
100
AcDbCircle
 10
226.1230107171
 20
428.7631184329
 30
0.0
 40
2.5
  0
LINE
  5
A4
330
1F
100
AcDbEntity
  8
0
100
AcDbLine
 10
217.3730107171
 20
473.7631184329
 30
0.0
 11
229.1230107171
 21
473.7631184329
 31
0.0
  0
LINE
  5
A5
330
1F
100
AcDbEntity
  8
0
100
AcDbLine
 10
205.6230107171
 20
473.7631184329
 30
0.0
 11
217.3730107171
 21
473.7631184329
 31
0.0
  0
LINE
  5
A6
330
1F
100
AcDbEntity
  8
0
100
AcDbLine
 10
217.3730107171
 20
473.2631184329
 30
0.0
 11
205.1230107171
 21
473.2631184329
 31
0.0
  0
LINE
  5
A7
330
1F
100
AcDbEntity
  8
0
100
AcDbLine
 10
229.6230107171
 20
473.2631184329
 30
0.0
 11
217.3730107171
 21
473.2631184329
 31
0.0
  0
ARC
  5
A8
330
1F
100
AcDbEntity
  8
0
100
AcDbCircle
 10
217.3730107171
 20
425.2631184329
 30
0.0
 40
4.000000000000028
100
AcDbArc
 50
301.6682432535
 51
0.0
  0
LINE
  5
A9
330
1F
100
AcDbEntity
  8
0
100
AcDbLine
 10
219.4730107171
 20
421.8587095267
 30
0.0
 11
219.4730107171
 21
412.667527339
 31
0.0
  0
ARC
  5
AA
330
1F
100
AcDbEntity
  8
0
100
AcDbCircle
 10
217.3730107171
 20
409.2631184329
 30
0.0
 40
4.000000000000028
100
AcDbArc
 50
0.0
 51
58.3317567465
  0
ARC
  5
AB
330
1F
100
AcDbEntity
  8
0
100
AcDbCircle
 10
217.3730107171
 20
425.2631184329
 30
0.0
 40
4.0
100
AcDbArc
 50
180.0
 51
238.3317567465
  0
LINE
  5
AC
330
1F
100
AcDbEntity
  8
0
100
AcDbLine
 10
215.2730107171
 20
412.667527339
 30
0.0
 11
215.2730107171
 21
421.8587095267
 31
0.0
  0
ARC
  5
AD
330
1F
100
AcDbEntity
  8
0
100
AcDbCircle
 10
217.3730107171
 20
409.2631184329
 30
0.0
 40
4.0
100
AcDbArc
 50
121.6682432535
 51
180.0
  0
ARC
  5
AE
330
1F
100
AcDbEntity
  8
0
100
AcDbCircle
 10
217.3730107171
 20
430.2631184329
 30
0.0
 40
2.100000000000051
100
AcDbArc
 50
49.0061932717
 51
130.9938067283
  0
LINE
  5
AF
330
1F
100
AcDbEntity
  8
0
100
AcDbLine
 10
215.2730107171
 20
421.8587095267
 30
0.0
 11
215.2730107171
 21
425.8306508627
 31
0.0
  0
LINE
  5
B0
330
1F
100
AcDbEntity
  8
0
100
AcDbLine
 10
219.4730107171
 20
425.8306508627
 30
0.0
 11
219.4730107171
 21
421.8587095267
 31
0.0
  0
ARC
  5
B1
330
1F
100
AcDbEntity
  8
0
100
AcDbCircle
 10
217.3730107171
 20
409.2631184329
 30
0.0
 40
2.099999999999994
100
AcDbArc
 50
180.0
 51
0.0
  0
LINE
  5
B2
330
1F
100
AcDbEntity
  8
0
100
AcDbLine
 10
215.2730107171
 20
409.2631184329
 30
0.0
 11
215.2730107171
 21
412.667527339
 31
0.0
  0
LINE
  5
B3
330
1F
100
AcDbEntity
  8
0
100
AcDbLine
 10
219.4730107171
 20
412.667527339
 30
0.0
 11
219.4730107171
 21
409.2631184329
 31
0.0
  0
LINE
  5
B4
330
1F
100
AcDbEntity
  8
0
  6
Continuous
 62
     8
370
    18
100
AcDbLine
 10
222.6513228806
 20
494.8806508627
 30
0.0
 11
212.0946985536
 21
494.8806508627
 31
0.0
  0
LINE
  5
B5
330
1F
100
AcDbEntity
  8
0
  6
CENTER
 62
     7
370
    18
100
AcDbLine
 10
217.3730107171
 20
510.3558155424
 30
0.0
 11
217.3730107171
 21
353.029113853
 31
0.0
  0
LINE
  5
B6
330
1F
100
AcDbEntity
  8
0
  6
Continuous
 62
     7
370
    18
100
AcDbLine
 10
212.0530107171
 20
508.3558155424
 30
0.0
 11
217.3730107171
 21
508.3558155424
 31
0.0
  0
SOLID
  5
B7
330
1F
100
AcDbEntity
  8
0
  6
Continuous
 62
     7
370
    18
100
AcDbTrace
 10
217.3730107171
 20
508.3558155424
 30
0.0
 11
213.8730107171
 21
508.9158155424
 31
0.0
 12
213.8730107171
 22
507.7958155424
 32
0.0
 13
213.8730107171
 23
507.7958155424
 33
0.0
  0
LINE
  5
B8
330
1F
100
AcDbEntity
  8
0
  6
Continuous
 62
     7
370
    18
100
AcDbLine
 10
212.0530107171
 20
355.029113853
 30
0.0
 11
217.3730107171
 21
355.029113853
 31
0.0
  0
SOLID
  5
B9
330
1F
100
AcDbEntity
  8
0
  6
Continuous
 62
     7
370
    18
100
AcDbTrace
 10
217.3730107171
 20
355.029113853
 30
0.0
 11
213.8730107171
 21
355.589113853
 31
0.0
 12
213.8730107171
 22
354.469113853
 32
0.0
 13
213.8730107171
 23
354.469113853
 33
0.0
  0
MTEXT
  5
BA
330
1F
100
AcDbEntity
  8
0
  6
Continuous
 62
     7
100
AcDbMText
 10
212.0530107171
 20
513.9116801338
 30
0.0
 40
3.5
 41
0.0
 71
     1
 72
     1
  1
G
  7
SLDTEXTSTYLE0
 73
     1
 44
1.0
  0
MTEXT
  5
BB
330
1F
100
AcDbEntity
  8
0
  6
Continuous
 62
     7
100
AcDbMText
 10
212.0530107171
 20
353.1790109441
 30
0.0
 40
3.5
 41
0.0
 71
     1
 72
     1
  1
G
  7
SLDTEXTSTYLE0
 73
     1
 44
1.0
  0
LINE
  5
BC
330
1F
100
AcDbEntity
  8
0
  6
CENTER
 62
     7
370
    18
100
AcDbLine
 10
208.6230107171
 20
522.4550267654
 30
0.0
 11
208.6230107171
 21
335.5749083204
 31
0.0
  0
LINE
  5
BD
330
1F
100
AcDbEntity
  8
0
  6
Continuous
 62
     7
370
    18
100
AcDbLine
 10
213.9430107171
 20
520.4550267654
 30
0.0
 11
208.6230107171
 21
520.4550267654
 31
0.0
  0
SOLID
  5
BE
330
1F
100
AcDbEntity
  8
0
  6
Continuous
 62
     7
370
    18
100
AcDbTrace
 10
208.6230107171
 20
520.4550267654
 30
0.0
 11
212.1230107171
 21
519.8950267654
 31
0.0
 12
212.1230107171
 22
521.0150267654
 32
0.0
 13
212.1230107171
 23
521.0150267654
 33
0.0
  0
LINE
  5
BF
330
1F
100
AcDbEntity
  8
0
  6
Continuous
 62
     7
370
    18
100
AcDbLine
 10
213.9430107171
 20
337.5749083204
 30
0.0
 11
208.6230107171
 21
337.5749083204
 31
0.0
  0
SOLID
  5
C0
330
1F
100
AcDbEntity
  8
0
  6
Continuous
 62
     7
370
    18
100
AcDbTrace
 10
208.6230107171
 20
337.5749083204
 30
0.0
 11
212.1230107171
 21
337.0149083204
 31
0.0
 12
212.1230107171
 22
338.1349083204
 32
0.0
 13
212.1230107171
 23
338.1349083204
 33
0.0
  0
MTEXT
  5
C1
330
1F
100
AcDbEntity
  8
0
  6
Continuous
 62
     7
100
AcDbMText
 10
210.7603725848
 20
526.0108913569
 30
0.0
 40
3.5
 41
0.0
 71
     1
 72
     1
  1
H
  7
SLDTEXTSTYLE0
 73
     1
 44
1.0
  0
MTEXT
  5
C2
330
1F
100
AcDbEntity
  8
0
  6
Continuous
 62
     7
100
AcDbMText
 10
210.7603725848
 20
335.7248054115
 30
0.0
 40
3.5
 41
0.0
 71
     1
 72
     1
  1
H
  7
SLDTEXTSTYLE0
 73
     1
 44
1.0
  0
CIRCLE
  5
C3
330
1F
100
AcDbEntity
  8
0
100
AcDbCircle
 10
217.3730107171
 20
300.0549083817
 30
0.0
 40
7.89999999999995
  0
CIRCLE
  5
C4
330
1F
100
AcDbEntity
  8
0
100
AcDbCircle
 10
217.3730107171
 20
300.0549083817
 30
0.0
 40
7.40000000000001
  0
CIRCLE
  5
C5
330
1F
100
AcDbEntity
  8
0
100
AcDbCircle
 10
217.3730107171
 20
300.0549083817
 30
0.0
 40
6.149999999999987
  0
CIRCLE
  5
C6
330
1F
100
AcDbEntity
  8
0
100
AcDbCircle
 10
217.3730107171
 20
300.0549083817
 30
0.0
 40
8.04999999999999
  0
CIRCLE
  5
C7
330
1F
100
AcDbEntity
  8
0
100
AcDbCircle
 10
217.3730107171
 20
300.0549083817
 30
0.0
 40
6.0
  0
CIRCLE
  5
C8
330
1F
100
AcDbEntity
  8
0
100
AcDbCircle
 10
217.3730107171
 20
300.0549083817
 30
0.0
 40
6.050000000000011
  0
CIRCLE
  5
C9
330
1F
100
AcDbEntity
  8
0
100
AcDbCircle
 10
217.3730107171
 20
300.0549083817
 30
0.0
 40
11.75
  0
CIRCLE
  5
CA
330
1F
100
AcDbEntity
  8
0
100
AcDbCircle
 10
217.3730107171
 20
300.0549083817
 30
0.0
 40
12.25000000000006
  0
LINE
  5
CB
330
1F
100
AcDbEntity
  8
0
100
AcDbLine
 10
229.8730107171
 20
287.5549083817
 30
0.0
 11
204.8730107171
 21
287.5549083817
 31
0.0
  0
LINE
  5
CC
330
1F
100
AcDbEntity
  8
0
100
AcDbLine
 10
229.8730107171
 20
312.5549083817
 30
0.0
 11
204.8730107171
 21
312.5549083817
 31
0.0
  0
LINE
  5
CD
330
1F
100
AcDbEntity
  8
0
100
AcDbLine
 10
204.8730107171
 20
287.5549083817
 30
0.0
 11
204.8730107171
 21
312.5549083817
 31
0.0
  0
LINE
  5
CE
330
1F
100
AcDbEntity
  8
0
100
AcDbLine
 10
229.8730107171
 20
287.5549083817
 30
0.0
 11
229.8730107171
 21
312.5549083817
 31
0.0
  0
CIRCLE
  5
CF
330
1F
100
AcDbEntity
  8
0
100
AcDbCircle
 10
217.3730107171
 20
300.0549083817
 30
0.0
 40
6.039230484541292
  0
CIRCLE
  5
D0
330
1F
100
AcDbEntity
  8
0
  6
Continuous
 62
     8
370
    18
100
AcDbCircle
 10
217.3730107171
 20
300.0549083817
 30
0.0
 40
4.845299461620755
  0
CIRCLE
  5
D1
330
1F
100
AcDbEntity
  8
0
  6
Continuous
 62
     8
370
    18
100
AcDbCircle
 10
217.3730107171
 20
300.0549083817
 30
0.0
 40
5.278312163512965
  0
LINE
  5
D2
330
1F
100
AcDbEntity
  8
0
100
AcDbLine
 10
204.8730107171
 20
553.307823839
 30
0.0
 11
229.8730107171
 21
553.307823839
 31
0.0
  0
LINE
  5
D3
330
1F
100
AcDbEntity
  8
0
100
AcDbLine
 10
229.8730107171
 20
553.307823839
 30
0.0
 11
229.8730107171
 21
528.307823839
 31
0.0
  0
LINE
  5
D4
330
1F
100
AcDbEntity
  8
0
100
AcDbLine
 10
204.8730107171
 20
553.307823839
 30
0.0
 11
204.8730107171
 21
528.307823839
 31
0.0
  0
LINE
  5
D5
330
1F
100
AcDbEntity
  8
0
100
AcDbLine
 10
204.8730107171
 20
528.307823839
 30
0.0
 11
229.8730107171
 21
528.307823839
 31
0.0
  0
SPLINE
  5
D6
330
1F
100
AcDbEntity
  8
0
100
AcDbSpline
210
0.0
220
0.0
230
1.0
 70
     8
 71
     3
 72
    24
 73
    20
 74
     0
 42
0.000000001
 43
0.00000001
 40
0.0
 40
0.0
 40
0.0
 40
0.0
 40
0.0290505969318907
 40
0.0599621968652044
 40
0.1303212586899444
 40
0.2131814991174104
 40
0.2920632473553057
 40
0.3601480858405064
 40
0.4179718301902682
 40
0.4761622354060315
 40
0.5431314723046045
 40
0.6208236222361888
 40
0.7032543464618772
 40
0.7770792175212374
 40
0.8435934145116448
 40
0.90242327329051
 40
0.9570900466225217
 40
0.9840020892469916
 40
1.0
 40
1.0
 40
1.0
 40
1.0
 10
276.6599625535534
 20
385.2135459487905
 30
0.0
 10
276.6682064098794
 20
385.2080747763451
 30
0.0
 10
276.6852222301431
 20
385.1967819440488
 30
0.0
 10
276.808524089566
 20
385.2193209420324
 30
0.0
 10
277.0730501647733
 20
385.2614927006795
 30
0.0
 10
277.5828947160775
 20
385.3361376366973
 30
0.0
 10
278.1900590775313
 20
385.4049199219828
 30
0.0
 10
278.7874647118433
 20
385.4670046747641
 30
0.0
 10
279.347689706946
 20
385.5247818477545
 30
0.0
 10
279.9098645664195
 20
385.5815491508218
 30
0.0
 10
280.5215156485198
 20
385.6416704144015
 30
0.0
 10
281.1633705667756
 20
385.7131894248639
 30
0.0
 10
281.7420909000193
 20
385.7865013584588
 30
0.0
 10
282.1967269539669
 20
385.8544225871701
 30
0.0
 10
282.5115161832218
 20
385.92492470128
 30
0.0
 10
282.7214116224338
 20
385.9861767795769
 30
0.0
 10
282.9037312964644
 20
386.1087380846369
 30
0.0
 10
282.9840878528406
 20
386.2504524697924
 30
0.0
 10
282.9848245948231
 20
386.3226494552392
 30
0.0
 10
282.9850992707795
 20
386.3495663087639
 30
0.0
  0
SPLINE
  5
D7
330
1F
100
AcDbEntity
  8
0
100
AcDbSpline
210
0.0
220
0.0
230
1.0
 70
     8
 71
     3
 72
    24
 73
    20
 74
     0
 42
0.000000001
 43
0.00000001
 40
0.0
 40
0.0
 40
0.0
 40
0.0
 40
0.011523973457506
 40
0.0720201537045645
 40
0.140363556657609
 40
0.2157710860218936
 40
0.2937127570034535
 40
0.3608694620910659
 40
0.4168839619056919
 40
0.4708333256557536
 40
0.5303320121562118
 40
0.5939598885137575
 40
0.6612888115975574
 40
0.7326635163883035
 40
0.8087161785217382
 40
0.8512113597440912
 40
0.8977961048696431
 40
0.947825933164368
 40
1.0
 40
1.0
 40
1.0
 40
1.0
 10
282.4148714729561
 20
386.5664413179567
 30
0.0
 10
282.4153751417163
 20
386.568035693569
 30
0.0
 10
282.4185228669051
 20
386.5779998935978
 30
0.0
 10
282.2639884477987
 20
386.5238550415547
 30
0.0
 10
281.9639482959104
 20
386.47272705855
 30
0.0
 10
281.4843865963152
 20
386.404402923003
 30
0.0
 10
280.9029275412053
 20
386.333952754708
 30
0.0
 10
280.3110473967166
 20
386.270732742278
 30
0.0
 10
279.7628579883794
 20
386.2168946586106
 30
0.0
 10
279.2304601727606
 20
386.1627787146717
 30
0.0
 10
278.6800970415372
 20
386.1059574106446
 30
0.0
 10
278.1143022453665
 20
386.0475654283414
 30
0.0
 10
277.560354223303
 20
385.9841443969891
 30
0.0
 10
277.0541009742781
 20
385.9132600275005
 30
0.0
 10
276.6807454503474
 20
385.8537390010145
 30
0.0
 10
276.3743734311769
 20
385.7632252466261
 30
0.0
 10
276.167260914759
 20
385.6543807988696
 30
0.0
 10
276.01933807201
 20
385.510472817381
 30
0.0
 10
276.0013133923024
 20
385.4129496855063
 30
0.0
 10
275.9921119734861
 20
385.3631651015239
 30
0.0
  0
SPLINE
  5
D8
330
1F
100
AcDbEntity
  8
0
100
AcDbSpline
210
0.0
220
0.0
230
1.0
 70
     8
 71
     3
 72
    22
 73
    18
 74
     0
 42
0.000000001
 43
0.00000001
 40
0.0
 40
0.0
 40
0.0
 40
0.0
 40
0.0307108737934184
 40
0.0633891091679913
 40
0.1377692767425113
 40
0.2253650804443085
 40
0.308755016300749
 40
0.3807309859123021
 40
0.4418594274088578
 40
0.5033754848847669
 40
0.5741720949254648
 40
0.6563044454890654
 40
0.743446185616954
 40
0.8214902376286289
 40
0.8918058016783115
 40
0.9539978582642927
 40
1.0
 40
1.0
 40
1.0
 40
1.0
 10
276.6599625535521
 20
407.2135459487899
 30
0.0
 10
276.668206409859
 20
407.2080747763766
 30
0.0
 10
276.6852222300833
 20
407.1967819441467
 30
0.0
 10
276.8085240899499
 20
407.2193209413831
 30
0.0
 10
277.0730501608911
 20
407.261492707227
 30
0.0
 10
277.5828947326228
 20
407.33613760879
 30
0.0
 10
278.1900590228312
 20
407.4049200142505
 30
0.0
 10
278.7874648744351
 20
407.46700440051
 30
0.0
 10
279.3476891974105
 20
407.5247827072262
 30
0.0
 10
279.9098666154124
 20
407.5815456946387
 30
0.0
 10
280.5215060910377
 20
407.6416865356985
 30
0.0
 10
281.1634135297905
 20
407.713116956044
 30
0.0
 10
281.7419281381023
 20
407.7867759007441
 30
0.0
 10
282.1972408735364
 20
407.8535557219046
 30
0.0
 10
282.5098855428139
 20
407.9276752202634
 30
0.0
 10
282.7131568522971
 20
407.9743732077582
 30
0.0
 10
282.8324641066352
 20
408.079024417246
 30
0.0
 10
282.883191311137
 20
408.1235201466507
 30
0.0
  0
SPLINE
  5
D9
330
1F
100
AcDbEntity
  8
0
100
AcDbSpline
210
0.0
220
0.0
230
1.0
 70
     8
 71
     3
 72
    16
 73
    12
 74
     0
 42
0.000000001
 43
0.00000001
 40
0.0
 40
0.0
 40
0.0
 40
0.0
 40
0.0489038381268162
 40
0.1777527921925298
 40
0.3140965115550218
 40
0.4586330981192605
 40
0.6126427324303487
 40
0.6986971470482745
 40
0.7930330895384352
 40
0.8943454610471682
 40
1.0
 40
1.0
 40
1.0
 40
1.0
 10
278.9208774729696
 20
408.1307548275926
 30
0.0
 10
278.8458765160574
 20
408.123036080595
 30
0.0
 10
278.5732674526611
 20
408.0949804333576
 30
0.0
 10
278.1150019472097
 20
408.0476190699836
 30
0.0
 10
277.5601495795386
 20
407.9841287082673
 30
0.0
 10
277.0541623377089
 20
407.9132647318402
 30
0.0
 10
276.6807366394477
 20
407.8537383255394
 30
0.0
 10
276.3743753914115
 20
407.7632253969047
 30
0.0
 10
276.1672603278456
 20
407.6543807538749
 30
0.0
 10
276.0193382306293
 20
407.5104728295419
 30
0.0
 10
276.0013134459099
 20
407.4129496896167
 30
0.0
 10
275.9921119734861
 20
407.3631651015246
 30
0.0
  0
SPLINE
  5
DA
330
1F
100
AcDbEntity
  8
0
100
AcDbSpline
210
0.0
220
0.0
230
1.0
 70
     8
 71
     3
 72
    24
 73
    20
 74
     0
 42
0.000000001
 43
0.00000001
 40
0.0
 40
0.0
 40
0.0
 40
0.0
 40
0.0290505969320066
 40
0.0599621968653137
 40
0.1303212586900502
 40
0.2131814991175144
 40
0.2920632473554065
 40
0.3601480858406064
 40
0.4179718301903655
 40
0.4761622354061262
 40
0.5431314723046982
 40
0.6208236222362822
 40
0.7032543464619675
 40
0.7770792175213264
 40
0.8435934145117348
 40
0.9024232732905918
 40
0.9570900466225571
 40
0.9840020892469983
 40
1.0
 40
1.0
 40
1.0
 40
1.0
 10
276.6599625535534
 20
391.2135459487906
 30
0.0
 10
276.6682064098794
 20
391.2080747763452
 30
0.0
 10
276.6852222301433
 20
391.1967819440489
 30
0.0
 10
276.8085240895664
 20
391.2193209420324
 30
0.0
 10
277.0730501647738
 20
391.2614927006796
 30
0.0
 10
277.5828947160782
 20
391.3361376366973
 30
0.0
 10
278.190059077532
 20
391.4049199219829
 30
0.0
 10
278.787464711844
 20
391.4670046747642
 30
0.0
 10
279.3476897069468
 20
391.5247818477545
 30
0.0
 10
279.9098645664203
 20
391.5815491508219
 30
0.0
 10
280.5215156485206
 20
391.6416704144016
 30
0.0
 10
281.1633705667763
 20
391.713189424864
 30
0.0
 10
281.7420909000198
 20
391.7865013584588
 30
0.0
 10
282.1967269539674
 20
391.8544225871702
 30
0.0
 10
282.5115161832221
 20
391.9249247012801
 30
0.0
 10
282.721411622434
 20
391.986176779577
 30
0.0
 10
282.9037312964645
 20
392.1087380846369
 30
0.0
 10
282.9840878528406
 20
392.2504524697924
 30
0.0
 10
282.9848245948231
 20
392.3226494552392
 30
0.0
 10
282.9850992707795
 20
392.3495663087639
 30
0.0
  0
SPLINE
  5
DB
330
1F
100
AcDbEntity
  8
0
100
AcDbSpline
210
0.0
220
0.0
230
1.0
 70
     8
 71
     3
 72
    24
 73
    20
 74
     0
 42
0.000000001
 43
0.00000001
 40
0.0
 40
0.0
 40
0.0
 40
0.0
 40
0.0115239734574693
 40
0.0720201537045274
 40
0.1403635566575765
 40
0.215771086021867
 40
0.293712757003433
 40
0.3608694620910526
 40
0.4168839619056813
 40
0.4708333256557471
 40
0.5303320121562125
 40
0.5939598885137649
 40
0.6612888115975835
 40
0.7326635163883627
 40
0.8087161785218265
 40
0.8512113597441731
 40
0.897796104869706
 40
0.9478259331644016
 40
1.0
 40
1.0
 40
1.0
 40
1.0
 10
282.4148714729561
 20
392.5664413179567
 30
0.0
 10
282.4153751417164
 20
392.568035693569
 30
0.0
 10
282.4185228669052
 20
392.5779998935978
 30
0.0
 10
282.263988447799
 20
392.5238550415547
 30
0.0
 10
281.9639482959109
 20
392.47272705855
 30
0.0
 10
281.4843865963159
 20
392.404402923003
 30
0.0
 10
280.902927541206
 20
392.333952754708
 30
0.0
 10
280.3110473967173
 20
392.2707327422781
 30
0.0
 10
279.7628579883802
 20
392.2168946586107
 30
0.0
 10
279.2304601727613
 20
392.1627787146718
 30
0.0
 10
278.6800970415379
 20
392.1059574106446
 30
0.0
 10
278.1143022453671
 20
392.0475654283415
 30
0.0
 10
277.5603542233034
 20
391.9841443969892
 30
0.0
 10
277.0541009742782
 20
391.9132600275005
 30
0.0
 10
276.6807454503476
 20
391.8537390010145
 30
0.0
 10
276.3743734311772
 20
391.7632252466263
 30
0.0
 10
276.1672609147594
 20
391.65438079887
 30
0.0
 10
276.0193380720103
 20
391.5104728173816
 30
0.0
 10
276.0013133923026
 20
391.412949685507
 30
0.0
 10
275.9921119734861
 20
391.3631651015246
 30
0.0
  0
SPLINE
  5
DC
330
1F
100
AcDbEntity
  8
0
100
AcDbSpline
210
0.0
220
0.0
230
1.0
 70
     8
 71
     3
 72
    24
 73
    20
 74
     0
 42
0.000000001
 43
0.00000001
 40
0.0
 40
0.0
 40
0.0
 40
0.0
 40
0.0290505969319986
 40
0.0599621968653179
 40
0.1303212586900654
 40
0.2131814991175336
 40
0.2920632473554227
 40
0.3601480858406202
 40
0.4179718301903796
 40
0.4761622354061394
 40
0.5431314723047088
 40
0.6208236222362911
 40
0.7032543464619734
 40
0.7770792175213328
 40
0.8435934145117394
 40
0.9024232732905972
 40
0.9570900466225599
 40
0.9840020892470017
 40
0.9999999999999999
 40
0.9999999999999999
 40
0.9999999999999999
 40
0.9999999999999999
 10
276.6599625535533
 20
389.2135459487906
 30
0.0
 10
276.6682064098794
 20
389.2080747763451
 30
0.0
 10
276.6852222301432
 20
389.1967819440488
 30
0.0
 10
276.8085240895663
 20
389.2193209420324
 30
0.0
 10
277.0730501647737
 20
389.2614927006795
 30
0.0
 10
277.5828947160781
 20
389.3361376366973
 30
0.0
 10
278.190059077532
 20
389.4049199219829
 30
0.0
 10
278.787464711844
 20
389.4670046747642
 30
0.0
 10
279.3476897069468
 20
389.5247818477545
 30
0.0
 10
279.9098645664203
 20
389.5815491508219
 30
0.0
 10
280.5215156485206
 20
389.6416704144016
 30
0.0
 10
281.1633705667763
 20
389.713189424864
 30
0.0
 10
281.7420909000198
 20
389.7865013584588
 30
0.0
 10
282.1967269539674
 20
389.8544225871702
 30
0.0
 10
282.5115161832222
 20
389.9249247012801
 30
0.0
 10
282.721411622434
 20
389.986176779577
 30
0.0
 10
282.9037312964645
 20
390.108738084637
 30
0.0
 10
282.9840878528406
 20
390.2504524697924
 30
0.0
 10
282.9848245948231
 20
390.3226494552392
 30
0.0
 10
282.9850992707795
 20
390.3495663087639
 30
0.0
  0
SPLINE
  5
DD
330
1F
100
AcDbEntity
  8
0
100
AcDbSpline
210
0.0
220
0.0
230
1.0
 70
     8
 71
     3
 72
    24
 73
    20
 74
     0
 42
0.000000001
 43
0.00000001
 40
0.0
 40
0.0
 40
0.0
 40
0.0
 40
0.011523973457468
 40
0.0720201537045256
 40
0.1403635566575755
 40
0.2157710860218647
 40
0.2937127570034319
 40
0.3608694620910515
 40
0.4168839619056794
 40
0.4708333256557466
 40
0.5303320121562088
 40
0.5939598885137627
 40
0.6612888115975789
 40
0.7326635163883535
 40
0.8087161785218114
 40
0.851211359744158
 40
0.8977961048696944
 40
0.9478259331643938
 40
1.0
 40
1.0
 40
1.0
 40
1.0
 10
282.4148714729561
 20
390.5664413179567
 30
0.0
 10
282.4153751417164
 20
390.568035693569
 30
0.0
 10
282.4185228669052
 20
390.5779998935978
 30
0.0
 10
282.263988447799
 20
390.5238550415547
 30
0.0
 10
281.9639482959109
 20
390.47272705855
 30
0.0
 10
281.4843865963159
 20
390.404402923003
 30
0.0
 10
280.902927541206
 20
390.3339527547081
 30
0.0
 10
280.3110473967173
 20
390.2707327422781
 30
0.0
 10
279.7628579883802
 20
390.2168946586107
 30
0.0
 10
279.2304601727614
 20
390.1627787146718
 30
0.0
 10
278.680097041538
 20
390.1059574106446
 30
0.0
 10
278.1143022453671
 20
390.0475654283415
 30
0.0
 10
277.5603542233034
 20
389.9841443969892
 30
0.0
 10
277.0541009742783
 20
389.9132600275005
 30
0.0
 10
276.6807454503476
 20
389.8537390010145
 30
0.0
 10
276.3743734311773
 20
389.7632252466263
 30
0.0
 10
276.1672609147594
 20
389.65438079887
 30
0.0
 10
276.0193380720103
 20
389.5104728173816
 30
0.0
 10
276.0013133923026
 20
389.412949685507
 30
0.0
 10
275.9921119734861
 20
389.3631651015246
 30
0.0
  0
SPLINE
  5
DE
330
1F
100
AcDbEntity
  8
0
100
AcDbSpline
210
0.0
220
0.0
230
1.0
 70
     8
 71
     3
 72
    24
 73
    20
 74
     0
 42
0.000000001
 43
0.00000001
 40
0.0
 40
0.0
 40
0.0
 40
0.0
 40
0.0290505969320002
 40
0.0599621968653189
 40
0.1303212586900645
 40
0.2131814991175308
 40
0.2920632473554203
 40
0.3601480858406202
 40
0.4179718301903783
 40
0.476162235406139
 40
0.5431314723047085
 40
0.6208236222362911
 40
0.7032543464619747
 40
0.7770792175213332
 40
0.84359341451174
 40
0.9024232732905967
 40
0.9570900466225573
 40
0.9840020892469992
 40
1.0
 40
1.0
 40
1.0
 40
1.0
 10
276.6599625535533
 20
387.2135459487906
 30
0.0
 10
276.6682064098794
 20
387.2080747763451
 30
0.0
 10
276.6852222301432
 20
387.1967819440488
 30
0.0
 10
276.8085240895663
 20
387.2193209420324
 30
0.0
 10
277.0730501647737
 20
387.2614927006795
 30
0.0
 10
277.5828947160782
 20
387.3361376366973
 30
0.0
 10
278.190059077532
 20
387.4049199219829
 30
0.0
 10
278.7874647118441
 20
387.4670046747642
 30
0.0
 10
279.3476897069468
 20
387.5247818477545
 30
0.0
 10
279.9098645664203
 20
387.5815491508219
 30
0.0
 10
280.5215156485206
 20
387.6416704144016
 30
0.0
 10
281.1633705667763
 20
387.713189424864
 30
0.0
 10
281.7420909000198
 20
387.7865013584588
 30
0.0
 10
282.1967269539674
 20
387.8544225871702
 30
0.0
 10
282.5115161832222
 20
387.9249247012801
 30
0.0
 10
282.721411622434
 20
387.986176779577
 30
0.0
 10
282.9037312964645
 20
388.108738084637
 30
0.0
 10
282.9840878528406
 20
388.2504524697924
 30
0.0
 10
282.9848245948231
 20
388.3226494552392
 30
0.0
 10
282.9850992707795
 20
388.3495663087639
 30
0.0
  0
SPLINE
  5
DF
330
1F
100
AcDbEntity
  8
0
100
AcDbSpline
210
0.0
220
0.0
230
1.0
 70
     8
 71
     3
 72
    24
 73
    20
 74
     0
 42
0.000000001
 43
0.00000001
 40
0.0
 40
0.0
 40
0.0
 40
0.0
 40
0.0115239734574675
 40
0.0720201537045262
 40
0.1403635566575749
 40
0.2157710860218652
 40
0.2937127570034311
 40
0.3608694620910495
 40
0.4168839619056793
 40
0.4708333256557437
 40
0.530332012156208
 40
0.5939598885137591
 40
0.6612888115975695
 40
0.7326635163883317
 40
0.8087161785217815
 40
0.8512113597441285
 40
0.8977961048696695
 40
0.9478259331643801
 40
1.0
 40
1.0
 40
1.0
 40
1.0
 10
282.4148714729561
 20
388.5664413179567
 30
0.0
 10
282.4153751417164
 20
388.568035693569
 30
0.0
 10
282.4185228669052
 20
388.5779998935978
 30
0.0
 10
282.263988447799
 20
388.5238550415547
 30
0.0
 10
281.9639482959109
 20
388.47272705855
 30
0.0
 10
281.4843865963159
 20
388.404402923003
 30
0.0
 10
280.902927541206
 20
388.333952754708
 30
0.0
 10
280.3110473967173
 20
388.2707327422781
 30
0.0
 10
279.7628579883802
 20
388.2168946586107
 30
0.0
 10
279.2304601727614
 20
388.1627787146718
 30
0.0
 10
278.680097041538
 20
388.1059574106446
 30
0.0
 10
278.1143022453671
 20
388.0475654283415
 30
0.0
 10
277.5603542233035
 20
387.9841443969892
 30
0.0
 10
277.0541009742785
 20
387.9132600275005
 30
0.0
 10
276.6807454503478
 20
387.8537390010146
 30
0.0
 10
276.3743734311773
 20
387.7632252466263
 30
0.0
 10
276.1672609147594
 20
387.6543807988699
 30
0.0
 10
276.0193380720103
 20
387.5104728173816
 30
0.0
 10
276.0013133923026
 20
387.412949685507
 30
0.0
 10
275.9921119734861
 20
387.3631651015246
 30
0.0
  0
SPLINE
  5
E0
330
1F
100
AcDbEntity
  8
0
100
AcDbSpline
210
0.0
220
0.0
230
1.0
 70
     8
 71
     3
 72
    24
 73
    20
 74
     0
 42
0.000000001
 43
0.00000001
 40
0.0
 40
0.0
 40
0.0
 40
0.0
 40
0.029050596931997
 40
0.0599621968653153
 40
0.1303212586900599
 40
0.2131814991175226
 40
0.2920632473554088
 40
0.36014808584061
 40
0.4179718301903683
 40
0.4761622354061303
 40
0.5431314723047048
 40
0.6208236222362888
 40
0.703254346461974
 40
0.7770792175213268
 40
0.843593414511735
 40
0.9024232732905934
 40
0.9570900466225599
 40
0.9840020892469961
 40
1.0
 40
1.0
 40
1.0
 40
1.0
 10
276.6599625535533
 20
403.2135459487906
 30
0.0
 10
276.6682064098794
 20
403.2080747763451
 30
0.0
 10
276.6852222301433
 20
403.1967819440488
 30
0.0
 10
276.8085240895663
 20
403.2193209420324
 30
0.0
 10
277.0730501647737
 20
403.2614927006795
 30
0.0
 10
277.5828947160781
 20
403.3361376366973
 30
0.0
 10
278.1900590775319
 20
403.4049199219829
 30
0.0
 10
278.787464711844
 20
403.4670046747642
 30
0.0
 10
279.3476897069467
 20
403.5247818477545
 30
0.0
 10
279.9098645664203
 20
403.5815491508218
 30
0.0
 10
280.5215156485206
 20
403.6416704144016
 30
0.0
 10
281.1633705667763
 20
403.713189424864
 30
0.0
 10
281.7420909000198
 20
403.7865013584588
 30
0.0
 10
282.1967269539674
 20
403.8544225871702
 30
0.0
 10
282.5115161832222
 20
403.9249247012801
 30
0.0
 10
282.721411622434
 20
403.986176779577
 30
0.0
 10
282.9037312964645
 20
404.1087380846369
 30
0.0
 10
282.9840878528406
 20
404.2504524697925
 30
0.0
 10
282.9848245948231
 20
404.3226494552392
 30
0.0
 10
282.9850992707795
 20
404.3495663087639
 30
0.0
  0
SPLINE
  5
E1
330
1F
100
AcDbEntity
  8
0
100
AcDbSpline
210
0.0
220
0.0
230
1.0
 70
     8
 71
     3
 72
    24
 73
    20
 74
     0
 42
0.000000001
 43
0.00000001
 40
0.0
 40
0.0
 40
0.0
 40
0.0
 40
0.01152397345747
 40
0.0720201537045218
 40
0.1403635566575746
 40
0.2157710860218577
 40
0.2937127570034219
 40
0.3608694620910401
 40
0.4168839619056712
 40
0.4708333256557334
 40
0.5303320121561954
 40
0.593959888513729
 40
0.6612888115974493
 40
0.7326635163880437
 40
0.8087161785213477
 40
0.8512113597437033
 40
0.8977961048693166
 40
0.9478259331641716
 40
1.0
 40
1.0
 40
1.0
 40
1.0
 10
282.4148714729561
 20
404.5664413179567
 30
0.0
 10
282.4153751417164
 20
404.568035693569
 30
0.0
 10
282.4185228669052
 20
404.5779998935978
 30
0.0
 10
282.263988447799
 20
404.5238550415547
 30
0.0
 10
281.9639482959109
 20
404.4727270585501
 30
0.0
 10
281.4843865963159
 20
404.404402923003
 30
0.0
 10
280.902927541206
 20
404.3339527547081
 30
0.0
 10
280.3110473967173
 20
404.2707327422781
 30
0.0
 10
279.7628579883802
 20
404.2168946586107
 30
0.0
 10
279.2304601727614
 20
404.1627787146718
 30
0.0
 10
278.680097041538
 20
404.1059574106446
 30
0.0
 10
278.1143022453675
 20
404.0475654283415
 30
0.0
 10
277.5603542233046
 20
403.9841443969893
 30
0.0
 10
277.0541009742802
 20
403.9132600275008
 30
0.0
 10
276.6807454503495
 20
403.8537390010148
 30
0.0
 10
276.3743734311787
 20
403.7632252466267
 30
0.0
 10
276.1672609147602
 20
403.6543807988702
 30
0.0
 10
276.0193380720104
 20
403.5104728173818
 30
0.0
 10
276.0013133923026
 20
403.412949685507
 30
0.0
 10
275.9921119734861
 20
403.3631651015246
 30
0.0
  0
SPLINE
  5
E2
330
1F
100
AcDbEntity
  8
0
100
AcDbSpline
210
0.0
220
0.0
230
1.0
 70
     8
 71
     3
 72
    24
 73
    20
 74
     0
 42
0.000000001
 43
0.00000001
 40
0.0
 40
0.0
 40
0.0
 40
0.0
 40
0.0290505969320002
 40
0.0599621968653162
 40
0.1303212586900609
 40
0.2131814991175264
 40
0.2920632473554149
 40
0.3601480858406164
 40
0.4179718301903748
 40
0.4761622354061346
 40
0.5431314723047045
 40
0.6208236222362911
 40
0.7032543464619717
 40
0.7770792175213342
 40
0.8435934145117377
 40
0.9024232732905936
 40
0.957090046622558
 40
0.9840020892470015
 40
1.0
 40
1.0
 40
1.0
 40
1.0
 10
276.6599625535533
 20
397.2135459487906
 30
0.0
 10
276.6682064098794
 20
397.2080747763451
 30
0.0
 10
276.6852222301433
 20
397.1967819440488
 30
0.0
 10
276.8085240895663
 20
397.2193209420324
 30
0.0
 10
277.0730501647737
 20
397.2614927006795
 30
0.0
 10
277.5828947160782
 20
397.3361376366973
 30
0.0
 10
278.190059077532
 20
397.4049199219829
 30
0.0
 10
278.787464711844
 20
397.4670046747642
 30
0.0
 10
279.3476897069468
 20
397.5247818477545
 30
0.0
 10
279.9098645664203
 20
397.5815491508219
 30
0.0
 10
280.5215156485206
 20
397.6416704144016
 30
0.0
 10
281.1633705667763
 20
397.713189424864
 30
0.0
 10
281.7420909000198
 20
397.7865013584588
 30
0.0
 10
282.1967269539674
 20
397.8544225871702
 30
0.0
 10
282.5115161832222
 20
397.9249247012801
 30
0.0
 10
282.721411622434
 20
397.986176779577
 30
0.0
 10
282.9037312964645
 20
398.1087380846369
 30
0.0
 10
282.9840878528406
 20
398.2504524697924
 30
0.0
 10
282.9848245948231
 20
398.3226494552392
 30
0.0
 10
282.9850992707795
 20
398.3495663087639
 30
0.0
  0
SPLINE
  5
E3
330
1F
100
AcDbEntity
  8
0
100
AcDbSpline
210
0.0
220
0.0
230
1.0
 70
     8
 71
     3
 72
    24
 73
    20
 74
     0
 42
0.000000001
 43
0.00000001
 40
0.0
 40
0.0
 40
0.0
 40
0.0
 40
0.0115239734574697
 40
0.0720201537045286
 40
0.1403635566575776
 40
0.2157710860218709
 40
0.2937127570034407
 40
0.3608694620910618
 40
0.4168839619056883
 40
0.4708333256557551
 40
0.5303320121562218
 40
0.593959888513793
 40
0.6612888115977072
 40
0.732663516388662
 40
0.808716178522279
 40
0.8512113597446159
 40
0.8977961048700754
 40
0.9478259331646214
 40
1.0
 40
1.0
 40
1.0
 40
1.0
 10
282.4148714729561
 20
398.5664413179567
 30
0.0
 10
282.4153751417164
 20
398.568035693569
 30
0.0
 10
282.4185228669052
 20
398.5779998935979
 30
0.0
 10
282.263988447799
 20
398.5238550415547
 30
0.0
 10
281.9639482959109
 20
398.4727270585501
 30
0.0
 10
281.4843865963159
 20
398.404402923003
 30
0.0
 10
280.902927541206
 20
398.3339527547081
 30
0.0
 10
280.3110473967173
 20
398.2707327422781
 30
0.0
 10
279.7628579883802
 20
398.2168946586107
 30
0.0
 10
279.2304601727614
 20
398.1627787146718
 30
0.0
 10
278.6800970415379
 20
398.1059574106446
 30
0.0
 10
278.1143022453668
 20
398.0475654283414
 30
0.0
 10
277.5603542233023
 20
397.9841443969891
 30
0.0
 10
277.0541009742765
 20
397.9132600275003
 30
0.0
 10
276.6807454503457
 20
397.8537390010142
 30
0.0
 10
276.3743734311757
 20
397.763225246626
 30
0.0
 10
276.1672609147586
 20
397.6543807988697
 30
0.0
 10
276.0193380720102
 20
397.5104728173816
 30
0.0
 10
276.0013133923025
 20
397.412949685507
 30
0.0
 10
275.9921119734861
 20
397.3631651015246
 30
0.0
  0
SPLINE
  5
E4
330
1F
100
AcDbEntity
  8
0
100
AcDbSpline
210
0.0
220
0.0
230
1.0
 70
     8
 71
     3
 72
    24
 73
    20
 74
     0
 42
0.000000001
 43
0.00000001
 40
0.0
 40
0.0
 40
0.0
 40
0.0
 40
0.0290505969320059
 40
0.0599621968653173
 40
0.1303212586900599
 40
0.2131814991175207
 40
0.2920632473554119
 40
0.3601480858406134
 40
0.4179718301903719
 40
0.4761622354061318
 40
0.5431314723047018
 40
0.6208236222362861
 40
0.7032543464619716
 40
0.77707921752133
 40
0.8435934145117367
 40
0.9024232732905935
 40
0.9570900466225557
 40
0.9840020892469943
 40
1.0
 40
1.0
 40
1.0
 40
1.0
 10
276.6599625535533
 20
393.2135459487906
 30
0.0
 10
276.6682064098794
 20
393.2080747763451
 30
0.0
 10
276.6852222301433
 20
393.1967819440488
 30
0.0
 10
276.8085240895664
 20
393.2193209420324
 30
0.0
 10
277.0730501647738
 20
393.2614927006796
 30
0.0
 10
277.5828947160782
 20
393.3361376366973
 30
0.0
 10
278.190059077532
 20
393.4049199219829
 30
0.0
 10
278.787464711844
 20
393.4670046747642
 30
0.0
 10
279.3476897069468
 20
393.5247818477546
 30
0.0
 10
279.9098645664203
 20
393.5815491508219
 30
0.0
 10
280.5215156485206
 20
393.6416704144016
 30
0.0
 10
281.1633705667763
 20
393.713189424864
 30
0.0
 10
281.7420909000198
 20
393.7865013584588
 30
0.0
 10
282.1967269539674
 20
393.8544225871702
 30
0.0
 10
282.5115161832222
 20
393.9249247012801
 30
0.0
 10
282.721411622434
 20
393.986176779577
 30
0.0
 10
282.9037312964645
 20
394.1087380846369
 30
0.0
 10
282.9840878528406
 20
394.2504524697924
 30
0.0
 10
282.9848245948231
 20
394.3226494552392
 30
0.0
 10
282.9850992707795
 20
394.3495663087639
 30
0.0
  0
SPLINE
  5
E5
330
1F
100
AcDbEntity
  8
0
100
AcDbSpline
210
0.0
220
0.0
230
1.0
 70
     8
 71
     3
 72
    24
 73
    20
 74
     0
 42
0.000000001
 43
0.00000001
 40
0.0
 40
0.0
 40
0.0
 40
0.0
 40
0.011523973457469
 40
0.0720201537045296
 40
0.1403635566575779
 40
0.2157710860218698
 40
0.2937127570034357
 40
0.360869462091053
 40
0.4168839619056829
 40
0.4708333256557463
 40
0.5303320121562117
 40
0.5939598885137655
 40
0.6612888115975947
 40
0.7326635163883858
 40
0.8087161785218598
 40
0.8512113597442069
 40
0.8977961048697338
 40
0.9478259331644192
 40
1.0
 40
1.0
 40
1.0
 40
1.0
 10
282.4148714729562
 20
394.5664413179567
 30
0.0
 10
282.4153751417164
 20
394.568035693569
 30
0.0
 10
282.4185228669052
 20
394.5779998935978
 30
0.0
 10
282.263988447799
 20
394.5238550415547
 30
0.0
 10
281.9639482959109
 20
394.47272705855
 30
0.0
 10
281.4843865963159
 20
394.404402923003
 30
0.0
 10
280.902927541206
 20
394.333952754708
 30
0.0
 10
280.3110473967173
 20
394.2707327422781
 30
0.0
 10
279.7628579883802
 20
394.2168946586107
 30
0.0
 10
279.2304601727614
 20
394.1627787146718
 30
0.0
 10
278.680097041538
 20
394.1059574106446
 30
0.0
 10
278.1143022453671
 20
394.0475654283415
 30
0.0
 10
277.5603542233033
 20
393.9841443969892
 30
0.0
 10
277.0541009742781
 20
393.9132600275005
 30
0.0
 10
276.6807454503474
 20
393.8537390010145
 30
0.0
 10
276.3743734311771
 20
393.7632252466263
 30
0.0
 10
276.1672609147593
 20
393.65438079887
 30
0.0
 10
276.0193380720103
 20
393.5104728173816
 30
0.0
 10
276.0013133923026
 20
393.412949685507
 30
0.0
 10
275.9921119734861
 20
393.3631651015246
 30
0.0
  0
SPLINE
  5
E6
330
1F
100
AcDbEntity
  8
0
100
AcDbSpline
210
0.0
220
0.0
230
1.0
 70
     8
 71
     3
 72
    24
 73
    20
 74
     0
 42
0.000000001
 43
0.00000001
 40
0.0
 40
0.0
 40
0.0
 40
0.0
 40
0.0290505969319995
 40
0.0599621968653219
 40
0.1303212586900703
 40
0.2131814991175393
 40
0.2920632473554268
 40
0.3601480858406272
 40
0.4179718301903849
 40
0.4761622354061416
 40
0.5431314723047129
 40
0.6208236222362961
 40
0.7032543464619778
 40
0.7770792175213345
 40
0.8435934145117395
 40
0.9024232732905946
 40
0.9570900466225585
 40
0.9840020892470015
 40
1.0
 40
1.0
 40
1.0
 40
1.0
 10
276.6599625535533
 20
395.2135459487906
 30
0.0
 10
276.6682064098794
 20
395.2080747763451
 30
0.0
 10
276.6852222301432
 20
395.1967819440488
 30
0.0
 10
276.8085240895663
 20
395.2193209420324
 30
0.0
 10
277.0730501647737
 20
395.2614927006795
 30
0.0
 10
277.5828947160782
 20
395.3361376366973
 30
0.0
 10
278.190059077532
 20
395.4049199219829
 30
0.0
 10
278.7874647118441
 20
395.4670046747642
 30
0.0
 10
279.3476897069468
 20
395.5247818477545
 30
0.0
 10
279.9098645664203
 20
395.5815491508219
 30
0.0
 10
280.5215156485206
 20
395.6416704144016
 30
0.0
 10
281.1633705667763
 20
395.713189424864
 30
0.0
 10
281.7420909000198
 20
395.7865013584588
 30
0.0
 10
282.1967269539674
 20
395.8544225871702
 30
0.0
 10
282.5115161832222
 20
395.9249247012801
 30
0.0
 10
282.721411622434
 20
395.986176779577
 30
0.0
 10
282.9037312964645
 20
396.1087380846369
 30
0.0
 10
282.9840878528406
 20
396.2504524697924
 30
0.0
 10
282.9848245948231
 20
396.3226494552392
 30
0.0
 10
282.9850992707795
 20
396.3495663087639
 30
0.0
  0
SPLINE
  5
E7
330
1F
100
AcDbEntity
  8
0
100
AcDbSpline
210
0.0
220
0.0
230
1.0
 70
     8
 71
     3
 72
    24
 73
    20
 74
     0
 42
0.000000001
 43
0.00000001
 40
0.0
 40
0.0
 40
0.0
 40
0.0
 40
0.0115239734574689
 40
0.0720201537045265
 40
0.1403635566575761
 40
0.2157710860218629
 40
0.2937127570034311
 40
0.3608694620910506
 40
0.4168839619056803
 40
0.470833325655746
 40
0.5303320121562066
 40
0.59395988851376
 40
0.6612888115975677
 40
0.7326635163883278
 40
0.8087161785217768
 40
0.8512113597441224
 40
0.8977961048696633
 40
0.9478259331643764
 40
1.0
 40
1.0
 40
1.0
 40
1.0
 10
282.4148714729561
 20
396.5664413179567
 30
0.0
 10
282.4153751417164
 20
396.568035693569
 30
0.0
 10
282.4185228669052
 20
396.5779998935978
 30
0.0
 10
282.263988447799
 20
396.5238550415547
 30
0.0
 10
281.9639482959109
 20
396.4727270585501
 30
0.0
 10
281.4843865963159
 20
396.404402923003
 30
0.0
 10
280.902927541206
 20
396.333952754708
 30
0.0
 10
280.3110473967173
 20
396.2707327422781
 30
0.0
 10
279.7628579883802
 20
396.2168946586107
 30
0.0
 10
279.2304601727614
 20
396.1627787146718
 30
0.0
 10
278.680097041538
 20
396.1059574106446
 30
0.0
 10
278.1143022453672
 20
396.0475654283415
 30
0.0
 10
277.5603542233035
 20
395.9841443969892
 30
0.0
 10
277.0541009742785
 20
395.9132600275005
 30
0.0
 10
276.6807454503478
 20
395.8537390010146
 30
0.0
 10
276.3743734311774
 20
395.7632252466263
 30
0.0
 10
276.1672609147595
 20
395.65438079887
 30
0.0
 10
276.0193380720103
 20
395.5104728173816
 30
0.0
 10
276.0013133923026
 20
395.412949685507
 30
0.0
 10
275.9921119734861
 20
395.3631651015246
 30
0.0
  0
SPLINE
  5
E8
330
1F
100
AcDbEntity
  8
0
100
AcDbSpline
210
0.0
220
0.0
230
1.0
 70
     8
 71
     3
 72
    24
 73
    20
 74
     0
 42
0.000000001
 43
0.00000001
 40
0.0
 40
0.0
 40
0.0
 40
0.0
 40
0.0290505969319344
 40
0.059962196865329
 40
0.1303212586901689
 40
0.2131814991176459
 40
0.2920632473555279
 40
0.3601480858407139
 40
0.4179718301904682
 40
0.4761622354062167
 40
0.5431314723047761
 40
0.6208236222363458
 40
0.7032543464620183
 40
0.7770792175213621
 40
0.8435934145117626
 40
0.9024232732906045
 40
0.9570900466225629
 40
0.9840020892469996
 40
1.0
 40
1.0
 40
1.0
 40
1.0
 10
276.6599625535529
 20
401.2135459487903
 30
0.0
 10
276.6682064098788
 20
401.2080747763449
 30
0.0
 10
276.6852222301426
 20
401.1967819440486
 30
0.0
 10
276.8085240895659
 20
401.2193209420324
 30
0.0
 10
277.0730501647734
 20
401.2614927006795
 30
0.0
 10
277.5828947160781
 20
401.3361376366973
 30
0.0
 10
278.190059077532
 20
401.4049199219829
 30
0.0
 10
278.7874647118441
 20
401.4670046747642
 30
0.0
 10
279.3476897069468
 20
401.5247818477545
 30
0.0
 10
279.9098645664203
 20
401.5815491508219
 30
0.0
 10
280.5215156485206
 20
401.6416704144016
 30
0.0
 10
281.1633705667763
 20
401.713189424864
 30
0.0
 10
281.7420909000198
 20
401.7865013584588
 30
0.0
 10
282.1967269539674
 20
401.8544225871702
 30
0.0
 10
282.5115161832221
 20
401.9249247012801
 30
0.0
 10
282.721411622434
 20
401.986176779577
 30
0.0
 10
282.9037312964645
 20
402.1087380846369
 30
0.0
 10
282.9840878528406
 20
402.2504524697924
 30
0.0
 10
282.9848245948231
 20
402.3226494552392
 30
0.0
 10
282.9850992707795
 20
402.3495663087639
 30
0.0
  0
SPLINE
  5
E9
330
1F
100
AcDbEntity
  8
0
100
AcDbSpline
210
0.0
220
0.0
230
1.0
 70
     8
 71
     3
 72
    24
 73
    20
 74
     0
 42
0.000000001
 43
0.00000001
 40
0.0
 40
0.0
 40
0.0
 40
0.0
 40
0.0115239734574699
 40
0.0720201537045245
 40
0.1403635566575756
 40
0.2157710860218615
 40
0.2937127570034287
 40
0.3608694620910474
 40
0.4168839619056741
 40
0.4708333256557367
 40
0.5303320121562013
 40
0.59395988851374
 40
0.661288811597488
 40
0.7326635163881406
 40
0.8087161785214938
 40
0.8512113597438495
 40
0.8977961048694346
 40
0.9478259331642422
 40
1.0
 40
1.0
 40
1.0
 40
1.0
 10
282.4148714729561
 20
402.5664413179567
 30
0.0
 10
282.4153751417164
 20
402.568035693569
 30
0.0
 10
282.4185228669052
 20
402.5779998935979
 30
0.0
 10
282.263988447799
 20
402.5238550415547
 30
0.0
 10
281.9639482959109
 20
402.4727270585501
 30
0.0
 10
281.4843865963159
 20
402.404402923003
 30
0.0
 10
280.902927541206
 20
402.3339527547081
 30
0.0
 10
280.3110473967173
 20
402.2707327422781
 30
0.0
 10
279.7628579883802
 20
402.2168946586107
 30
0.0
 10
279.2304601727614
 20
402.1627787146718
 30
0.0
 10
278.680097041538
 20
402.1059574106446
 30
0.0
 10
278.1143022453674
 20
402.0475654283415
 30
0.0
 10
277.5603542233043
 20
401.9841443969893
 30
0.0
 10
277.0541009742796
 20
401.9132600275007
 30
0.0
 10
276.6807454503489
 20
401.8537390010147
 30
0.0
 10
276.3743734311782
 20
401.7632252466266
 30
0.0
 10
276.1672609147599
 20
401.6543807988701
 30
0.0
 10
276.0193380720104
 20
401.5104728173817
 30
0.0
 10
276.0013133923026
 20
401.412949685507
 30
0.0
 10
275.9921119734861
 20
401.3631651015246
 30
0.0
  0
SPLINE
  5
EA
330
1F
100
AcDbEntity
  8
0
100
AcDbSpline
210
0.0
220
0.0
230
1.0
 70
     8
 71
     3
 72
    24
 73
    20
 74
     0
 42
0.000000001
 43
0.00000001
 40
0.0
 40
0.0
 40
0.0
 40
0.0
 40
0.0290505969320513
 40
0.0599621968653057
 40
0.1303212586899848
 40
0.2131814991174402
 40
0.2920632473553351
 40
0.3601480858405463
 40
0.4179718301903084
 40
0.4761622354060747
 40
0.5431314723046543
 40
0.620823622236242
 40
0.7032543464619363
 40
0.7770792175213044
 40
0.84359341451172
 40
0.9024232732905797
 40
0.957090046622548
 40
0.9840020892469916
 40
1.0
 40
1.0
 40
1.0
 40
1.0
 10
276.6599625535537
 20
399.2135459487909
 30
0.0
 10
276.6682064098798
 20
399.2080747763453
 30
0.0
 10
276.6852222301437
 20
399.196781944049
 30
0.0
 10
276.8085240895667
 20
399.2193209420325
 30
0.0
 10
277.073050164774
 20
399.2614927006796
 30
0.0
 10
277.5828947160782
 20
399.3361376366973
 30
0.0
 10
278.190059077532
 20
399.4049199219829
 30
0.0
 10
278.7874647118441
 20
399.4670046747642
 30
0.0
 10
279.3476897069468
 20
399.5247818477545
 30
0.0
 10
279.9098645664203
 20
399.5815491508219
 30
0.0
 10
280.5215156485206
 20
399.6416704144016
 30
0.0
 10
281.1633705667763
 20
399.713189424864
 30
0.0
 10
281.7420909000198
 20
399.7865013584588
 30
0.0
 10
282.1967269539674
 20
399.8544225871702
 30
0.0
 10
282.5115161832222
 20
399.9249247012801
 30
0.0
 10
282.721411622434
 20
399.986176779577
 30
0.0
 10
282.9037312964645
 20
400.1087380846369
 30
0.0
 10
282.9840878528406
 20
400.2504524697924
 30
0.0
 10
282.9848245948231
 20
400.3226494552393
 30
0.0
 10
282.9850992707795
 20
400.349566308764
 30
0.0
  0
SPLINE
  5
EB
330
1F
100
AcDbEntity
  8
0
100
AcDbSpline
210
0.0
220
0.0
230
1.0
 70
     8
 71
     3
 72
    24
 73
    20
 74
     0
 42
0.000000001
 43
0.00000001
 40
0.0
 40
0.0
 40
0.0
 40
0.0
 40
0.0115239734574691
 40
0.0720201537045249
 40
0.1403635566575751
 40
0.2157710860218648
 40
0.2937127570034312
 40
0.3608694620910512
 40
0.4168839619056814
 40
0.4708333256557474
 40
0.5303320121562108
 40
0.5939598885137671
 40
0.6612888115976017
 40
0.73266351638841
 40
0.8087161785219004
 40
0.8512113597442433
 40
0.8977961048697608
 40
0.9478259331644342
 40
1.0
 40
1.0
 40
1.0
 40
1.0
 10
282.4148714729561
 20
400.5664413179567
 30
0.0
 10
282.4153751417164
 20
400.568035693569
 30
0.0
 10
282.4185228669052
 20
400.5779998935978
 30
0.0
 10
282.263988447799
 20
400.5238550415547
 30
0.0
 10
281.9639482959109
 20
400.4727270585501
 30
0.0
 10
281.4843865963159
 20
400.404402923003
 30
0.0
 10
280.902927541206
 20
400.3339527547081
 30
0.0
 10
280.3110473967173
 20
400.2707327422781
 30
0.0
 10
279.7628579883802
 20
400.2168946586107
 30
0.0
 10
279.2304601727614
 20
400.1627787146718
 30
0.0
 10
278.680097041538
 20
400.1059574106446
 30
0.0
 10
278.1143022453671
 20
400.0475654283415
 30
0.0
 10
277.5603542233032
 20
399.9841443969892
 30
0.0
 10
277.054100974278
 20
399.9132600275005
 30
0.0
 10
276.6807454503473
 20
399.8537390010144
 30
0.0
 10
276.374373431177
 20
399.7632252466262
 30
0.0
 10
276.1672609147593
 20
399.6543807988699
 30
0.0
 10
276.0193380720103
 20
399.5104728173816
 30
0.0
 10
276.0013133923026
 20
399.412949685507
 30
0.0
 10
275.9921119734861
 20
399.3631651015246
 30
0.0
  0
SPLINE
  5
EC
330
1F
100
AcDbEntity
  8
0
100
AcDbSpline
210
0.0
220
0.0
230
1.0
 70
     8
 71
     3
 72
    24
 73
    20
 74
     0
 42
0.000000001
 43
0.00000001
 40
0.0
 40
0.0
 40
0.0
 40
0.0
 40
0.0290505969318785
 40
0.0599621968653414
 40
0.1303212586902633
 40
0.2131814991177541
 40
0.2920632473556175
 40
0.3601480858407989
 40
0.4179718301905404
 40
0.4761622354062857
 40
0.5431314723048409
 40
0.6208236222363975
 40
0.703254346462059
 40
0.7770792175213951
 40
0.8435934145117893
 40
0.9024232732906257
 40
0.9570900466225616
 40
0.9840020892469945
 40
1.0
 40
1.0
 40
1.0
 40
1.0
 10
276.6599625535524
 20
405.2135459487901
 30
0.0
 10
276.6682064098783
 20
405.2080747763447
 30
0.0
 10
276.685222230142
 20
405.1967819440484
 30
0.0
 10
276.8085240895654
 20
405.2193209420323
 30
0.0
 10
277.0730501647731
 20
405.2614927006794
 30
0.0
 10
277.582894716078
 20
405.3361376366973
 30
0.0
 10
278.190059077532
 20
405.4049199219829
 30
0.0
 10
278.787464711844
 20
405.4670046747642
 30
0.0
 10
279.3476897069468
 20
405.5247818477545
 30
0.0
 10
279.9098645664203
 20
405.5815491508218
 30
0.0
 10
280.5215156485206
 20
405.6416704144016
 30
0.0
 10
281.1633705667763
 20
405.713189424864
 30
0.0
 10
281.7420909000199
 20
405.7865013584588
 30
0.0
 10
282.1967269539674
 20
405.8544225871702
 30
0.0
 10
282.5115161832222
 20
405.9249247012802
 30
0.0
 10
282.721411622434
 20
405.986176779577
 30
0.0
 10
282.9037312964645
 20
406.1087380846369
 30
0.0
 10
282.9840878528406
 20
406.2504524697924
 30
0.0
 10
282.9848245948231
 20
406.3226494552392
 30
0.0
 10
282.9850992707795
 20
406.349566308764
 30
0.0
  0
SPLINE
  5
ED
330
1F
100
AcDbEntity
  8
0
100
AcDbSpline
210
0.0
220
0.0
230
1.0
 70
     8
 71
     3
 72
    24
 73
    20
 74
     0
 42
0.000000001
 43
0.00000001
 40
0.0
 40
0.0
 40
0.0
 40
0.0
 40
0.0115239734574631
 40
0.0720201537045224
 40
0.1403635566575743
 40
0.2157710860218659
 40
0.2937127570034296
 40
0.3608694620910514
 40
0.4168839619056853
 40
0.4708333256557503
 40
0.5303320121562154
 40
0.5939598885137896
 40
0.6612888115977281
 40
0.7326635163887171
 40
0.8087161785223574
 40
0.8512113597447014
 40
0.8977961048701383
 40
0.9478259331646662
 40
1.0
 40
1.0
 40
1.0
 40
1.0
 10
282.4148714729561
 20
406.5664413179567
 30
0.0
 10
282.4153751417164
 20
406.568035693569
 30
0.0
 10
282.4185228669052
 20
406.5779998935978
 30
0.0
 10
282.263988447799
 20
406.5238550415547
 30
0.0
 10
281.9639482959109
 20
406.4727270585501
 30
0.0
 10
281.4843865963159
 20
406.404402923003
 30
0.0
 10
280.9029275412061
 20
406.3339527547082
 30
0.0
 10
280.3110473967174
 20
406.2707327422781
 30
0.0
 10
279.7628579883802
 20
406.2168946586107
 30
0.0
 10
279.2304601727614
 20
406.1627787146718
 30
0.0
 10
278.680097041538
 20
406.1059574106446
 30
0.0
 10
278.1143022453667
 20
406.0475654283415
 30
0.0
 10
277.5603542233022
 20
405.9841443969891
 30
0.0
 10
277.0541009742761
 20
405.9132600275001
 30
0.0
 10
276.6807454503454
 20
405.8537390010141
 30
0.0
 10
276.3743734311756
 20
405.7632252466259
 30
0.0
 10
276.1672609147584
 20
405.6543807988696
 30
0.0
 10
276.0193380720102
 20
405.5104728173816
 30
0.0
 10
276.0013133923025
 20
405.4129496855069
 30
0.0
 10
275.9921119734861
 20
405.3631651015247
 30
0.0
  0
LINE
  5
EE
330
1F
100
AcDbEntity
  8
0
100
AcDbLine
 10
287.5421119735
 20
489.3106409573
 30
0.0
 11
287.5421119735
 21
482.3106409573
 31
0.0
  0
LINE
  5
EF
330
1F
100
AcDbEntity
  8
0
100
AcDbLine
 10
271.4421119735
 20
482.3106409573
 30
0.0
 11
271.4421119735
 21
489.3106409573
 31
0.0
  0
LINE
  5
F0
330
1F
100
AcDbEntity
  8
0
100
AcDbLine
 10
287.3921119735
 20
493.8106409573
 30
0.0
 11
287.3921119735
 21
489.3106409573
 31
0.0
  0
LINE
  5
F1
330
1F
100
AcDbEntity
  8
0
100
AcDbLine
 10
271.5921119735
 20
489.3106409573
 30
0.0
 11
271.5921119735
 21
493.8106409573
 31
0.0
  0
LINE
  5
F2
330
1F
100
AcDbEntity
  8
0
100
AcDbLine
 10
271.5921119735
 20
493.8106409573
 30
0.0
 11
272.0921119735
 21
494.3106409573
 31
0.0
  0
LINE
  5
F3
330
1F
100
AcDbEntity
  8
0
100
AcDbLine
 10
286.8921119735
 20
494.3106409573
 30
0.0
 11
287.3921119735
 21
493.8106409573
 31
0.0
  0
LINE
  5
F4
330
1F
100
AcDbEntity
  8
0
100
AcDbLine
 10
285.6421119735
 20
482.3106409573
 30
0.0
 11
285.6421119735
 21
494.3106409573
 31
0.0
  0
LINE
  5
F5
330
1F
100
AcDbEntity
  8
0
100
AcDbLine
 10
273.3421119735
 20
494.3106409573
 30
0.0
 11
273.3421119735
 21
482.3106409573
 31
0.0
  0
LINE
  5
F6
330
1F
100
AcDbEntity
  8
0
100
AcDbLine
 10
285.6421119735
 20
494.3106409573
 30
0.0
 11
285.0995195093
 21
494.3106409573
 31
0.0
  0
LINE
  5
F7
330
1F
100
AcDbEntity
  8
0
100
AcDbLine
 10
273.8847044376
 20
494.3106409573
 30
0.0
 11
273.3421119735
 21
494.3106409573
 31
0.0
  0
LINE
  5
F8
330
1F
100
AcDbEntity
  8
0
100
AcDbLine
 10
285.6421119735
 20
482.3106409573
 30
0.0
 11
285.4921119735
 21
482.3106409573
 31
0.0
  0
LINE
  5
F9
330
1F
100
AcDbEntity
  8
0
100
AcDbLine
 10
273.4921119735
 20
482.3106409573
 30
0.0
 11
273.3421119735
 21
482.3106409573
 31
0.0
  0
LINE
  5
FA
330
1F
100
AcDbEntity
  8
0
100
AcDbLine
 10
272.0921119735
 20
494.3106409573
 30
0.0
 11
273.3421119735
 21
494.3106409573
 31
0.0
  0
LINE
  5
FB
330
1F
100
AcDbEntity
  8
0
100
AcDbLine
 10
273.3421119735
 20
482.3106409573
 30
0.0
 11
271.4421119735
 21
482.3106409573
 31
0.0
  0
LINE
  5
FC
330
1F
100
AcDbEntity
  8
0
100
AcDbLine
 10
271.4421119735
 20
489.3106409573
 30
0.0
 11
271.5921119735
 21
489.3106409573
 31
0.0
  0
LINE
  5
FD
330
1F
100
AcDbEntity
  8
0
100
AcDbLine
 10
285.6421119735
 20
494.3106409573
 30
0.0
 11
286.8921119735
 21
494.3106409573
 31
0.0
  0
LINE
  5
FE
330
1F
100
AcDbEntity
  8
0
100
AcDbLine
 10
287.5421119735
 20
482.3106409573
 30
0.0
 11
285.6421119735
 21
482.3106409573
 31
0.0
  0
LINE
  5
FF
330
1F
100
AcDbEntity
  8
0
100
AcDbLine
 10
287.3921119735
 20
489.3106409573
 30
0.0
 11
287.5421119735
 21
489.3106409573
 31
0.0
  0
SPLINE
  5
100
330
1F
100
AcDbEntity
  8
0
100
AcDbSpline
210
0.0
220
0.0
230
1.0
 70
     8
 71
     3
 72
    23
 73
    19
 74
     0
 42
0.000000001
 43
0.00000001
 40
0.0
 40
0.0
 40
0.0
 40
0.0
 40
0.0036538985626542
 40
0.0748698806732839
 40
0.1460858627838736
 40
0.2173018448945396
 40
0.2885178270051653
 40
0.3597338091157515
 40
0.4309497912264211
 40
0.5021657733370483
 40
0.5733817554476779
 40
0.644597737558306
 40
0.7158137196689328
 40
0.787029701779551
 40
0.8316026455566602
 40
0.9028186276672866
 40
0.9740346097779156
 40
1.0
 40
1.0
 40
1.0
 40
1.0
 10
276.5441849326116
 20
385.1306508627476
 30
0.0
 10
276.5455126769266
 20
385.1319621659273
 30
0.0
 10
276.5727187026907
 20
385.1588313060808
 30
0.0
 10
276.6164353795765
 20
385.2213775018413
 30
0.0
 10
276.6464963790195
 20
385.3283384791218
 30
0.0
 10
276.6394559258381
 20
385.4393591095369
 30
0.0
 10
276.5960644860049
 20
385.5417537661098
 30
0.0
 10
276.5212257309747
 20
385.6240233995491
 30
0.0
 10
276.4233739913018
 20
385.6768809398519
 30
0.0
 10
276.3135423780505
 20
385.6943691004585
 30
0.0
 10
276.2041124650412
 20
385.6745200162523
 30
0.0
 10
276.1074250048307
 20
385.6195543514393
 30
0.0
 10
276.0343684426319
 20
385.5357339533116
 30
0.0
 10
275.9983560882002
 20
385.4451694985775
 30
0.0
 10
275.9882307582007
 20
385.3495691479093
 30
0.0
 10
276.0046835467342
 20
385.2537022359664
 30
0.0
 10
276.0466877374739
 20
385.1762938743427
 30
0.0
 10
276.0808984344746
 20
385.1402746529504
 30
0.0
 10
276.0900390143622
 20
385.1306508627476
 30
0.0
  0
SPLINE
  5
101
330
1F
100
AcDbEntity
  8
0
100
AcDbSpline
210
0.0
220
0.0
230
1.0
 70
    11
 71
     3
 72
    26
 73
    22
 74
     0
 42
0.000000001
 43
0.00000001
 40
0.0
 40
0.0
 40
0.0
 40
0.0
 40
0.0536887269338485
 40
0.1073774538676967
 40
0.1610661808015466
 40
0.2147549077348158
 40
0.2684436346690879
 40
0.3221323616030958
 40
0.3758210885369435
 40
0.4295098154707943
 40
0.4831985424046157
 40
0.5368872693384941
 40
0.5905759962723414
 40
0.6442647232061615
 40
0.6979534501400418
 40
0.7516421770738918
 40
0.8053309040077414
 40
0.8590196309415911
 40
0.9127083578754408
 40
0.9663970848092813
 40
1.0
 40
1.0
 40
1.0
 40
1.0
 10
282.9921119734861
 20
386.3631651015247
 30
0.0
 10
282.9885186441242
 20
386.3997107479468
 30
0.0
 10
282.9813319854004
 20
386.4728020407912
 30
0.0
 10
282.9253080719444
 20
386.570078246835
 30
0.0
 10
282.8428052328705
 20
386.6440265653377
 30
0.0
 10
282.7397894107141
 20
386.6863098843451
 30
0.0
 10
282.6287686363691
 20
386.6921610803818
 30
0.0
 10
282.5220201730919
 20
386.6609204755099
 30
0.0
 10
282.4316432694465
 20
386.5961102108346
 30
0.0
 10
282.3678100462271
 20
386.5050371524756
 30
0.0
 10
282.3377218040875
 20
386.397969095365
 30
0.0
 10
282.3447695977636
 20
386.2869771564943
 30
0.0
 10
282.3881589183146
 20
386.1845748135738
 30
0.0
 10
282.4629988099793
 20
386.1023072339808
 30
0.0
 10
282.5608481223962
 20
386.0494491646407
 30
0.0
 10
282.6706883080369
 20
386.0319610663367
 30
0.0
 10
282.7800863587447
 20
386.0518104303695
 30
0.0
 10
282.8768926957717
 20
386.1067749135735
 30
0.0
 10
282.949505613006
 20
386.1905997583108
 30
0.0
 10
282.9869671954798
 20
386.2811496789264
 30
0.0
 10
282.9906819708222
 20
386.3403687296192
 30
0.0
 10
282.9921119734861
 20
386.3631651015247
 30
0.0
  0
SPLINE
  5
102
330
1F
100
AcDbEntity
  8
0
100
AcDbSpline
210
0.0
220
0.0
230
1.0
 70
    11
 71
     3
 72
    26
 73
    22
 74
     0
 42
0.000000001
 43
0.00000001
 40
0.0
 40
0.0
 40
0.0
 40
0.0
 40
0.0536887269338481
 40
0.1073774538677004
 40
0.1610661808015507
 40
0.2147549077348191
 40
0.2684436346690883
 40
0.3221323616030958
 40
0.3758210885369442
 40
0.429509815470791
 40
0.4831985424046157
 40
0.5368872693384937
 40
0.5905759962723468
 40
0.6442647232061623
 40
0.6979534501400414
 40
0.7516421770738917
 40
0.8053309040077428
 40
0.8590196309415917
 40
0.9127083578754436
 40
0.9663970848092831
 40
1.0
 40
1.0
 40
1.0
 40
1.0
 10
275.9921119734861
 20
407.3631651015247
 30
0.0
 10
275.995705302848
 20
407.3266194551024
 30
0.0
 10
276.0028919615718
 20
407.2535281622581
 30
0.0
 10
276.0589158750278
 20
407.1562519562142
 30
0.0
 10
276.1414187141017
 20
407.0823036377115
 30
0.0
 10
276.2444345362582
 20
407.0400203187043
 30
0.0
 10
276.3554553106031
 20
407.0341691226674
 30
0.0
 10
276.4622037738804
 20
407.0654097275394
 30
0.0
 10
276.5525806775257
 20
407.1302199922147
 30
0.0
 10
276.6164139007451
 20
407.2212930505738
 30
0.0
 10
276.6465021428847
 20
407.3283611076842
 30
0.0
 10
276.6394543492086
 20
407.4393530465549
 30
0.0
 10
276.5960650286577
 20
407.5417553894754
 30
0.0
 10
276.5212251369929
 20
407.6240229690684
 30
0.0
 10
276.4233758245761
 20
407.6768810384085
 30
0.0
 10
276.3135356389353
 20
407.6943691367125
 30
0.0
 10
276.2041375882276
 20
407.6745197726797
 30
0.0
 10
276.1073312512005
 20
407.6195552894757
 30
0.0
 10
276.0347183339663
 20
407.5357304447384
 30
0.0
 10
275.9972567514924
 20
407.4451805241228
 30
0.0
 10
275.9935419761501
 20
407.38596147343
 30
0.0
 10
275.9921119734861
 20
407.3631651015247
 30
0.0
  0
SPLINE
  5
103
330
1F
100
AcDbEntity
  8
0
100
AcDbSpline
210
0.0
220
0.0
230
1.0
 70
    24
 71
     3
 72
    19
 73
    15
 74
     0
 42
0.000000001
 43
0.00000001
 40
0.0
 40
0.0
 40
0.0
 40
0.0
 40
0.000054614691146
 40
0.0022637922198493
 40
0.0061074708973193
 40
0.0167379093716957
 40
0.0639223671677747
 40
0.2514053963841106
 40
0.4404286838998739
 40
0.5493425260529808
 40
0.6617289660015042
 40
0.765802264045784
 40
0.8727602144374349
 40
1.0
 40
1.0
 40
1.0
 40
1.0
 10
278.9208878616233
 20
408.1306508627475
 30
0.0
 10
278.9209054249978
 20
408.1306508627475
 30
0.0
 10
278.921633431143
 20
408.1306508627474
 30
0.0
 10
278.928049912362
 20
408.1306508627466
 30
0.0
 10
278.9490207706743
 20
408.1306508627486
 30
0.0
 10
279.0502458984584
 20
408.1306508627457
 30
0.0
 10
279.4658295609956
 20
408.130650862751
 30
0.0
 10
280.1856336487963
 20
408.1306508627463
 30
0.0
 10
280.9437613994818
 20
408.1306508627479
 30
0.0
 10
281.4879068728436
 20
408.1306508627476
 30
0.0
 10
281.85081767354
 20
408.1306508627477
 30
0.0
 10
282.1311564397096
 20
408.1306508627476
 30
0.0
 10
282.3448588046479
 20
408.1306508627477
 30
0.0
 10
282.4065319522747
 20
408.1306508627477
 30
0.0
 10
282.4400390143607
 20
408.1306508627477
 30
0.0
  0
SPLINE
  5
104
330
1F
100
AcDbEntity
  8
0
100
AcDbSpline
210
0.0
220
0.0
230
1.0
 70
     8
 71
     3
 72
    13
 73
     9
 74
     0
 42
0.000000001
 43
0.00000001
 40
0.0
 40
0.0
 40
0.0
 40
0.0
 40
0.0711026308780355
 40
0.2890447798604102
 40
0.5069869288426426
 40
0.7249290778248656
 40
0.9428712268071053
 40
1.0
 40
1.0
 40
1.0
 40
1.0
 10
282.4400390143607
 20
408.1306508627477
 30
0.0
 10
282.4488091991289
 20
408.1226465880245
 30
0.0
 10
282.4844615525557
 20
408.0901077944984
 30
0.0
 10
282.561029568189
 20
408.0495792104004
 30
0.0
 10
282.6706763116596
 20
408.0319019575095
 30
0.0
 10
282.7799528984611
 20
408.0519168199187
 30
0.0
 10
282.8534612315087
 20
408.0930058474839
 30
0.0
 10
282.8871816297298
 20
408.1241770050987
 30
0.0
 10
282.8941849326116
 20
408.1306508627477
 30
0.0
  0
SPLINE
  5
105
330
1F
100
AcDbEntity
  8
0
100
AcDbSpline
210
0.0
220
0.0
230
1.0
 70
    11
 71
     3
 72
    26
 73
    22
 74
     0
 42
0.000000001
 43
0.00000001
 40
0.0
 40
0.0
 40
0.0
 40
0.0
 40
0.0536887269338483
 40
0.107377453867697
 40
0.1610661808015482
 40
0.2147549077348151
 40
0.2684436346690874
 40
0.3221323616030947
 40
0.375821088536945
 40
0.4295098154707944
 40
0.4831985424046147
 40
0.5368872693384913
 40
0.5905759962723415
 40
0.6442647232061606
 40
0.69795345014004
 40
0.7516421770738918
 40
0.8053309040077409
 40
0.8590196309415901
 40
0.9127083578754414
 40
0.9663970848092813
 40
1.0
 40
1.0
 40
1.0
 40
1.0
 10
275.9921119734861
 20
391.3631651015247
 30
0.0
 10
275.995705302848
 20
391.3266194551024
 30
0.0
 10
276.0028919615718
 20
391.2535281622581
 30
0.0
 10
276.0589158750278
 20
391.1562519562143
 30
0.0
 10
276.1414187141017
 20
391.0823036377116
 30
0.0
 10
276.2444345362582
 20
391.0400203187042
 30
0.0
 10
276.3554553106031
 20
391.0341691226674
 30
0.0
 10
276.4622037738804
 20
391.0654097275394
 30
0.0
 10
276.5525806775257
 20
391.1302199922147
 30
0.0
 10
276.6164139007451
 20
391.2212930505738
 30
0.0
 10
276.6465021428847
 20
391.3283611076843
 30
0.0
 10
276.6394543492086
 20
391.4393530465549
 30
0.0
 10
276.5960650286577
 20
391.5417553894754
 30
0.0
 10
276.5212251369929
 20
391.6240229690685
 30
0.0
 10
276.4233758245761
 20
391.6768810384085
 30
0.0
 10
276.3135356389353
 20
391.6943691367125
 30
0.0
 10
276.2041375882276
 20
391.6745197726797
 30
0.0
 10
276.1073312512005
 20
391.6195552894757
 30
0.0
 10
276.0347183339663
 20
391.5357304447384
 30
0.0
 10
275.9972567514924
 20
391.4451805241229
 30
0.0
 10
275.9935419761501
 20
391.38596147343
 30
0.0
 10
275.9921119734861
 20
391.3631651015247
 30
0.0
  0
SPLINE
  5
106
330
1F
100
AcDbEntity
  8
0
100
AcDbSpline
210
0.0
220
0.0
230
1.0
 70
    11
 71
     3
 72
    26
 73
    22
 74
     0
 42
0.000000001
 43
0.00000001
 40
0.0
 40
0.0
 40
0.0
 40
0.0
 40
0.0536887269338501
 40
0.1073774538676997
 40
0.1610661808015489
 40
0.2147549077348175
 40
0.2684436346690895
 40
0.3221323616030969
 40
0.3758210885369481
 40
0.4295098154707968
 40
0.4831985424046168
 40
0.5368872693384961
 40
0.5905759962723427
 40
0.6442647232061627
 40
0.6979534501400443
 40
0.7516421770738927
 40
0.8053309040077423
 40
0.8590196309415928
 40
0.912708357875442
 40
0.9663970848092822
 40
1.0
 40
1.0
 40
1.0
 40
1.0
 10
282.9921119734861
 20
392.3631651015247
 30
0.0
 10
282.9885186441242
 20
392.3997107479468
 30
0.0
 10
282.9813319854004
 20
392.4728020407912
 30
0.0
 10
282.9253080719444
 20
392.570078246835
 30
0.0
 10
282.8428052328705
 20
392.6440265653377
 30
0.0
 10
282.7397894107141
 20
392.6863098843451
 30
0.0
 10
282.6287686363691
 20
392.6921610803819
 30
0.0
 10
282.5220201730919
 20
392.6609204755099
 30
0.0
 10
282.4316432694465
 20
392.5961102108346
 30
0.0
 10
282.3678100462271
 20
392.5050371524756
 30
0.0
 10
282.3377218040875
 20
392.397969095365
 30
0.0
 10
282.3447695977636
 20
392.2869771564943
 30
0.0
 10
282.3881589183146
 20
392.1845748135738
 30
0.0
 10
282.4629988099793
 20
392.1023072339808
 30
0.0
 10
282.5608481223962
 20
392.0494491646407
 30
0.0
 10
282.6706883080369
 20
392.0319610663367
 30
0.0
 10
282.7800863587447
 20
392.0518104303695
 30
0.0
 10
282.8768926957717
 20
392.1067749135735
 30
0.0
 10
282.949505613006
 20
392.1905997583108
 30
0.0
 10
282.9869671954798
 20
392.2811496789264
 30
0.0
 10
282.9906819708222
 20
392.3403687296192
 30
0.0
 10
282.9921119734861
 20
392.3631651015247
 30
0.0
  0
SPLINE
  5
107
330
1F
100
AcDbEntity
  8
0
100
AcDbSpline
210
0.0
220
0.0
230
1.0
 70
    11
 71
     3
 72
    26
 73
    22
 74
     0
 42
0.000000001
 43
0.00000001
 40
0.0
 40
0.0
 40
0.0
 40
0.0
 40
0.0536887269338482
 40
0.1073774538676978
 40
0.1610661808015491
 40
0.2147549077348176
 40
0.2684436346690895
 40
0.3221323616030967
 40
0.3758210885369468
 40
0.4295098154707962
 40
0.4831985424046172
 40
0.5368872693384947
 40
0.5905759962723433
 40
0.6442647232061617
 40
0.697953450140042
 40
0.7516421770738921
 40
0.8053309040077422
 40
0.8590196309415931
 40
0.912708357875441
 40
0.966397084809283
 40
1.0
 40
1.0
 40
1.0
 40
1.0
 10
275.9921119734861
 20
389.3631651015247
 30
0.0
 10
275.995705302848
 20
389.3266194551024
 30
0.0
 10
276.0028919615718
 20
389.2535281622581
 30
0.0
 10
276.0589158750278
 20
389.1562519562143
 30
0.0
 10
276.1414187141017
 20
389.0823036377116
 30
0.0
 10
276.2444345362582
 20
389.0400203187042
 30
0.0
 10
276.3554553106031
 20
389.0341691226674
 30
0.0
 10
276.4622037738804
 20
389.0654097275394
 30
0.0
 10
276.5525806775257
 20
389.1302199922147
 30
0.0
 10
276.6164139007451
 20
389.2212930505738
 30
0.0
 10
276.6465021428847
 20
389.3283611076843
 30
0.0
 10
276.6394543492086
 20
389.4393530465549
 30
0.0
 10
276.5960650286577
 20
389.5417553894754
 30
0.0
 10
276.5212251369929
 20
389.6240229690685
 30
0.0
 10
276.4233758245761
 20
389.6768810384085
 30
0.0
 10
276.3135356389353
 20
389.6943691367125
 30
0.0
 10
276.2041375882276
 20
389.6745197726797
 30
0.0
 10
276.1073312512005
 20
389.6195552894757
 30
0.0
 10
276.0347183339663
 20
389.5357304447384
 30
0.0
 10
275.9972567514924
 20
389.4451805241229
 30
0.0
 10
275.9935419761501
 20
389.38596147343
 30
0.0
 10
275.9921119734861
 20
389.3631651015247
 30
0.0
  0
SPLINE
  5
108
330
1F
100
AcDbEntity
  8
0
100
AcDbSpline
210
0.0
220
0.0
230
1.0
 70
    11
 71
     3
 72
    26
 73
    22
 74
     0
 42
0.000000001
 43
0.00000001
 40
0.0
 40
0.0
 40
0.0
 40
0.0
 40
0.0536887269338484
 40
0.1073774538676965
 40
0.1610661808015482
 40
0.2147549077348169
 40
0.26844363466909
 40
0.3221323616030974
 40
0.375821088536948
 40
0.4295098154707965
 40
0.4831985424046175
 40
0.5368872693384993
 40
0.5905759962723444
 40
0.6442647232061638
 40
0.697953450140045
 40
0.7516421770738936
 40
0.8053309040077433
 40
0.8590196309415935
 40
0.9127083578754446
 40
0.9663970848092831
 40
1.0
 40
1.0
 40
1.0
 40
1.0
 10
282.9921119734861
 20
390.3631651015247
 30
0.0
 10
282.9885186441242
 20
390.3997107479468
 30
0.0
 10
282.9813319854004
 20
390.4728020407912
 30
0.0
 10
282.9253080719444
 20
390.570078246835
 30
0.0
 10
282.8428052328705
 20
390.6440265653377
 30
0.0
 10
282.7397894107141
 20
390.6863098843451
 30
0.0
 10
282.6287686363691
 20
390.6921610803818
 30
0.0
 10
282.5220201730919
 20
390.6609204755099
 30
0.0
 10
282.4316432694465
 20
390.5961102108346
 30
0.0
 10
282.3678100462271
 20
390.5050371524756
 30
0.0
 10
282.3377218040875
 20
390.397969095365
 30
0.0
 10
282.3447695977636
 20
390.2869771564943
 30
0.0
 10
282.3881589183146
 20
390.1845748135738
 30
0.0
 10
282.4629988099793
 20
390.1023072339808
 30
0.0
 10
282.5608481223962
 20
390.0494491646407
 30
0.0
 10
282.6706883080369
 20
390.0319610663367
 30
0.0
 10
282.7800863587447
 20
390.0518104303695
 30
0.0
 10
282.8768926957717
 20
390.1067749135735
 30
0.0
 10
282.949505613006
 20
390.1905997583108
 30
0.0
 10
282.9869671954798
 20
390.2811496789264
 30
0.0
 10
282.9906819708222
 20
390.3403687296192
 30
0.0
 10
282.9921119734861
 20
390.3631651015247
 30
0.0
  0
SPLINE
  5
109
330
1F
100
AcDbEntity
  8
0
100
AcDbSpline
210
0.0
220
0.0
230
1.0
 70
    11
 71
     3
 72
    26
 73
    22
 74
     0
 42
0.000000001
 43
0.00000001
 40
0.0
 40
0.0
 40
0.0
 40
0.0
 40
0.0536887269338501
 40
0.1073774538677008
 40
0.1610661808015491
 40
0.2147549077348187
 40
0.26844363466909
 40
0.3221323616030978
 40
0.375821088536948
 40
0.4295098154707974
 40
0.4831985424046181
 40
0.5368872693384964
 40
0.5905759962723444
 40
0.644264723206162
 40
0.697953450140044
 40
0.7516421770738926
 40
0.8053309040077433
 40
0.8590196309415928
 40
0.9127083578754426
 40
0.9663970848092831
 40
1.0
 40
1.0
 40
1.0
 40
1.0
 10
275.9921119734861
 20
387.3631651015247
 30
0.0
 10
275.995705302848
 20
387.3266194551024
 30
0.0
 10
276.0028919615718
 20
387.2535281622581
 30
0.0
 10
276.0589158750278
 20
387.1562519562143
 30
0.0
 10
276.1414187141017
 20
387.0823036377116
 30
0.0
 10
276.2444345362582
 20
387.0400203187042
 30
0.0
 10
276.3554553106031
 20
387.0341691226674
 30
0.0
 10
276.4622037738804
 20
387.0654097275394
 30
0.0
 10
276.5525806775257
 20
387.1302199922147
 30
0.0
 10
276.6164139007451
 20
387.2212930505737
 30
0.0
 10
276.6465021428847
 20
387.3283611076843
 30
0.0
 10
276.6394543492086
 20
387.4393530465549
 30
0.0
 10
276.5960650286577
 20
387.5417553894754
 30
0.0
 10
276.5212251369929
 20
387.6240229690685
 30
0.0
 10
276.4233758245761
 20
387.6768810384085
 30
0.0
 10
276.3135356389353
 20
387.6943691367125
 30
0.0
 10
276.2041375882276
 20
387.6745197726797
 30
0.0
 10
276.1073312512005
 20
387.6195552894757
 30
0.0
 10
276.0347183339663
 20
387.5357304447384
 30
0.0
 10
275.9972567514924
 20
387.4451805241229
 30
0.0
 10
275.9935419761501
 20
387.38596147343
 30
0.0
 10
275.9921119734861
 20
387.3631651015247
 30
0.0
  0
SPLINE
  5
10A
330
1F
100
AcDbEntity
  8
0
100
AcDbSpline
210
0.0
220
0.0
230
1.0
 70
    11
 71
     3
 72
    26
 73
    22
 74
     0
 42
0.000000001
 43
0.00000001
 40
0.0
 40
0.0
 40
0.0
 40
0.0
 40
0.0536887269338484
 40
0.1073774538676968
 40
0.1610661808015467
 40
0.2147549077348156
 40
0.2684436346690887
 40
0.3221323616030962
 40
0.3758210885369465
 40
0.4295098154707961
 40
0.4831985424046164
 40
0.5368872693384931
 40
0.5905759962723423
 40
0.6442647232061642
 40
0.6979534501400425
 40
0.7516421770738921
 40
0.8053309040077414
 40
0.8590196309415912
 40
0.9127083578754409
 40
0.9663970848092812
 40
1.0
 40
1.0
 40
1.0
 40
1.0
 10
282.9921119734861
 20
388.3631651015247
 30
0.0
 10
282.9885186441242
 20
388.3997107479468
 30
0.0
 10
282.9813319854004
 20
388.4728020407912
 30
0.0
 10
282.9253080719444
 20
388.570078246835
 30
0.0
 10
282.8428052328705
 20
388.6440265653377
 30
0.0
 10
282.7397894107141
 20
388.6863098843451
 30
0.0
 10
282.6287686363691
 20
388.6921610803818
 30
0.0
 10
282.5220201730919
 20
388.6609204755099
 30
0.0
 10
282.4316432694465
 20
388.5961102108346
 30
0.0
 10
282.3678100462271
 20
388.5050371524756
 30
0.0
 10
282.3377218040875
 20
388.397969095365
 30
0.0
 10
282.3447695977636
 20
388.2869771564943
 30
0.0
 10
282.3881589183146
 20
388.1845748135738
 30
0.0
 10
282.4629988099793
 20
388.1023072339808
 30
0.0
 10
282.5608481223962
 20
388.0494491646407
 30
0.0
 10
282.6706883080369
 20
388.0319610663367
 30
0.0
 10
282.7800863587447
 20
388.0518104303695
 30
0.0
 10
282.8768926957717
 20
388.1067749135735
 30
0.0
 10
282.949505613006
 20
388.1905997583108
 30
0.0
 10
282.9869671954798
 20
388.2811496789264
 30
0.0
 10
282.9906819708222
 20
388.3403687296192
 30
0.0
 10
282.9921119734861
 20
388.3631651015247
 30
0.0
  0
SPLINE
  5
10B
330
1F
100
AcDbEntity
  8
0
100
AcDbSpline
210
0.0
220
0.0
230
1.0
 70
    11
 71
     3
 72
    26
 73
    22
 74
     0
 42
0.000000001
 43
0.00000001
 40
0.0
 40
0.0
 40
0.0
 40
0.0
 40
0.0536887269338485
 40
0.1073774538676972
 40
0.1610661808015437
 40
0.2147549077348164
 40
0.268443634669089
 40
0.3221323616030966
 40
0.3758210885369476
 40
0.4295098154707979
 40
0.4831985424046207
 40
0.5368872693384991
 40
0.5905759962723439
 40
0.6442647232061639
 40
0.697953450140042
 40
0.751642177073894
 40
0.8053309040077434
 40
0.8590196309415931
 40
0.9127083578754467
 40
0.9663970848092881
 40
1.0
 40
1.0
 40
1.0
 40
1.0
 10
275.9921119734861
 20
403.3631651015247
 30
0.0
 10
275.995705302848
 20
403.3266194551024
 30
0.0
 10
276.0028919615718
 20
403.2535281622581
 30
0.0
 10
276.0589158750278
 20
403.1562519562142
 30
0.0
 10
276.1414187141017
 20
403.0823036377116
 30
0.0
 10
276.2444345362582
 20
403.0400203187043
 30
0.0
 10
276.3554553106031
 20
403.0341691226674
 30
0.0
 10
276.4622037738804
 20
403.0654097275394
 30
0.0
 10
276.5525806775257
 20
403.1302199922147
 30
0.0
 10
276.6164139007451
 20
403.2212930505738
 30
0.0
 10
276.6465021428847
 20
403.3283611076843
 30
0.0
 10
276.6394543492086
 20
403.4393530465549
 30
0.0
 10
276.5960650286577
 20
403.5417553894754
 30
0.0
 10
276.5212251369929
 20
403.6240229690684
 30
0.0
 10
276.4233758245761
 20
403.6768810384085
 30
0.0
 10
276.3135356389353
 20
403.6943691367125
 30
0.0
 10
276.2041375882276
 20
403.6745197726797
 30
0.0
 10
276.1073312512005
 20
403.6195552894757
 30
0.0
 10
276.0347183339663
 20
403.5357304447384
 30
0.0
 10
275.9972567514924
 20
403.4451805241228
 30
0.0
 10
275.9935419761501
 20
403.38596147343
 30
0.0
 10
275.9921119734861
 20
403.3631651015247
 30
0.0
  0
SPLINE
  5
10C
330
1F
100
AcDbEntity
  8
0
100
AcDbSpline
210
0.0
220
0.0
230
1.0
 70
    11
 71
     3
 72
    26
 73
    22
 74
     0
 42
0.000000001
 43
0.00000001
 40
0.0
 40
0.0
 40
0.0
 40
0.0
 40
0.0536887269338468
 40
0.1073774538676953
 40
0.1610661808015455
 40
0.2147549077348157
 40
0.2684436346690879
 40
0.3221323616030965
 40
0.3758210885369471
 40
0.4295098154707933
 40
0.4831985424046162
 40
0.5368872693384963
 40
0.5905759962723444
 40
0.6442647232061609
 40
0.6979534501400392
 40
0.7516421770738916
 40
0.8053309040077407
 40
0.859019630941592
 40
0.9127083578754434
 40
0.9663970848092778
 40
1.0
 40
1.0
 40
1.0
 40
1.0
 10
282.9921119734861
 20
404.3631651015247
 30
0.0
 10
282.9885186441242
 20
404.3997107479468
 30
0.0
 10
282.9813319854004
 20
404.4728020407912
 30
0.0
 10
282.9253080719444
 20
404.570078246835
 30
0.0
 10
282.8428052328705
 20
404.6440265653377
 30
0.0
 10
282.7397894107141
 20
404.686309884345
 30
0.0
 10
282.6287686363691
 20
404.6921610803818
 30
0.0
 10
282.5220201730919
 20
404.6609204755099
 30
0.0
 10
282.4316432694465
 20
404.5961102108346
 30
0.0
 10
282.3678100462271
 20
404.5050371524755
 30
0.0
 10
282.3377218040875
 20
404.397969095365
 30
0.0
 10
282.3447695977636
 20
404.2869771564943
 30
0.0
 10
282.3881589183146
 20
404.1845748135738
 30
0.0
 10
282.4629988099793
 20
404.1023072339808
 30
0.0
 10
282.5608481223962
 20
404.0494491646407
 30
0.0
 10
282.6706883080369
 20
404.0319610663367
 30
0.0
 10
282.7800863587447
 20
404.0518104303695
 30
0.0
 10
282.8768926957717
 20
404.1067749135735
 30
0.0
 10
282.949505613006
 20
404.1905997583108
 30
0.0
 10
282.9869671954798
 20
404.2811496789264
 30
0.0
 10
282.9906819708222
 20
404.3403687296192
 30
0.0
 10
282.9921119734861
 20
404.3631651015247
 30
0.0
  0
SPLINE
  5
10D
330
1F
100
AcDbEntity
  8
0
100
AcDbSpline
210
0.0
220
0.0
230
1.0
 70
    11
 71
     3
 72
    26
 73
    22
 74
     0
 42
0.000000001
 43
0.00000001
 40
0.0
 40
0.0
 40
0.0
 40
0.0
 40
0.0536887269338492
 40
0.1073774538676993
 40
0.1610661808015509
 40
0.2147549077348195
 40
0.2684436346690913
 40
0.3221323616030985
 40
0.3758210885369478
 40
0.4295098154707997
 40
0.4831985424046221
 40
0.5368872693385004
 40
0.590575996272348
 40
0.6442647232061655
 40
0.6979534501400428
 40
0.7516421770738929
 40
0.8053309040077444
 40
0.8590196309415932
 40
0.9127083578754415
 40
0.9663970848092831
 40
1.0
 40
1.0
 40
1.0
 40
1.0
 10
275.9921119734861
 20
397.3631651015247
 30
0.0
 10
275.995705302848
 20
397.3266194551024
 30
0.0
 10
276.0028919615718
 20
397.2535281622581
 30
0.0
 10
276.0589158750278
 20
397.1562519562142
 30
0.0
 10
276.1414187141017
 20
397.0823036377116
 30
0.0
 10
276.2444345362582
 20
397.0400203187043
 30
0.0
 10
276.3554553106031
 20
397.0341691226674
 30
0.0
 10
276.4622037738804
 20
397.0654097275394
 30
0.0
 10
276.5525806775257
 20
397.1302199922147
 30
0.0
 10
276.6164139007451
 20
397.2212930505738
 30
0.0
 10
276.6465021428847
 20
397.3283611076843
 30
0.0
 10
276.6394543492086
 20
397.4393530465549
 30
0.0
 10
276.5960650286577
 20
397.5417553894754
 30
0.0
 10
276.5212251369929
 20
397.6240229690685
 30
0.0
 10
276.423375824576
 20
397.6768810384085
 30
0.0
 10
276.3135356389353
 20
397.6943691367125
 30
0.0
 10
276.2041375882276
 20
397.6745197726797
 30
0.0
 10
276.1073312512005
 20
397.6195552894757
 30
0.0
 10
276.0347183339663
 20
397.5357304447384
 30
0.0
 10
275.9972567514924
 20
397.4451805241229
 30
0.0
 10
275.9935419761501
 20
397.38596147343
 30
0.0
 10
275.9921119734861
 20
397.3631651015247
 30
0.0
  0
SPLINE
  5
10E
330
1F
100
AcDbEntity
  8
0
100
AcDbSpline
210
0.0
220
0.0
230
1.0
 70
    11
 71
     3
 72
    26
 73
    22
 74
     0
 42
0.000000001
 43
0.00000001
 40
0.0
 40
0.0
 40
0.0
 40
0.0
 40
0.0536887269338501
 40
0.1073774538677031
 40
0.1610661808015487
 40
0.2147549077348182
 40
0.2684436346690926
 40
0.3221323616031007
 40
0.3758210885369514
 40
0.4295098154707976
 40
0.483198542404617
 40
0.5368872693384963
 40
0.590575996272346
 40
0.644264723206166
 40
0.6979534501400463
 40
0.7516421770738958
 40
0.8053309040077457
 40
0.8590196309415963
 40
0.9127083578754427
 40
0.9663970848092848
 40
1.0
 40
1.0
 40
1.0
 40
1.0
 10
282.9921119734861
 20
398.3631651015247
 30
0.0
 10
282.9885186441242
 20
398.3997107479468
 30
0.0
 10
282.9813319854004
 20
398.4728020407912
 30
0.0
 10
282.9253080719444
 20
398.570078246835
 30
0.0
 10
282.8428052328705
 20
398.6440265653377
 30
0.0
 10
282.7397894107141
 20
398.6863098843451
 30
0.0
 10
282.6287686363691
 20
398.6921610803819
 30
0.0
 10
282.5220201730919
 20
398.6609204755098
 30
0.0
 10
282.4316432694465
 20
398.5961102108346
 30
0.0
 10
282.3678100462271
 20
398.5050371524755
 30
0.0
 10
282.3377218040875
 20
398.397969095365
 30
0.0
 10
282.3447695977636
 20
398.2869771564943
 30
0.0
 10
282.3881589183146
 20
398.1845748135738
 30
0.0
 10
282.4629988099793
 20
398.1023072339808
 30
0.0
 10
282.5608481223962
 20
398.0494491646407
 30
0.0
 10
282.6706883080369
 20
398.0319610663367
 30
0.0
 10
282.7800863587447
 20
398.0518104303695
 30
0.0
 10
282.8768926957717
 20
398.1067749135735
 30
0.0
 10
282.949505613006
 20
398.1905997583108
 30
0.0
 10
282.9869671954798
 20
398.2811496789264
 30
0.0
 10
282.9906819708222
 20
398.3403687296192
 30
0.0
 10
282.9921119734861
 20
398.3631651015247
 30
0.0
  0
SPLINE
  5
10F
330
1F
100
AcDbEntity
  8
0
100
AcDbSpline
210
0.0
220
0.0
230
1.0
 70
    11
 71
     3
 72
    26
 73
    22
 74
     0
 42
0.000000001
 43
0.00000001
 40
0.0
 40
0.0
 40
0.0
 40
0.0
 40
0.0536887269338482
 40
0.1073774538676985
 40
0.1610661808015479
 40
0.2147549077348168
 40
0.2684436346690887
 40
0.3221323616030961
 40
0.375821088536947
 40
0.4295098154707941
 40
0.4831985424046167
 40
0.5368872693384957
 40
0.5905759962723456
 40
0.6442647232061626
 40
0.6979534501400425
 40
0.7516421770738929
 40
0.8053309040077429
 40
0.8590196309415934
 40
0.9127083578754407
 40
0.9663970848092849
 40
1.0
 40
1.0
 40
1.0
 40
1.0
 10
275.9921119734861
 20
393.3631651015247
 30
0.0
 10
275.995705302848
 20
393.3266194551024
 30
0.0
 10
276.0028919615718
 20
393.2535281622581
 30
0.0
 10
276.0589158750278
 20
393.1562519562143
 30
0.0
 10
276.1414187141017
 20
393.0823036377116
 30
0.0
 10
276.2444345362582
 20
393.0400203187042
 30
0.0
 10
276.3554553106031
 20
393.0341691226674
 30
0.0
 10
276.4622037738804
 20
393.0654097275394
 30
0.0
 10
276.5525806775257
 20
393.1302199922147
 30
0.0
 10
276.6164139007451
 20
393.2212930505738
 30
0.0
 10
276.6465021428847
 20
393.3283611076843
 30
0.0
 10
276.6394543492086
 20
393.4393530465549
 30
0.0
 10
276.5960650286577
 20
393.5417553894754
 30
0.0
 10
276.5212251369929
 20
393.6240229690685
 30
0.0
 10
276.4233758245761
 20
393.6768810384085
 30
0.0
 10
276.3135356389353
 20
393.6943691367125
 30
0.0
 10
276.2041375882276
 20
393.6745197726797
 30
0.0
 10
276.1073312512005
 20
393.6195552894757
 30
0.0
 10
276.0347183339663
 20
393.5357304447384
 30
0.0
 10
275.9972567514924
 20
393.4451805241229
 30
0.0
 10
275.9935419761501
 20
393.38596147343
 30
0.0
 10
275.9921119734861
 20
393.3631651015247
 30
0.0
  0
SPLINE
  5
110
330
1F
100
AcDbEntity
  8
0
100
AcDbSpline
210
0.0
220
0.0
230
1.0
 70
    11
 71
     3
 72
    26
 73
    22
 74
     0
 42
0.000000001
 43
0.00000001
 40
0.0
 40
0.0
 40
0.0
 40
0.0
 40
0.0536887269338465
 40
0.1073774538676959
 40
0.1610661808015478
 40
0.2147549077348135
 40
0.2684436346690854
 40
0.3221323616030932
 40
0.3758210885369445
 40
0.4295098154707937
 40
0.4831985424046173
 40
0.5368872693384931
 40
0.5905759962723438
 40
0.6442647232061625
 40
0.69795345014004
 40
0.7516421770738912
 40
0.8053309040077407
 40
0.8590196309415897
 40
0.9127083578754385
 40
0.9663970848092762
 40
1.0
 40
1.0
 40
1.0
 40
1.0
 10
282.9921119734861
 20
394.3631651015247
 30
0.0
 10
282.9885186441242
 20
394.3997107479468
 30
0.0
 10
282.9813319854004
 20
394.4728020407912
 30
0.0
 10
282.9253080719444
 20
394.570078246835
 30
0.0
 10
282.8428052328705
 20
394.6440265653377
 30
0.0
 10
282.7397894107141
 20
394.6863098843451
 30
0.0
 10
282.6287686363691
 20
394.6921610803819
 30
0.0
 10
282.5220201730919
 20
394.6609204755099
 30
0.0
 10
282.4316432694465
 20
394.5961102108346
 30
0.0
 10
282.3678100462271
 20
394.5050371524756
 30
0.0
 10
282.3377218040875
 20
394.397969095365
 30
0.0
 10
282.3447695977636
 20
394.2869771564943
 30
0.0
 10
282.3881589183146
 20
394.1845748135738
 30
0.0
 10
282.4629988099793
 20
394.1023072339808
 30
0.0
 10
282.5608481223962
 20
394.0494491646407
 30
0.0
 10
282.6706883080369
 20
394.0319610663367
 30
0.0
 10
282.7800863587447
 20
394.0518104303695
 30
0.0
 10
282.8768926957717
 20
394.1067749135735
 30
0.0
 10
282.949505613006
 20
394.1905997583108
 30
0.0
 10
282.9869671954798
 20
394.2811496789264
 30
0.0
 10
282.9906819708222
 20
394.3403687296192
 30
0.0
 10
282.9921119734861
 20
394.3631651015247
 30
0.0
  0
SPLINE
  5
111
330
1F
100
AcDbEntity
  8
0
100
AcDbSpline
210
0.0
220
0.0
230
1.0
 70
    11
 71
     3
 72
    26
 73
    22
 74
     0
 42
0.000000001
 43
0.00000001
 40
0.0
 40
0.0
 40
0.0
 40
0.0
 40
0.0536887269338481
 40
0.1073774538676964
 40
0.1610661808015449
 40
0.2147549077348165
 40
0.2684436346690883
 40
0.3221323616030944
 40
0.3758210885369448
 40
0.4295098154707953
 40
0.4831985424046127
 40
0.5368872693384917
 40
0.5905759962723378
 40
0.6442647232061586
 40
0.6979534501400413
 40
0.7516421770738909
 40
0.8053309040077392
 40
0.8590196309415896
 40
0.9127083578754375
 40
0.9663970848092789
 40
1.0
 40
1.0
 40
1.0
 40
1.0
 10
275.9921119734861
 20
395.3631651015247
 30
0.0
 10
275.995705302848
 20
395.3266194551024
 30
0.0
 10
276.0028919615718
 20
395.2535281622581
 30
0.0
 10
276.0589158750278
 20
395.1562519562143
 30
0.0
 10
276.1414187141017
 20
395.0823036377116
 30
0.0
 10
276.2444345362582
 20
395.0400203187042
 30
0.0
 10
276.3554553106031
 20
395.0341691226674
 30
0.0
 10
276.4622037738804
 20
395.0654097275394
 30
0.0
 10
276.5525806775257
 20
395.1302199922147
 30
0.0
 10
276.6164139007451
 20
395.2212930505738
 30
0.0
 10
276.6465021428847
 20
395.3283611076843
 30
0.0
 10
276.6394543492086
 20
395.4393530465549
 30
0.0
 10
276.5960650286577
 20
395.5417553894754
 30
0.0
 10
276.5212251369929
 20
395.6240229690685
 30
0.0
 10
276.4233758245761
 20
395.6768810384085
 30
0.0
 10
276.3135356389353
 20
395.6943691367125
 30
0.0
 10
276.2041375882276
 20
395.6745197726797
 30
0.0
 10
276.1073312512005
 20
395.6195552894757
 30
0.0
 10
276.0347183339663
 20
395.5357304447384
 30
0.0
 10
275.9972567514924
 20
395.4451805241229
 30
0.0
 10
275.9935419761501
 20
395.38596147343
 30
0.0
 10
275.9921119734861
 20
395.3631651015247
 30
0.0
  0
SPLINE
  5
112
330
1F
100
AcDbEntity
  8
0
100
AcDbSpline
210
0.0
220
0.0
230
1.0
 70
    11
 71
     3
 72
    26
 73
    22
 74
     0
 42
0.000000001
 43
0.00000001
 40
0.0
 40
0.0
 40
0.0
 40
0.0
 40
0.0536887269338493
 40
0.1073774538676947
 40
0.1610661808015453
 40
0.2147549077348127
 40
0.2684436346690852
 40
0.322132361603093
 40
0.3758210885369433
 40
0.4295098154707921
 40
0.4831985424046145
 40
0.5368872693384894
 40
0.5905759962723383
 40
0.6442647232061594
 40
0.697953450140042
 40
0.7516421770738908
 40
0.8053309040077404
 40
0.8590196309415904
 40
0.9127083578754404
 40
0.9663970848092812
 40
1.0
 40
1.0
 40
1.0
 40
1.0
 10
282.9921119734861
 20
396.3631651015247
 30
0.0
 10
282.9885186441242
 20
396.3997107479468
 30
0.0
 10
282.9813319854004
 20
396.4728020407912
 30
0.0
 10
282.9253080719444
 20
396.570078246835
 30
0.0
 10
282.8428052328705
 20
396.6440265653377
 30
0.0
 10
282.7397894107141
 20
396.6863098843451
 30
0.0
 10
282.6287686363691
 20
396.6921610803819
 30
0.0
 10
282.5220201730919
 20
396.6609204755099
 30
0.0
 10
282.4316432694465
 20
396.5961102108346
 30
0.0
 10
282.3678100462271
 20
396.5050371524756
 30
0.0
 10
282.3377218040875
 20
396.397969095365
 30
0.0
 10
282.3447695977636
 20
396.2869771564943
 30
0.0
 10
282.3881589183146
 20
396.1845748135738
 30
0.0
 10
282.4629988099793
 20
396.1023072339808
 30
0.0
 10
282.5608481223962
 20
396.0494491646407
 30
0.0
 10
282.6706883080369
 20
396.0319610663367
 30
0.0
 10
282.7800863587447
 20
396.0518104303695
 30
0.0
 10
282.8768926957717
 20
396.1067749135735
 30
0.0
 10
282.949505613006
 20
396.1905997583108
 30
0.0
 10
282.9869671954798
 20
396.2811496789264
 30
0.0
 10
282.9906819708222
 20
396.3403687296192
 30
0.0
 10
282.9921119734861
 20
396.3631651015247
 30
0.0
  0
SPLINE
  5
113
330
1F
100
AcDbEntity
  8
0
100
AcDbSpline
210
0.0
220
0.0
230
1.0
 70
    11
 71
     3
 72
    26
 73
    22
 74
     0
 42
0.000000001
 43
0.00000001
 40
0.0
 40
0.0
 40
0.0
 40
0.0
 40
0.0536887269338517
 40
0.1073774538676993
 40
0.1610661808015474
 40
0.2147549077348188
 40
0.2684436346690894
 40
0.3221323616030978
 40
0.3758210885369494
 40
0.429509815470798
 40
0.4831985424046157
 40
0.5368872693384957
 40
0.5905759962723431
 40
0.6442647232061617
 40
0.6979534501400458
 40
0.7516421770738927
 40
0.8053309040077437
 40
0.8590196309415935
 40
0.9127083578754392
 40
0.966397084809283
 40
0.9999999999999999
 40
0.9999999999999999
 40
0.9999999999999999
 40
0.9999999999999999
 10
275.9921119734861
 20
401.3631651015247
 30
0.0
 10
275.995705302848
 20
401.3266194551024
 30
0.0
 10
276.0028919615718
 20
401.2535281622581
 30
0.0
 10
276.0589158750278
 20
401.1562519562142
 30
0.0
 10
276.1414187141017
 20
401.0823036377115
 30
0.0
 10
276.2444345362582
 20
401.0400203187043
 30
0.0
 10
276.3554553106031
 20
401.0341691226674
 30
0.0
 10
276.4622037738804
 20
401.0654097275394
 30
0.0
 10
276.5525806775257
 20
401.1302199922147
 30
0.0
 10
276.6164139007451
 20
401.2212930505738
 30
0.0
 10
276.6465021428847
 20
401.3283611076843
 30
0.0
 10
276.6394543492086
 20
401.4393530465549
 30
0.0
 10
276.5960650286577
 20
401.5417553894754
 30
0.0
 10
276.5212251369929
 20
401.6240229690685
 30
0.0
 10
276.4233758245761
 20
401.6768810384085
 30
0.0
 10
276.3135356389353
 20
401.6943691367125
 30
0.0
 10
276.2041375882276
 20
401.6745197726797
 30
0.0
 10
276.1073312512005
 20
401.6195552894757
 30
0.0
 10
276.0347183339663
 20
401.5357304447384
 30
0.0
 10
275.9972567514924
 20
401.4451805241229
 30
0.0
 10
275.9935419761501
 20
401.38596147343
 30
0.0
 10
275.9921119734861
 20
401.3631651015247
 30
0.0
  0
SPLINE
  5
114
330
1F
100
AcDbEntity
  8
0
100
AcDbSpline
210
0.0
220
0.0
230
1.0
 70
    11
 71
     3
 72
    26
 73
    22
 74
     0
 42
0.000000001
 43
0.00000001
 40
0.0
 40
0.0
 40
0.0
 40
0.0
 40
0.0536887269338516
 40
0.1073774538677045
 40
0.1610661808015541
 40
0.2147549077348199
 40
0.2684436346690923
 40
0.3221323616030991
 40
0.3758210885369484
 40
0.4295098154707971
 40
0.4831985424046216
 40
0.5368872693384965
 40
0.5905759962723446
 40
0.6442647232061613
 40
0.6979534501400467
 40
0.7516421770738942
 40
0.8053309040077433
 40
0.8590196309415935
 40
0.9127083578754435
 40
0.9663970848092849
 40
1.0
 40
1.0
 40
1.0
 40
1.0
 10
282.9921119734861
 20
402.3631651015247
 30
0.0
 10
282.9885186441242
 20
402.3997107479468
 30
0.0
 10
282.9813319854004
 20
402.4728020407912
 30
0.0
 10
282.9253080719444
 20
402.570078246835
 30
0.0
 10
282.8428052328705
 20
402.6440265653377
 30
0.0
 10
282.7397894107141
 20
402.6863098843451
 30
0.0
 10
282.6287686363691
 20
402.6921610803819
 30
0.0
 10
282.5220201730919
 20
402.6609204755099
 30
0.0
 10
282.4316432694465
 20
402.5961102108346
 30
0.0
 10
282.3678100462271
 20
402.5050371524755
 30
0.0
 10
282.3377218040875
 20
402.397969095365
 30
0.0
 10
282.3447695977636
 20
402.2869771564943
 30
0.0
 10
282.3881589183146
 20
402.1845748135738
 30
0.0
 10
282.4629988099793
 20
402.1023072339808
 30
0.0
 10
282.5608481223962
 20
402.0494491646407
 30
0.0
 10
282.6706883080369
 20
402.0319610663367
 30
0.0
 10
282.7800863587447
 20
402.0518104303695
 30
0.0
 10
282.8768926957717
 20
402.1067749135735
 30
0.0
 10
282.949505613006
 20
402.1905997583108
 30
0.0
 10
282.9869671954798
 20
402.2811496789264
 30
0.0
 10
282.9906819708222
 20
402.3403687296192
 30
0.0
 10
282.9921119734861
 20
402.3631651015247
 30
0.0
  0
SPLINE
  5
115
330
1F
100
AcDbEntity
  8
0
100
AcDbSpline
210
0.0
220
0.0
230
1.0
 70
    11
 71
     3
 72
    26
 73
    22
 74
     0
 42
0.000000001
 43
0.00000001
 40
0.0
 40
0.0
 40
0.0
 40
0.0
 40
0.0536887269338482
 40
0.107377453867696
 40
0.1610661808015485
 40
0.2147549077348185
 40
0.2684436346690919
 40
0.3221323616030977
 40
0.3758210885369475
 40
0.4295098154708001
 40
0.4831985424046192
 40
0.5368872693384991
 40
0.5905759962723491
 40
0.6442647232061643
 40
0.6979534501400444
 40
0.7516421770738965
 40
0.8053309040077454
 40
0.8590196309415957
 40
0.9127083578754475
 40
0.96639708480929
 40
1.0
 40
1.0
 40
1.0
 40
1.0
 10
275.9921119734861
 20
399.3631651015247
 30
0.0
 10
275.995705302848
 20
399.3266194551024
 30
0.0
 10
276.0028919615718
 20
399.2535281622581
 30
0.0
 10
276.0589158750278
 20
399.1562519562142
 30
0.0
 10
276.1414187141017
 20
399.0823036377116
 30
0.0
 10
276.2444345362582
 20
399.0400203187043
 30
0.0
 10
276.3554553106031
 20
399.0341691226674
 30
0.0
 10
276.4622037738804
 20
399.0654097275394
 30
0.0
 10
276.5525806775257
 20
399.1302199922147
 30
0.0
 10
276.6164139007451
 20
399.2212930505738
 30
0.0
 10
276.6465021428847
 20
399.3283611076843
 30
0.0
 10
276.6394543492086
 20
399.4393530465549
 30
0.0
 10
276.5960650286577
 20
399.5417553894754
 30
0.0
 10
276.5212251369929
 20
399.6240229690685
 30
0.0
 10
276.4233758245761
 20
399.6768810384085
 30
0.0
 10
276.3135356389353
 20
399.6943691367125
 30
0.0
 10
276.2041375882276
 20
399.6745197726797
 30
0.0
 10
276.1073312512005
 20
399.6195552894757
 30
0.0
 10
276.0347183339663
 20
399.5357304447384
 30
0.0
 10
275.9972567514924
 20
399.4451805241228
 30
0.0
 10
275.9935419761501
 20
399.38596147343
 30
0.0
 10
275.9921119734861
 20
399.3631651015247
 30
0.0
  0
SPLINE
  5
116
330
1F
100
AcDbEntity
  8
0
100
AcDbSpline
210
0.0
220
0.0
230
1.0
 70
    11
 71
     3
 72
    26
 73
    22
 74
     0
 42
0.000000001
 43
0.00000001
 40
0.0
 40
0.0
 40
0.0
 40
0.0
 40
0.0536887269338552
 40
0.1073774538677072
 40
0.1610661808015553
 40
0.2147549077348218
 40
0.2684436346690959
 40
0.3221323616031042
 40
0.3758210885369563
 40
0.4295098154708031
 40
0.4831985424046234
 40
0.5368872693385018
 40
0.5905759962723479
 40
0.6442647232061719
 40
0.697953450140052
 40
0.7516421770738976
 40
0.805330904007748
 40
0.8590196309415984
 40
0.9127083578754492
 40
0.9663970848092882
 40
1.0
 40
1.0
 40
1.0
 40
1.0
 10
282.9921119734861
 20
400.3631651015247
 30
0.0
 10
282.9885186441242
 20
400.3997107479468
 30
0.0
 10
282.9813319854004
 20
400.4728020407912
 30
0.0
 10
282.9253080719444
 20
400.570078246835
 30
0.0
 10
282.8428052328705
 20
400.6440265653377
 30
0.0
 10
282.7397894107141
 20
400.6863098843451
 30
0.0
 10
282.6287686363691
 20
400.6921610803818
 30
0.0
 10
282.5220201730918
 20
400.6609204755098
 30
0.0
 10
282.4316432694465
 20
400.5961102108346
 30
0.0
 10
282.3678100462271
 20
400.5050371524755
 30
0.0
 10
282.3377218040875
 20
400.3979690953649
 30
0.0
 10
282.3447695977636
 20
400.2869771564943
 30
0.0
 10
282.3881589183146
 20
400.1845748135738
 30
0.0
 10
282.4629988099793
 20
400.1023072339808
 30
0.0
 10
282.5608481223962
 20
400.0494491646407
 30
0.0
 10
282.6706883080369
 20
400.0319610663367
 30
0.0
 10
282.7800863587447
 20
400.0518104303695
 30
0.0
 10
282.8768926957717
 20
400.1067749135735
 30
0.0
 10
282.949505613006
 20
400.1905997583108
 30
0.0
 10
282.9869671954798
 20
400.2811496789264
 30
0.0
 10
282.9906819708222
 20
400.3403687296192
 30
0.0
 10
282.9921119734861
 20
400.3631651015247
 30
0.0
  0
SPLINE
  5
117
330
1F
100
AcDbEntity
  8
0
100
AcDbSpline
210
0.0
220
0.0
230
1.0
 70
    11
 71
     3
 72
    26
 73
    22
 74
     0
 42
0.000000001
 43
0.00000001
 40
0.0
 40
0.0
 40
0.0
 40
0.0
 40
0.0536887269338483
 40
0.1073774538676972
 40
0.1610661808015447
 40
0.2147549077348179
 40
0.268443634669088
 40
0.3221323616030946
 40
0.3758210885369442
 40
0.429509815470793
 40
0.4831985424046157
 40
0.5368872693384992
 40
0.5905759962723452
 40
0.6442647232061678
 40
0.697953450140044
 40
0.7516421770738897
 40
0.805330904007742
 40
0.8590196309415927
 40
0.9127083578754394
 40
0.9663970848092831
 40
1.0
 40
1.0
 40
1.0
 40
1.0
 10
275.9921119734861
 20
405.3631651015247
 30
0.0
 10
275.995705302848
 20
405.3266194551024
 30
0.0
 10
276.0028919615718
 20
405.2535281622581
 30
0.0
 10
276.0589158750278
 20
405.1562519562142
 30
0.0
 10
276.1414187141017
 20
405.0823036377115
 30
0.0
 10
276.2444345362582
 20
405.0400203187043
 30
0.0
 10
276.3554553106031
 20
405.0341691226674
 30
0.0
 10
276.4622037738804
 20
405.0654097275394
 30
0.0
 10
276.5525806775257
 20
405.1302199922147
 30
0.0
 10
276.6164139007451
 20
405.2212930505738
 30
0.0
 10
276.6465021428847
 20
405.3283611076843
 30
0.0
 10
276.6394543492086
 20
405.4393530465549
 30
0.0
 10
276.5960650286577
 20
405.5417553894754
 30
0.0
 10
276.5212251369929
 20
405.6240229690685
 30
0.0
 10
276.423375824576
 20
405.6768810384085
 30
0.0
 10
276.3135356389353
 20
405.6943691367125
 30
0.0
 10
276.2041375882276
 20
405.6745197726797
 30
0.0
 10
276.1073312512005
 20
405.6195552894757
 30
0.0
 10
276.0347183339663
 20
405.5357304447384
 30
0.0
 10
275.9972567514924
 20
405.4451805241228
 30
0.0
 10
275.9935419761501
 20
405.38596147343
 30
0.0
 10
275.9921119734861
 20
405.3631651015247
 30
0.0
  0
SPLINE
  5
118
330
1F
100
AcDbEntity
  8
0
100
AcDbSpline
210
0.0
220
0.0
230
1.0
 70
    11
 71
     3
 72
    26
 73
    22
 74
     0
 42
0.000000001
 43
0.00000001
 40
0.0
 40
0.0
 40
0.0
 40
0.0
 40
0.0536887269338535
 40
0.107377453867705
 40
0.1610661808015527
 40
0.2147549077348256
 40
0.2684436346690965
 40
0.3221323616031039
 40
0.3758210885369517
 40
0.4295098154708021
 40
0.4831985424046245
 40
0.5368872693384943
 40
0.5905759962723455
 40
0.644264723206174
 40
0.6979534501400547
 40
0.7516421770738997
 40
0.8053309040077488
 40
0.8590196309415983
 40
0.9127083578754452
 40
0.9663970848092851
 40
1.0
 40
1.0
 40
1.0
 40
1.0
 10
282.9921119734861
 20
406.3631651015247
 30
0.0
 10
282.9885186441242
 20
406.3997107479468
 30
0.0
 10
282.9813319854004
 20
406.4728020407912
 30
0.0
 10
282.9253080719444
 20
406.570078246835
 30
0.0
 10
282.8428052328705
 20
406.6440265653377
 30
0.0
 10
282.7397894107141
 20
406.6863098843451
 30
0.0
 10
282.6287686363691
 20
406.6921610803818
 30
0.0
 10
282.5220201730918
 20
406.6609204755098
 30
0.0
 10
282.4316432694465
 20
406.5961102108346
 30
0.0
 10
282.3678100462271
 20
406.5050371524755
 30
0.0
 10
282.3377218040875
 20
406.3979690953649
 30
0.0
 10
282.3447695977636
 20
406.2869771564943
 30
0.0
 10
282.3881589183146
 20
406.1845748135738
 30
0.0
 10
282.4629988099793
 20
406.1023072339807
 30
0.0
 10
282.5608481223962
 20
406.0494491646407
 30
0.0
 10
282.6706883080369
 20
406.0319610663367
 30
0.0
 10
282.7800863587447
 20
406.0518104303695
 30
0.0
 10
282.8768926957717
 20
406.1067749135735
 30
0.0
 10
282.949505613006
 20
406.1905997583108
 30
0.0
 10
282.9869671954798
 20
406.2811496789264
 30
0.0
 10
282.9906819708222
 20
406.3403687296192
 30
0.0
 10
282.9921119734861
 20
406.3631651015247
 30
0.0
  0
LINE
  5
119
330
1F
100
AcDbEntity
  8
0
100
AcDbLine
 10
276.5441849326
 20
385.1306508627
 30
0.0
 11
276.0900390144
 21
385.1306508627
 31
0.0
  0
LINE
  5
11A
330
1F
100
AcDbEntity
  8
0
100
AcDbLine
 10
282.4400390144
 20
408.1306508627
 30
0.0
 11
282.8941849326
 21
408.1306508627
 31
0.0
  0
LINE
  5
11B
330
1F
100
AcDbEntity
  8
0
100
AcDbLine
 10
289.4921119735
 20
427.1118799105
 30
0.0
 11
289.4921119735
 21
430.149421815
 31
0.0
  0
LINE
  5
11C
330
1F
100
AcDbEntity
  8
0
100
AcDbLine
 10
291.4921119735
 20
427.1118799105
 30
0.0
 11
289.4921119735
 21
427.1118799105
 31
0.0
  0
LINE
  5
11D
330
1F
100
AcDbEntity
  8
0
100
AcDbLine
 10
291.4921119735
 20
425.1306508627
 30
0.0
 11
291.4921119735
 21
427.1118799105
 31
0.0
  0
LINE
  5
11E
330
1F
100
AcDbEntity
  8
0
100
AcDbLine
 10
287.4921119735
 20
425.1306508627
 30
0.0
 11
291.4921119735
 21
425.1306508627
 31
0.0
  0
LINE
  5
11F
330
1F
100
AcDbEntity
  8
0
100
AcDbLine
 10
287.4921119735
 20
426.6306508627
 30
0.0
 11
287.4921119735
 21
425.1306508627
 31
0.0
  0
LINE
  5
120
330
1F
100
AcDbEntity
  8
0
100
AcDbLine
 10
275.8421119735
 20
426.6306508627
 30
0.0
 11
287.4921119735
 21
426.6306508627
 31
0.0
  0
LINE
  5
121
330
1F
100
AcDbEntity
  8
0
100
AcDbLine
 10
275.4921119735
 20
426.9806508628
 30
0.0
 11
275.8421119735
 21
426.6306508627
 31
0.0
  0
LINE
  5
122
330
1F
100
AcDbEntity
  8
0
100
AcDbLine
 10
275.4921119735
 20
426.9806508628
 30
0.0
 11
275.4921119735
 21
430.2806508627
 31
0.0
  0
LINE
  5
123
330
1F
100
AcDbEntity
  8
0
100
AcDbLine
 10
275.8421119735
 20
430.6306508627
 30
0.0
 11
275.4921119735
 21
430.2806508627
 31
0.0
  0
LINE
  5
124
330
1F
100
AcDbEntity
  8
0
100
AcDbLine
 10
287.4921119735
 20
430.6306508627
 30
0.0
 11
275.8421119735
 21
430.6306508627
 31
0.0
  0
LINE
  5
125
330
1F
100
AcDbEntity
  8
0
100
AcDbLine
 10
287.4921119735
 20
432.1306508627
 30
0.0
 11
287.4921119735
 21
430.6306508627
 31
0.0
  0
LINE
  5
126
330
1F
100
AcDbEntity
  8
0
100
AcDbLine
 10
291.4921119735
 20
432.1306508627
 30
0.0
 11
287.4921119735
 21
432.1306508627
 31
0.0
  0
LINE
  5
127
330
1F
100
AcDbEntity
  8
0
100
AcDbLine
 10
291.4921119735
 20
430.149421815
 30
0.0
 11
291.4921119735
 21
432.1306508627
 31
0.0
  0
LINE
  5
128
330
1F
100
AcDbEntity
  8
0
100
AcDbLine
 10
289.4921119735
 20
430.149421815
 30
0.0
 11
291.4921119735
 21
430.149421815
 31
0.0
  0
LINE
  5
129
330
1F
100
AcDbEntity
  8
0
100
AcDbLine
 10
291.4921119735
 20
427.2849262992
 30
0.0
 11
289.4921119735
 21
427.2849262992
 31
0.0
  0
LINE
  5
12A
330
1F
100
AcDbEntity
  8
0
100
AcDbLine
 10
291.4921119735
 20
427.1118799105
 30
0.0
 11
291.4921119735
 21
427.2849262992
 31
0.0
  0
LINE
  5
12B
330
1F
100
AcDbEntity
  8
0
100
AcDbLine
 10
291.4921119735
 20
428.9021238231
 30
0.0
 11
289.4921119735
 21
428.9021238231
 31
0.0
  0
LINE
  5
12C
330
1F
100
AcDbEntity
  8
0
100
AcDbLine
 10
291.4921119735
 20
428.9021238231
 30
0.0
 11
291.4921119735
 21
430.149421815
 31
0.0
  0
LINE
  5
12D
330
1F
100
AcDbEntity
  8
0
100
AcDbLine
 10
291.4921119735
 20
427.2849262992
 30
0.0
 11
291.4921119735
 21
428.9021238231
 31
0.0
  0
LINE
  5
12E
330
1F
100
AcDbEntity
  8
0
100
AcDbLine
 10
274.5921119735
 20
430.2806508627
 30
0.0
 11
274.5921119735
 21
458.1306508627
 31
0.0
  0
SPLINE
  5
12F
330
1F
100
AcDbEntity
  8
0
100
AcDbSpline
210
0.0
220
0.0
230
1.0
 70
     8
 71
     3
 72
    17
 73
    13
 74
     0
 42
0.000000001
 43
0.00000001
 40
0.0
 40
0.0
 40
0.0
 40
0.0
 40
0.0537763447454979
 40
0.1549914519454441
 40
0.258934490564698
 40
0.3676832587198375
 40
0.4761834713918093
 40
0.5789996693435095
 40
0.6798356938710772
 40
0.7851690445619322
 40
0.8946778876208678
 40
1.0
 40
1.0
 40
1.0
 40
1.0
 10
274.5921119734861
 20
426.9806508627477
 30
0.0
 10
274.5937185343404
 20
426.9854130384164
 30
0.0
 10
274.5983488825099
 20
426.999138339472
 30
0.0
 10
274.6490811914571
 20
427.1522141796068
 30
0.0
 10
274.7423716162144
 20
427.4809223151074
 30
0.0
 10
274.8373856293622
 20
427.9462717340749
 30
0.0
 10
274.887644565689
 20
428.4933628644615
 30
0.0
 10
274.869705046
 20
429.0426809145933
 30
0.0
 10
274.7967328871289
 20
429.5385904827492
 30
0.0
 10
274.6990992521747
 20
429.9437217423142
 30
0.0
 10
274.6109258643748
 20
430.2261040610599
 30
0.0
 10
274.598301258955
 20
430.2627063700822
 30
0.0
 10
274.5921119734861
 20
430.2806508627477
 30
0.0
  0
LINE
  5
130
330
1F
100
AcDbEntity
  8
0
100
AcDbLine
 10
274.5921119735
 20
398.6306508627
 30
0.0
 11
274.5921119735
 21
426.9806508627
 31
0.0
  0
LINE
  5
131
330
1F
100
AcDbEntity
  8
0
100
AcDbLine
 10
284.3921119735
 20
426.9806508627
 30
0.0
 11
284.3921119735
 21
398.6306508627
 31
0.0
  0
LINE
  5
132
330
1F
100
AcDbEntity
  8
0
100
AcDbLine
 10
284.3921119735
 20
458.1306508627
 30
0.0
 11
284.3921119735
 21
430.2806508627
 31
0.0
  0
LINE
  5
133
330
1F
100
AcDbEntity
  8
0
100
AcDbLine
 10
284.3921119735
 20
430.2806508627
 30
0.0
 11
274.5921119735
 21
430.2806508627
 31
0.0
  0
LINE
  5
134
330
1F
100
AcDbEntity
  8
0
100
AcDbLine
 10
274.5921119735
 20
426.9806508627
 30
0.0
 11
284.3921119735
 21
426.9806508627
 31
0.0
  0
ARC
  5
135
330
1F
100
AcDbEntity
  8
0
100
AcDbCircle
 10
284.3374114351
 20
494.6306508627
 30
0.0
 40
0.5000000000000202
100
AcDbArc
 50
30.0
 51
90.0
  0
LINE
  5
136
330
1F
100
AcDbEntity
  8
0
100
AcDbLine
 10
284.770424137
 20
494.8806508627
 30
0.0
 11
285.4921119735
 21
493.6306508627
 31
0.0
  0
LINE
  5
137
330
1F
100
AcDbEntity
  8
0
100
AcDbLine
 10
285.4921119735
 20
493.6306508627
 30
0.0
 11
285.4921119735
 21
458.1306508627
 31
0.0
  0
LINE
  5
138
330
1F
100
AcDbEntity
  8
0
100
AcDbLine
 10
285.4921119735
 20
458.1306508627
 30
0.0
 11
284.3921119735
 21
458.1306508627
 31
0.0
  0
LINE
  5
139
330
1F
100
AcDbEntity
  8
0
100
AcDbLine
 10
274.5921119735
 20
458.1306508627
 30
0.0
 11
273.4921119735
 21
458.1306508627
 31
0.0
  0
LINE
  5
13A
330
1F
100
AcDbEntity
  8
0
100
AcDbLine
 10
273.4921119735
 20
458.1306508627
 30
0.0
 11
273.4921119735
 21
493.6306508627
 31
0.0
  0
LINE
  5
13B
330
1F
100
AcDbEntity
  8
0
100
AcDbLine
 10
273.4921119735
 20
493.6306508627
 30
0.0
 11
274.21379981
 21
494.8806508627
 31
0.0
  0
ARC
  5
13C
330
1F
100
AcDbEntity
  8
0
100
AcDbCircle
 10
274.6468125119
 20
494.6306508627
 30
0.0
 40
0.5000000000000202
100
AcDbArc
 50
90.0
 51
150.0
  0
LINE
  5
13D
330
1F
100
AcDbEntity
  8
0
100
AcDbLine
 10
274.6468125119
 20
495.1306508627
 30
0.0
 11
284.3374114351
 21
495.1306508627
 31
0.0
  0
LINE
  5
13E
330
1F
100
AcDbEntity
  8
0
100
AcDbLine
 10
275.4921119735
 20
398.1306508627
 30
0.0
 11
275.0921119735
 21
398.1306508627
 31
0.0
  0
LINE
  5
13F
330
1F
100
AcDbEntity
  8
0
100
AcDbLine
 10
274.5921119735
 20
398.6306508627
 30
0.0
 11
275.0921119735
 21
398.1306508627
 31
0.0
  0
LINE
  5
140
330
1F
100
AcDbEntity
  8
0
100
AcDbLine
 10
283.8921119735
 20
398.1306508627
 30
0.0
 11
284.3921119735
 21
398.6306508627
 31
0.0
  0
LINE
  5
141
330
1F
100
AcDbEntity
  8
0
100
AcDbLine
 10
283.8921119735
 20
398.1306508627
 30
0.0
 11
283.4921119735
 21
398.1306508627
 31
0.0
  0
LINE
  5
142
330
1F
100
AcDbEntity
  8
0
100
AcDbLine
 10
283.4921119735
 20
398.1306508627
 30
0.0
 11
283.4921119735
 21
408.1306508627
 31
0.0
  0
LINE
  5
143
330
1F
100
AcDbEntity
  8
0
100
AcDbLine
 10
283.4921119735
 20
408.1306508627
 30
0.0
 11
279.4921119735
 21
409.9958814954
 31
0.0
  0
LINE
  5
144
330
1F
100
AcDbEntity
  8
0
100
AcDbLine
 10
279.4921119735
 20
409.9958814954
 30
0.0
 11
275.4921119735
 21
408.1306508627
 31
0.0
  0
LINE
  5
145
330
1F
100
AcDbEntity
  8
0
100
AcDbLine
 10
275.4921119735
 20
408.1306508627
 30
0.0
 11
275.4921119735
 21
398.1306508627
 31
0.0
  0
LINE
  5
146
330
1F
100
AcDbEntity
  8
0
100
AcDbLine
 10
275.4921119735
 20
408.1306508627
 30
0.0
 11
278.8446377763
 21
408.1306508627
 31
0.0
  0
LINE
  5
147
330
1F
100
AcDbEntity
  8
0
100
AcDbLine
 10
283.0019977787
 20
408.1306508627
 30
0.0
 11
283.4921119735
 21
408.1306508627
 31
0.0
  0
LINE
  5
148
330
1F
100
AcDbEntity
  8
0
100
AcDbLine
 10
275.4921119735
 20
398.1306508627
 30
0.0
 11
278.9137521896
 21
398.1306508627
 31
0.0
  0
LINE
  5
149
330
1F
100
AcDbEntity
  8
0
100
AcDbLine
 10
282.9223860943
 20
398.1306508627
 30
0.0
 11
283.4921119735
 21
398.1306508627
 31
0.0
  0
SPLINE
  5
14A
330
1F
100
AcDbEntity
  8
0
100
AcDbSpline
210
0.0
220
0.0
230
1.0
 70
     8
 71
     3
 72
    10
 73
     6
 74
     0
 42
0.000000001
 43
0.00000001
 40
0.0
 40
0.0
 40
0.0
 40
0.0
 40
0.1103626700924916
 40
0.4746811315070398
 40
1.0
 40
1.0
 40
1.0
 40
1.0
 10
284.3921119734861
 20
432.1108479634082
 30
0.0
 10
284.399162077773
 20
432.1299644216675
 30
0.0
 10
284.4294852973667
 20
432.2121862637936
 30
0.0
 10
284.4759199676573
 20
432.3238909672842
 30
0.0
 10
284.4861005038802
 20
432.3485547821558
 30
0.0
 10
284.4921119734864
 20
432.3631184328543
 30
0.0
  0
SPLINE
  5
14B
330
1F
100
AcDbEntity
  8
0
100
AcDbSpline
210
0.0
220
0.0
230
1.0
 70
     8
 71
     3
 72
    11
 73
     7
 74
     0
 42
0.000000001
 43
0.00000001
 40
0.0
 40
0.0
 40
0.0
 40
0.0
 40
0.1527292306957883
 40
0.4662495929800226
 40
0.7886342934890942
 40
1.0
 40
1.0
 40
1.0
 40
1.0
 10
284.4921119734864
 20
407.1631184328529
 30
0.0
 10
284.4916164899371
 20
407.1642894851202
 30
0.0
 10
284.4901038849032
 20
407.1678644565941
 30
0.0
 10
284.4717498670327
 20
407.212038578568
 30
0.0
 10
284.437298922898
 20
407.2954618739327
 30
0.0
 10
284.4049300716511
 20
407.3810103353866
 30
0.0
 10
284.3921119734862
 20
407.4148876135269
 30
0.0
  0
LINE
  5
14C
330
1F
100
AcDbEntity
  8
0
100
AcDbLine
 10
284.4921119735
 20
407.1631184329
 30
0.0
 11
284.4921119735
 21
384.6498697788
 31
0.0
  0
LINE
  5
14D
330
1F
100
AcDbEntity
  8
0
100
AcDbLine
 10
274.4921119735
 20
384.6498697788
 30
0.0
 11
284.4921119735
 21
384.6498697788
 31
0.0
  0
LINE
  5
14E
330
1F
100
AcDbEntity
  8
0
100
AcDbLine
 10
274.4921119735
 20
384.6498697788
 30
0.0
 11
274.4921119735
 21
438.1631184329
 31
0.0
  0
LINE
  5
14F
330
1F
100
AcDbEntity
  8
0
100
AcDbLine
 10
284.4921119735
 20
438.1631184329
 30
0.0
 11
284.3921119735
 21
438.1631184329
 31
0.0
  0
LINE
  5
150
330
1F
100
AcDbEntity
  8
0
100
AcDbLine
 10
274.5921119735
 20
438.1631184329
 30
0.0
 11
274.4921119735
 21
438.1631184329
 31
0.0
  0
LINE
  5
151
330
1F
100
AcDbEntity
  8
0
100
AcDbLine
 10
284.4921119735
 20
438.1631184329
 30
0.0
 11
284.4921119735
 21
432.3631184329
 31
0.0
  0
LINE
  5
152
330
1F
100
AcDbEntity
  8
0
100
AcDbLine
 10
286.9921119735
 20
409.2631184329
 30
0.0
 11
286.9921119735
 21
407.1631184329
 31
0.0
  0
LINE
  5
153
330
1F
100
AcDbEntity
  8
0
100
AcDbLine
 10
284.4921119735
 20
407.1631184329
 30
0.0
 11
286.9921119735
 21
407.1631184329
 31
0.0
  0
LINE
  5
154
330
1F
100
AcDbEntity
  8
0
100
AcDbLine
 10
286.9921119735
 20
432.3631184329
 30
0.0
 11
284.4921119735
 21
432.3631184329
 31
0.0
  0
LINE
  5
155
330
1F
100
AcDbEntity
  8
0
100
AcDbLine
 10
286.9921119735
 20
432.3631184329
 30
0.0
 11
286.9921119735
 21
430.6306508627
 31
0.0
  0
LINE
  5
156
330
1F
100
AcDbEntity
  8
0
100
AcDbLine
 10
286.9921119735
 20
405.2631184329
 30
0.0
 11
286.9921119735
 21
407.1631184329
 31
0.0
  0
LINE
  5
157
330
1F
100
AcDbEntity
  8
0
100
AcDbLine
 10
286.9921119735
 20
405.2631184329
 30
0.0
 11
291.9921119735
 21
405.2631184329
 31
0.0
  0
LINE
  5
158
330
1F
100
AcDbEntity
  8
0
100
AcDbLine
 10
291.9921119735
 20
368.7631184329
 30
0.0
 11
291.9921119735
 21
405.2631184329
 31
0.0
  0
LINE
  5
159
330
1F
100
AcDbEntity
  8
0
100
AcDbLine
 10
291.9921119735
 20
368.7631184329
 30
0.0
 11
266.9921119735
 21
368.7631184329
 31
0.0
  0
LINE
  5
15A
330
1F
100
AcDbEntity
  8
0
100
AcDbLine
 10
267.2421119735
 20
438.7631184329
 30
0.0
 11
267.2421119735
 21
473.2631184329
 31
0.0
  0
LINE
  5
15B
330
1F
100
AcDbEntity
  8
0
100
AcDbLine
 10
267.7421119735
 20
473.7631184329
 30
0.0
 11
267.2421119735
 21
473.2631184329
 31
0.0
  0
LINE
  5
15C
330
1F
100
AcDbEntity
  8
0
100
AcDbLine
 10
273.4421119735
 20
473.7631184329
 30
0.0
 11
267.7421119735
 21
473.7631184329
 31
0.0
  0
LINE
  5
15D
330
1F
100
AcDbEntity
  8
0
100
AcDbLine
 10
273.4421119735
 20
438.7631184329
 30
0.0
 11
273.4421119735
 21
473.7631184329
 31
0.0
  0
LINE
  5
15E
330
1F
100
AcDbEntity
  8
0
100
AcDbLine
 10
273.4421119735
 20
438.7631184329
 30
0.0
 11
273.4528814889
 21
438.7631184329
 31
0.0
  0
LINE
  5
15F
330
1F
100
AcDbEntity
  8
0
100
AcDbLine
 10
274.4921119735
 20
438.1631184329
 30
0.0
 11
273.4528814889
 21
438.7631184329
 31
0.0
  0
LINE
  5
160
330
1F
100
AcDbEntity
  8
0
100
AcDbLine
 10
279.4921119735
 20
381.7631184329
 30
0.0
 11
274.4921119735
 21
384.6498697788
 31
0.0
  0
LINE
  5
161
330
1F
100
AcDbEntity
  8
0
100
AcDbLine
 10
284.4921119735
 20
384.6498697788
 30
0.0
 11
279.4921119735
 21
381.7631184329
 31
0.0
  0
LINE
  5
162
330
1F
100
AcDbEntity
  8
0
100
AcDbLine
 10
266.9921119735
 20
438.7631184329
 30
0.0
 11
267.2421119735
 21
438.7631184329
 31
0.0
  0
LINE
  5
163
330
1F
100
AcDbEntity
  8
0
100
AcDbLine
 10
266.9921119735
 20
368.7631184329
 30
0.0
 11
266.9921119735
 21
438.7631184329
 31
0.0
  0
LINE
  5
164
330
1F
100
AcDbEntity
  8
0
100
AcDbLine
 10
291.7421119735
 20
473.2631184329
 30
0.0
 11
291.7421119735
 21
438.7631184329
 31
0.0
  0
LINE
  5
165
330
1F
100
AcDbEntity
  8
0
100
AcDbLine
 10
291.7421119735
 20
473.2631184329
 30
0.0
 11
291.2421119735
 21
473.7631184329
 31
0.0
  0
LINE
  5
166
330
1F
100
AcDbEntity
  8
0
100
AcDbLine
 10
285.5421119735
 20
473.7631184329
 30
0.0
 11
285.5421119735
 21
438.7631184329
 31
0.0
  0
LINE
  5
167
330
1F
100
AcDbEntity
  8
0
100
AcDbLine
 10
285.5421119735
 20
473.7631184329
 30
0.0
 11
285.4921119735
 21
473.7631184329
 31
0.0
  0
LINE
  5
168
330
1F
100
AcDbEntity
  8
0
100
AcDbLine
 10
273.4921119735
 20
473.7631184329
 30
0.0
 11
273.4421119735
 21
473.7631184329
 31
0.0
  0
LINE
  5
169
330
1F
100
AcDbEntity
  8
0
100
AcDbLine
 10
285.531342458
 20
438.7631184329
 30
0.0
 11
284.4921119735
 21
438.1631184329
 31
0.0
  0
LINE
  5
16A
330
1F
100
AcDbEntity
  8
0
100
AcDbLine
 10
273.4528814889
 20
438.7631184329
 30
0.0
 11
274.5921119735
 21
438.7631184329
 31
0.0
  0
LINE
  5
16B
330
1F
100
AcDbEntity
  8
0
100
AcDbLine
 10
284.3921119735
 20
438.7631184329
 30
0.0
 11
285.531342458
 21
438.7631184329
 31
0.0
  0
LINE
  5
16C
330
1F
100
AcDbEntity
  8
0
100
AcDbLine
 10
291.9921119735
 20
434.2631184329
 30
0.0
 11
291.9921119735
 21
438.7631184329
 31
0.0
  0
LINE
  5
16D
330
1F
100
AcDbEntity
  8
0
100
AcDbLine
 10
291.9921119735
 20
434.2631184329
 30
0.0
 11
286.9921119735
 21
434.2631184329
 31
0.0
  0
LINE
  5
16E
330
1F
100
AcDbEntity
  8
0
100
AcDbLine
 10
286.9921119735
 20
432.3631184329
 30
0.0
 11
286.9921119735
 21
434.2631184329
 31
0.0
  0
LINE
  5
16F
330
1F
100
AcDbEntity
  8
0
100
AcDbLine
 10
285.531342458
 20
438.7631184329
 30
0.0
 11
285.5421119735
 21
438.7631184329
 31
0.0
  0
LINE
  5
170
330
1F
100
AcDbEntity
  8
0
100
AcDbLine
 10
291.2421119735
 20
473.7631184329
 30
0.0
 11
285.5421119735
 21
473.7631184329
 31
0.0
  0
LINE
  5
171
330
1F
100
AcDbEntity
  8
0
100
AcDbLine
 10
291.7421119735
 20
438.7631184329
 30
0.0
 11
291.9921119735
 21
438.7631184329
 31
0.0
  0
LINE
  5
172
330
1F
100
AcDbEntity
  8
0
100
AcDbLine
 10
286.9921119735
 20
412.667527339
 30
0.0
 11
287.4921119735
 21
412.667527339
 31
0.0
  0
LINE
  5
173
330
1F
100
AcDbEntity
  8
0
100
AcDbLine
 10
287.4921119735
 20
409.2631184329
 30
0.0
 11
287.4921119735
 21
412.667527339
 31
0.0
  0
LINE
  5
174
330
1F
100
AcDbEntity
  8
0
100
AcDbLine
 10
291.9921119735
 20
405.2631184329
 30
0.0
 11
291.9921119735
 21
409.2631184329
 31
0.0
  0
LINE
  5
175
330
1F
100
AcDbEntity
  8
0
100
AcDbLine
 10
291.9921119735
 20
430.2631184329
 30
0.0
 11
291.9921119735
 21
434.2631184329
 31
0.0
  0
LINE
  5
176
330
1F
100
AcDbEntity
  8
0
100
AcDbLine
 10
287.4921119735
 20
421.8587095267
 30
0.0
 11
286.9921119735
 21
421.8587095267
 31
0.0
  0
LINE
  5
177
330
1F
100
AcDbEntity
  8
0
100
AcDbLine
 10
287.4921119735
 20
421.8587095267
 30
0.0
 11
287.4921119735
 21
412.667527339
 31
0.0
  0
LINE
  5
178
330
1F
100
AcDbEntity
  8
0
100
AcDbLine
 10
286.9921119735
 20
426.6306508627
 30
0.0
 11
286.9921119735
 21
421.8587095267
 31
0.0
  0
LINE
  5
179
330
1F
100
AcDbEntity
  8
0
100
AcDbLine
 10
286.9921119735
 20
412.667527339
 30
0.0
 11
286.9921119735
 21
409.2631184329
 31
0.0
  0
LINE
  5
17A
330
1F
100
AcDbEntity
  8
0
100
AcDbLine
 10
287.4921119735
 20
421.8587095267
 30
0.0
 11
287.4921119735
 21
425.1306508627
 31
0.0
  0
LINE
  5
17B
330
1F
100
AcDbEntity
  8
0
100
AcDbLine
 10
291.9921119735
 20
409.2631184329
 30
0.0
 11
291.9921119735
 21
430.2631184329
 31
0.0
  0
LINE
  5
17C
330
1F
100
AcDbEntity
  8
0
  6
Continuous
 62
     8
370
    18
100
AcDbLine
 10
284.3921119735
 20
409.2631184329
 30
0.0
 11
286.9921119735
 21
409.2631184329
 31
0.0
  0
LINE
  5
17D
330
1F
100
AcDbEntity
  8
0
  6
Continuous
 62
     8
370
    18
100
AcDbLine
 10
287.4921119735
 20
409.2631184329
 30
0.0
 11
291.9921119735
 21
409.2631184329
 31
0.0
  0
LINE
  5
17E
330
1F
100
AcDbEntity
  8
0
  6
Continuous
 62
     8
370
    18
100
AcDbLine
 10
291.4921119735
 20
430.2631184329
 30
0.0
 11
291.9921119735
 21
430.2631184329
 31
0.0
  0
LINE
  5
17F
330
1F
100
AcDbEntity
  8
0
  6
Continuous
 62
     8
370
    18
100
AcDbLine
 10
286.9921119735
 20
425.2631184329
 30
0.0
 11
287.4921119735
 21
425.2631184329
 31
0.0
  0
HATCH
  5
180
330
1F
100
AcDbEntity
  8
TRATTEGGIO
 62
     4
100
AcDbHatch
 10
0.0
 20
0.0
 30
0.0
210
0.0
220
0.0
230
1.0
  2
ANSI38
 70
     0
 71
     0
 91
        1
 92
        0
 93
       17
 72
     1
 10
286.9921119734861
 20
407.1631184328537
 11
284.4921119734864
 21
407.1631184328529
 72
     1
 10
284.4921119734864
 20
407.1631184328529
 11
284.4921119734861
 21
384.6498697788018
 72
     1
 10
284.4921119734861
 20
384.6498697788018
 11
279.4921119734861
 21
381.7631184328536
 72
     1
 10
279.4921119734861
 20
381.7631184328536
 11
274.4921119734861
 21
384.6498697788018
 72
     1
 10
274.4921119734861
 20
384.6498697788018
 11
274.4921119734861
 21
438.1631184328536
 72
     1
 10
274.4921119734861
 20
438.1631184328536
 11
273.4528814889447
 21
438.7631184328537
 72
     1
 10
273.4528814889447
 20
438.7631184328537
 11
273.4421119734861
 21
438.7631184328537
 72
     1
 10
273.4421119734861
 20
438.7631184328537
 11
273.4421119734861
 21
473.7631184328536
 72
     1
 10
273.4421119734861
 20
473.7631184328536
 11
267.7421119734861
 21
473.7631184328536
 72
     1
 10
267.7421119734861
 20
473.7631184328536
 11
267.2421119734861
 21
473.2631184328536
 72
     1
 10
267.2421119734861
 20
473.2631184328536
 11
267.2421119734861
 21
438.7631184328537
 72
     1
 10
267.2421119734861
 20
438.7631184328537
 11
266.9921119734861
 21
438.7631184328537
 72
     1
 10
266.9921119734861
 20
438.7631184328537
 11
266.9921119734861
 21
368.7631184328536
 72
     1
 10
266.9921119734861
 20
368.7631184328536
 11
291.9921119734861
 21
368.7631184328536
 72
     1
 10
291.9921119734861
 20
368.7631184328536
 11
291.9921119734861
 21
405.2631184328536
 72
     1
 10
291.9921119734861
 20
405.2631184328536
 11
286.9921119734861
 21
405.2631184328536
 72
     1
 10
286.9921119734861
 20
405.2631184328536
 11
286.9921119734861
 21
407.1631184328537
 97
        0
 75
     0
 76
     1
 52
0.0
 41
1.0
 77
     0
 78
     2
 53
45.0
 43
0.0
 44
0.0
 45
-2.245064030267288
 46
2.245064030267288
 79
     0
 53
135.0
 43
0.0
 44
0.0
 45
-6.735192090801864
 46
2.245064030267289
 79
     2
 49
7.9375
 49
-4.7625
 98
        1
 10
0.0
 20
0.0
  0
HATCH
  5
181
330
1F
100
AcDbEntity
  8
TRATTEGGIO
 62
     4
100
AcDbHatch
 10
0.0
 20
0.0
 30
0.0
210
0.0
220
0.0
230
1.0
  2
ANSI38
 70
     0
 71
     0
 91
        1
 92
        0
 93
       12
 72
     1
 10
284.4921119734864
 20
432.3631184328544
 11
286.9921119734861
 21
432.3631184328536
 72
     1
 10
286.9921119734861
 20
432.3631184328536
 11
286.9921119734861
 21
434.2631184328536
 72
     1
 10
286.9921119734861
 20
434.2631184328536
 11
291.9921119734861
 21
434.2631184328536
 72
     1
 10
291.9921119734861
 20
434.2631184328536
 11
291.9921119734861
 21
438.7631184328537
 72
     1
 10
291.9921119734861
 20
438.7631184328537
 11
291.7421119734861
 21
438.7631184328537
 72
     1
 10
291.7421119734861
 20
438.7631184328537
 11
291.7421119734861
 21
473.2631184328536
 72
     1
 10
291.7421119734861
 20
473.2631184328536
 11
291.2421119734861
 21
473.7631184328536
 72
     1
 10
291.2421119734861
 20
473.7631184328536
 11
285.5421119734861
 21
473.7631184328536
 72
     1
 10
285.5421119734861
 20
473.7631184328536
 11
285.5421119734861
 21
438.7631184328537
 72
     1
 10
285.5421119734861
 20
438.7631184328537
 11
285.5313424580275
 21
438.7631184328537
 72
     1
 10
285.5313424580275
 20
438.7631184328537
 11
284.4921119734861
 21
438.1631184328536
 72
     1
 10
284.4921119734861
 20
438.1631184328536
 11
284.4921119734864
 21
432.3631184328544
 97
        0
 75
     0
 76
     1
 52
0.0
 41
1.0
 77
     0
 78
     2
 53
45.0
 43
0.0
 44
0.0
 45
-2.245064030267288
 46
2.245064030267288
 79
     0
 53
135.0
 43
0.0
 44
0.0
 45
-6.735192090801864
 46
2.245064030267289
 79
     2
 49
7.9375
 49
-4.7625
 98
        1
 10
0.0
 20
0.0
  0
HATCH
  5
182
330
1F
100
AcDbEntity
  8
TRATTEGGIO
 62
     4
100
AcDbHatch
 10
0.0
 20
0.0
 30
0.0
210
0.0
220
0.0
230
1.0
  2
ANSI32
 70
     0
 71
     0
 91
        1
 92
        0
 93
       12
 72
     1
 10
284.3374114351069
 20
495.1306508627477
 11
274.6468125118653
 21
495.1306508627477
 72
     2
 10
274.6468125118653
 20
494.6306508627477
 40
0.5000000000000034
 50
90.0
 51
149.9999999999995
 73
     1
 72
     1
 10
274.2137998099731
 20
494.8806508627477
 11
273.4921119734861
 21
493.6306508627477
 72
     1
 10
273.4921119734861
 20
493.6306508627477
 11
273.4921119734861
 21
458.1306508627477
 72
     1
 10
273.4921119734861
 20
458.1306508627477
 11
274.5921119734861
 21
458.1306508627477
 72
     1
 10
274.5921119734861
 20
458.1306508627477
 11
274.5921119734861
 21
430.2806508627477
 72
     1
 10
274.5921119734861
 20
430.2806508627477
 11
284.3921119734861
 21
430.2806508627477
 72
     1
 10
284.3921119734861
 20
430.2806508627477
 11
284.3921119734861
 21
458.1306508627477
 72
     1
 10
284.3921119734861
 20
458.1306508627477
 11
285.4921119734861
 21
458.1306508627477
 72
     1
 10
285.4921119734861
 20
458.1306508627477
 11
285.4921119734861
 21
493.6306508627477
 72
     1
 10
285.4921119734861
 20
493.6306508627477
 11
284.7704241369991
 21
494.8806508627477
 72
     2
 10
284.3374114351069
 20
494.6306508627477
 40
0.5000000000000034
 50
30.00000000000054
 51
90.0
 73
     1
 97
        0
 75
     0
 76
     1
 52
0.0
 41
1.0
 77
     0
 78
     2
 53
45.0
 43
0.0
 44
0.0
 45
-6.735192090801865
 46
6.735192090801866
 79
     0
 53
45.0
 43
4.49013
 44
0.0
 45
-6.735192090801865
 46
6.735192090801866
 79
     0
 98
        1
 10
0.0
 20
0.0
  0
HATCH
  5
183
330
1F
100
AcDbEntity
  8
TRATTEGGIO
 62
     4
100
AcDbHatch
 10
0.0
 20
0.0
 30
0.0
210
0.0
220
0.0
230
1.0
  2
ANSI32
 70
     0
 71
     0
 91
        1
 92
        0
 93
       11
 72
     1
 10
275.4921119734861
 20
398.1306508627477
 11
275.4921119734861
 21
408.1306508627477
 72
     1
 10
275.4921119734861
 20
408.1306508627477
 11
279.4921119734861
 21
409.9958814953677
 72
     1
 10
279.4921119734861
 20
409.9958814953677
 11
283.4921119734861
 21
408.1306508627477
 72
     1
 10
283.4921119734861
 20
408.1306508627477
 11
283.4921119734861
 21
398.1306508627477
 72
     1
 10
283.4921119734861
 20
398.1306508627477
 11
283.8921119734861
 21
398.1306508627477
 72
     1
 10
283.8921119734861
 20
398.1306508627477
 11
284.3921119734861
 21
398.6306508627478
 72
     1
 10
284.3921119734861
 20
398.6306508627478
 11
284.3921119734863
 21
426.9806508627472
 72
     1
 10
284.3921119734863
 20
426.9806508627472
 11
274.5921119734861
 21
426.9806508627477
 72
     1
 10
274.5921119734861
 20
426.9806508627477
 11
274.5921119734861
 21
398.6306508627478
 72
     1
 10
274.5921119734861
 20
398.6306508627478
 11
275.0921119734861
 21
398.1306508627477
 72
     1
 10
275.0921119734861
 20
398.1306508627477
 11
275.4921119734861
 21
398.1306508627477
 97
        0
 75
     0
 76
     1
 52
0.0
 41
1.0
 77
     0
 78
     2
 53
45.0
 43
0.0
 44
0.0
 45
-6.735192090801865
 46
6.735192090801866
 79
     0
 53
45.0
 43
4.49013
 44
0.0
 45
-6.735192090801865
 46
6.735192090801866
 79
     0
 98
        1
 10
0.0
 20
0.0
  0
HATCH
  5
184
330
1F
100
AcDbEntity
  8
TRATTEGGIO
 62
     4
100
AcDbHatch
 10
0.0
 20
0.0
 30
0.0
210
0.0
220
0.0
230
1.0
  2
ANSI32
 70
     0
 71
     0
 91
        1
 92
        0
 93
       14
 72
     1
 10
289.4921119734861
 20
430.1494218150026
 11
291.4921119734861
 21
430.1494218150026
 72
     1
 10
291.4921119734861
 20
430.1494218150026
 11
291.4921119734861
 21
432.1306508627477
 72
     1
 10
291.4921119734861
 20
432.1306508627477
 11
287.4921119734861
 21
432.1306508627477
 72
     1
 10
287.4921119734861
 20
432.1306508627477
 11
287.4921119734861
 21
430.6306508627476
 72
     1
 10
287.4921119734861
 20
430.6306508627476
 11
275.8421119734861
 21
430.6306508627476
 72
     1
 10
275.8421119734861
 20
430.6306508627476
 11
275.4921119735234
 21
430.2806508627314
 72
     1
 10
275.4921119735234
 20
430.2806508627314
 11
275.4921119735234
 21
426.980650862764
 72
     1
 10
275.4921119735234
 20
426.980650862764
 11
275.8421119734861
 21
426.6306508627477
 72
     1
 10
275.8421119734861
 20
426.6306508627477
 11
287.4921119734861
 21
426.6306508627477
 72
     1
 10
287.4921119734861
 20
426.6306508627477
 11
287.4921119734861
 21
425.1306508627477
 72
     1
 10
287.4921119734861
 20
425.1306508627477
 11
291.4921119734861
 21
425.1306508627477
 72
     1
 10
291.4921119734861
 20
425.1306508627477
 11
291.4921119734861
 21
427.1118799104928
 72
     1
 10
291.4921119734861
 20
427.1118799104928
 11
289.4921119734861
 21
427.1118799104928
 72
     1
 10
289.4921119734861
 20
427.1118799104928
 11
289.4921119734861
 21
430.1494218150026
 97
        0
 75
     0
 76
     1
 52
90.0
 41
1.0
 77
     0
 78
     2
 53
135.0000000000002
 43
0.0
 44
0.0
 45
-6.735192090801843
 46
-6.735192090801889
 79
     0
 53
135.0000000000002
 43
-0.0000000000000157
 44
4.49013
 45
-6.735192090801843
 46
-6.735192090801889
 79
     0
 98
        1
 10
0.0
 20
0.0
  0
HATCH
  5
185
330
1F
100
AcDbEntity
  8
TRATTEGGIO
 62
     4
100
AcDbHatch
 10
0.0
 20
0.0
 30
0.0
210
0.0
220
0.0
230
1.0
  2
Acciaio e ghisa di acciaio DIN 201
 70
     0
 71
     0
 91
        1
 92
        0
 93
        1
 72
     4
 94
        3
 73
     1
 74
     0
 95
       11
 96
        7
 40
0.0
 40
0.0
 40
0.0
 40
0.0
 40
0.5
 40
0.5
 40
0.5
 40
1.0
 40
1.0
 40
1.0
 40
1.0
 10
275.9921119734861
 20
387.3631651015247
 42
0.9863717826283678
 10
275.9921119734861
 20
386.7131651015246
 42
0.328790594209456
 10
276.6421119734861
 20
386.7131651015246
 42
0.328790594209456
 10
276.6421119734861
 20
387.3631651015247
 42
0.9863717826283678
 10
276.6421119734861
 20
388.0131651015247
 42
0.328790594209456
 10
275.9921119734861
 20
388.0131651015247
 42
0.328790594209456
 10
275.9921119734861
 20
387.3631651015247
 42
0.9863717826283678
 97
        0
 75
     0
 76
     2
 52
0.0
 41
1.0
 77
     0
 78
     4
 53
45.00000209717174
 43
0.0
 44
0.0
 45
-13.47038467465416
 46
13.47038368855329
 79
     0
 53
45.00000209717174
 43
4.490128
 44
0.0
 45
-13.47038467465416
 46
13.47038368855329
 79
     0
 53
45.00000209717174
 43
8.980256
 44
0.0
 45
-13.47038467465416
 46
13.47038368855329
 79
     0
 53
45.00000209717174
 43
13.47038
 44
0.0
 45
-13.47038467465416
 46
13.47038368855329
 79
     0
 98
        1
 10
0.0
 20
0.0
  0
HATCH
  5
186
330
1F
100
AcDbEntity
  8
TRATTEGGIO
 62
     4
100
AcDbHatch
 10
0.0
 20
0.0
 30
0.0
210
0.0
220
0.0
230
1.0
  2
Acciaio e ghisa di acciaio DIN 201
 70
     0
 71
     0
 91
        1
 92
        0
 93
        1
 72
     4
 94
        3
 73
     1
 74
     0
 95
       11
 96
        7
 40
0.0
 40
0.0
 40
0.0
 40
0.0
 40
0.5
 40
0.5
 40
0.5
 40
1.0
 40
1.0
 40
1.0
 40
1.0
 10
282.9921119734861
 20
388.3631651015247
 42
0.9863717826283669
 10
282.9921119734861
 20
389.0131651015247
 42
0.3287905942094557
 10
282.3421119734861
 20
389.0131651015247
 42
0.3287905942094557
 10
282.3421119734861
 20
388.3631651015247
 42
0.9863717826283669
 10
282.3421119734861
 20
387.7131651015246
 42
0.3287905942094557
 10
282.9921119734861
 20
387.7131651015246
 42
0.3287905942094557
 10
282.9921119734861
 20
388.3631651015247
 42
0.9863717826283669
 97
        0
 75
     0
 76
     2
 52
0.0
 41
1.0
 77
     0
 78
     4
 53
45.00000209717174
 43
0.0
 44
0.0
 45
-13.47038467465416
 46
13.47038368855329
 79
     0
 53
45.00000209717174
 43
4.490128
 44
0.0
 45
-13.47038467465416
 46
13.47038368855329
 79
     0
 53
45.00000209717174
 43
8.980256
 44
0.0
 45
-13.47038467465416
 46
13.47038368855329
 79
     0
 53
45.00000209717174
 43
13.47038
 44
0.0
 45
-13.47038467465416
 46
13.47038368855329
 79
     0
 98
        1
 10
0.0
 20
0.0
  0
HATCH
  5
187
330
1F
100
AcDbEntity
  8
TRATTEGGIO
 62
     4
100
AcDbHatch
 10
0.0
 20
0.0
 30
0.0
210
0.0
220
0.0
230
1.0
  2
Acciaio e ghisa di acciaio DIN 201
 70
     0
 71
     0
 91
        1
 92
        0
 93
        1
 72
     4
 94
        3
 73
     1
 74
     0
 95
       11
 96
        7
 40
0.0
 40
0.0
 40
0.0
 40
0.0
 40
0.5
 40
0.5
 40
0.5
 40
1.0
 40
1.0
 40
1.0
 40
1.0
 10
275.9921119734861
 20
389.3631651015247
 42
0.9863717826283682
 10
275.9921119734861
 20
388.7131651015246
 42
0.3287905942094561
 10
276.6421119734861
 20
388.7131651015246
 42
0.3287905942094561
 10
276.6421119734861
 20
389.3631651015247
 42
0.9863717826283682
 10
276.6421119734861
 20
390.0131651015247
 42
0.3287905942094561
 10
275.9921119734861
 20
390.0131651015247
 42
0.3287905942094561
 10
275.9921119734861
 20
389.3631651015247
 42
0.9863717826283682
 97
        0
 75
     0
 76
     2
 52
0.0
 41
1.0
 77
     0
 78
     4
 53
45.00000209717174
 43
0.0
 44
0.0
 45
-13.47038467465416
 46
13.47038368855329
 79
     0
 53
45.00000209717174
 43
4.490128
 44
0.0
 45
-13.47038467465416
 46
13.47038368855329
 79
     0
 53
45.00000209717174
 43
8.980256
 44
0.0
 45
-13.47038467465416
 46
13.47038368855329
 79
     0
 53
45.00000209717174
 43
13.47038
 44
0.0
 45
-13.47038467465416
 46
13.47038368855329
 79
     0
 98
        1
 10
0.0
 20
0.0
  0
HATCH
  5
188
330
1F
100
AcDbEntity
  8
TRATTEGGIO
 62
     4
100
AcDbHatch
 10
0.0
 20
0.0
 30
0.0
210
0.0
220
0.0
230
1.0
  2
Acciaio e ghisa di acciaio DIN 201
 70
     0
 71
     0
 91
        1
 92
        0
 93
        1
 72
     4
 94
        3
 73
     1
 74
     0
 95
       11
 96
        7
 40
0.0
 40
0.0
 40
0.0
 40
0.0
 40
0.5
 40
0.5
 40
0.5
 40
1.0
 40
1.0
 40
1.0
 40
1.0
 10
282.9921119734861
 20
390.3631651015247
 42
0.9863717826283669
 10
282.9921119734861
 20
391.0131651015247
 42
0.3287905942094557
 10
282.3421119734861
 20
391.0131651015247
 42
0.3287905942094557
 10
282.3421119734861
 20
390.3631651015247
 42
0.9863717826283669
 10
282.3421119734861
 20
389.7131651015246
 42
0.3287905942094557
 10
282.9921119734861
 20
389.7131651015246
 42
0.3287905942094557
 10
282.9921119734861
 20
390.3631651015247
 42
0.9863717826283669
 97
        0
 75
     0
 76
     2
 52
0.0
 41
1.0
 77
     0
 78
     4
 53
45.00000209717174
 43
0.0
 44
0.0
 45
-13.47038467465416
 46
13.47038368855329
 79
     0
 53
45.00000209717174
 43
4.490128
 44
0.0
 45
-13.47038467465416
 46
13.47038368855329
 79
     0
 53
45.00000209717174
 43
8.980256
 44
0.0
 45
-13.47038467465416
 46
13.47038368855329
 79
     0
 53
45.00000209717174
 43
13.47038
 44
0.0
 45
-13.47038467465416
 46
13.47038368855329
 79
     0
 98
        1
 10
0.0
 20
0.0
  0
HATCH
  5
189
330
1F
100
AcDbEntity
  8
TRATTEGGIO
 62
     4
100
AcDbHatch
 10
0.0
 20
0.0
 30
0.0
210
0.0
220
0.0
230
1.0
  2
Acciaio e ghisa di acciaio DIN 201
 70
     0
 71
     0
 91
        1
 92
        0
 93
        1
 72
     4
 94
        3
 73
     1
 74
     0
 95
       11
 96
        7
 40
0.0
 40
0.0
 40
0.0
 40
0.0
 40
0.5
 40
0.5
 40
0.5
 40
1.0
 40
1.0
 40
1.0
 40
1.0
 10
275.9921119734861
 20
391.3631651015247
 42
0.9863717826283682
 10
275.9921119734861
 20
390.7131651015246
 42
0.3287905942094561
 10
276.6421119734861
 20
390.7131651015246
 42
0.3287905942094561
 10
276.6421119734861
 20
391.3631651015247
 42
0.9863717826283682
 10
276.6421119734861
 20
392.0131651015246
 42
0.3287905942094561
 10
275.9921119734861
 20
392.0131651015246
 42
0.3287905942094561
 10
275.9921119734861
 20
391.3631651015247
 42
0.9863717826283682
 97
        0
 75
     0
 76
     2
 52
0.0
 41
1.0
 77
     0
 78
     4
 53
45.00000209717174
 43
0.0
 44
0.0
 45
-13.47038467465416
 46
13.47038368855329
 79
     0
 53
45.00000209717174
 43
4.490128
 44
0.0
 45
-13.47038467465416
 46
13.47038368855329
 79
     0
 53
45.00000209717174
 43
8.980256
 44
0.0
 45
-13.47038467465416
 46
13.47038368855329
 79
     0
 53
45.00000209717174
 43
13.47038
 44
0.0
 45
-13.47038467465416
 46
13.47038368855329
 79
     0
 98
        1
 10
0.0
 20
0.0
  0
HATCH
  5
18A
330
1F
100
AcDbEntity
  8
TRATTEGGIO
 62
     4
100
AcDbHatch
 10
0.0
 20
0.0
 30
0.0
210
0.0
220
0.0
230
1.0
  2
Acciaio e ghisa di acciaio DIN 201
 70
     0
 71
     0
 91
        1
 92
        0
 93
        1
 72
     4
 94
        3
 73
     1
 74
     0
 95
       11
 96
        7
 40
0.0
 40
0.0
 40
0.0
 40
0.0
 40
0.5
 40
0.5
 40
0.5
 40
1.0
 40
1.0
 40
1.0
 40
1.0
 10
282.9921119734861
 20
392.3631651015247
 42
0.9863717826283669
 10
282.9921119734861
 20
393.0131651015247
 42
0.3287905942094557
 10
282.3421119734861
 20
393.0131651015247
 42
0.3287905942094557
 10
282.3421119734861
 20
392.3631651015247
 42
0.9863717826283669
 10
282.3421119734861
 20
391.7131651015246
 42
0.3287905942094557
 10
282.9921119734861
 20
391.7131651015246
 42
0.3287905942094557
 10
282.9921119734861
 20
392.3631651015247
 42
0.9863717826283669
 97
        0
 75
     0
 76
     2
 52
0.0
 41
1.0
 77
     0
 78
     4
 53
45.00000209717174
 43
0.0
 44
0.0
 45
-13.47038467465416
 46
13.47038368855329
 79
     0
 53
45.00000209717174
 43
4.490128
 44
0.0
 45
-13.47038467465416
 46
13.47038368855329
 79
     0
 53
45.00000209717174
 43
8.980256
 44
0.0
 45
-13.47038467465416
 46
13.47038368855329
 79
     0
 53
45.00000209717174
 43
13.47038
 44
0.0
 45
-13.47038467465416
 46
13.47038368855329
 79
     0
 98
        1
 10
0.0
 20
0.0
  0
HATCH
  5
18B
330
1F
100
AcDbEntity
  8
TRATTEGGIO
 62
     4
100
AcDbHatch
 10
0.0
 20
0.0
 30
0.0
210
0.0
220
0.0
230
1.0
  2
Acciaio e ghisa di acciaio DIN 201
 70
     0
 71
     0
 91
        1
 92
        0
 93
        1
 72
     4
 94
        3
 73
     1
 74
     0
 95
       11
 96
        7
 40
0.0
 40
0.0
 40
0.0
 40
0.0
 40
0.5
 40
0.5
 40
0.5
 40
1.0
 40
1.0
 40
1.0
 40
1.0
 10
275.9921119734861
 20
393.3631651015247
 42
0.9863717826283678
 10
275.9921119734861
 20
392.7131651015247
 42
0.3287905942094559
 10
276.6421119734861
 20
392.7131651015247
 42
0.3287905942094559
 10
276.6421119734861
 20
393.3631651015247
 42
0.9863717826283678
 10
276.6421119734861
 20
394.0131651015247
 42
0.3287905942094559
 10
275.9921119734861
 20
394.0131651015247
 42
0.3287905942094559
 10
275.9921119734861
 20
393.3631651015247
 42
0.9863717826283678
 97
        0
 75
     0
 76
     2
 52
0.0
 41
1.0
 77
     0
 78
     4
 53
45.00000209717174
 43
0.0
 44
0.0
 45
-13.47038467465416
 46
13.47038368855329
 79
     0
 53
45.00000209717174
 43
4.490128
 44
0.0
 45
-13.47038467465416
 46
13.47038368855329
 79
     0
 53
45.00000209717174
 43
8.980256
 44
0.0
 45
-13.47038467465416
 46
13.47038368855329
 79
     0
 53
45.00000209717174
 43
13.47038
 44
0.0
 45
-13.47038467465416
 46
13.47038368855329
 79
     0
 98
        1
 10
0.0
 20
0.0
  0
HATCH
  5
18C
330
1F
100
AcDbEntity
  8
TRATTEGGIO
 62
     4
100
AcDbHatch
 10
0.0
 20
0.0
 30
0.0
210
0.0
220
0.0
230
1.0
  2
Acciaio e ghisa di acciaio DIN 201
 70
     0
 71
     0
 91
        1
 92
        0
 93
        1
 72
     4
 94
        3
 73
     1
 74
     0
 95
       11
 96
        7
 40
0.0
 40
0.0
 40
0.0
 40
0.0
 40
0.5
 40
0.5
 40
0.5
 40
1.0
 40
1.0
 40
1.0
 40
1.0
 10
282.9921119734861
 20
394.3631651015247
 42
0.9863717826283669
 10
282.9921119734861
 20
395.0131651015247
 42
0.3287905942094557
 10
282.3421119734861
 20
395.0131651015247
 42
0.3287905942094557
 10
282.3421119734861
 20
394.3631651015247
 42
0.9863717826283669
 10
282.3421119734861
 20
393.7131651015246
 42
0.3287905942094557
 10
282.9921119734861
 20
393.7131651015246
 42
0.3287905942094557
 10
282.9921119734861
 20
394.3631651015247
 42
0.9863717826283669
 97
        0
 75
     0
 76
     2
 52
0.0
 41
1.0
 77
     0
 78
     4
 53
45.00000209717174
 43
0.0
 44
0.0
 45
-13.47038467465416
 46
13.47038368855329
 79
     0
 53
45.00000209717174
 43
4.490128
 44
0.0
 45
-13.47038467465416
 46
13.47038368855329
 79
     0
 53
45.00000209717174
 43
8.980256
 44
0.0
 45
-13.47038467465416
 46
13.47038368855329
 79
     0
 53
45.00000209717174
 43
13.47038
 44
0.0
 45
-13.47038467465416
 46
13.47038368855329
 79
     0
 98
        1
 10
0.0
 20
0.0
  0
HATCH
  5
18D
330
1F
100
AcDbEntity
  8
TRATTEGGIO
 62
     4
100
AcDbHatch
 10
0.0
 20
0.0
 30
0.0
210
0.0
220
0.0
230
1.0
  2
Acciaio e ghisa di acciaio DIN 201
 70
     0
 71
     0
 91
        1
 92
        0
 93
        1
 72
     4
 94
        3
 73
     1
 74
     0
 95
       11
 96
        7
 40
0.0
 40
0.0
 40
0.0
 40
0.0
 40
0.5
 40
0.5
 40
0.5
 40
1.0
 40
1.0
 40
1.0
 40
1.0
 10
275.9921119734861
 20
395.3631651015247
 42
0.9863717826283678
 10
275.9921119734861
 20
394.7131651015246
 42
0.3287905942094559
 10
276.6421119734861
 20
394.7131651015246
 42
0.3287905942094559
 10
276.6421119734861
 20
395.3631651015247
 42
0.9863717826283678
 10
276.6421119734861
 20
396.0131651015247
 42
0.3287905942094559
 10
275.9921119734861
 20
396.0131651015247
 42
0.3287905942094559
 10
275.9921119734861
 20
395.3631651015247
 42
0.9863717826283678
 97
        0
 75
     0
 76
     2
 52
0.0
 41
1.0
 77
     0
 78
     4
 53
45.00000209717174
 43
0.0
 44
0.0
 45
-13.47038467465416
 46
13.47038368855329
 79
     0
 53
45.00000209717174
 43
4.490128
 44
0.0
 45
-13.47038467465416
 46
13.47038368855329
 79
     0
 53
45.00000209717174
 43
8.980256
 44
0.0
 45
-13.47038467465416
 46
13.47038368855329
 79
     0
 53
45.00000209717174
 43
13.47038
 44
0.0
 45
-13.47038467465416
 46
13.47038368855329
 79
     0
 98
        1
 10
0.0
 20
0.0
  0
HATCH
  5
18E
330
1F
100
AcDbEntity
  8
TRATTEGGIO
 62
     4
100
AcDbHatch
 10
0.0
 20
0.0
 30
0.0
210
0.0
220
0.0
230
1.0
  2
Acciaio e ghisa di acciaio DIN 201
 70
     0
 71
     0
 91
        1
 92
        0
 93
        1
 72
     4
 94
        3
 73
     1
 74
     0
 95
       11
 96
        7
 40
0.0
 40
0.0
 40
0.0
 40
0.0
 40
0.5
 40
0.5
 40
0.5
 40
1.0
 40
1.0
 40
1.0
 40
1.0
 10
282.9921119734861
 20
396.3631651015247
 42
0.9863717826283669
 10
282.9921119734861
 20
397.0131651015247
 42
0.3287905942094557
 10
282.3421119734861
 20
397.0131651015247
 42
0.3287905942094557
 10
282.3421119734861
 20
396.3631651015247
 42
0.9863717826283669
 10
282.3421119734861
 20
395.7131651015247
 42
0.3287905942094557
 10
282.9921119734861
 20
395.7131651015247
 42
0.3287905942094557
 10
282.9921119734861
 20
396.3631651015247
 42
0.9863717826283669
 97
        0
 75
     0
 76
     2
 52
0.0
 41
1.0
 77
     0
 78
     4
 53
45.00000209717174
 43
0.0
 44
0.0
 45
-13.47038467465416
 46
13.47038368855329
 79
     0
 53
45.00000209717174
 43
4.490128
 44
0.0
 45
-13.47038467465416
 46
13.47038368855329
 79
     0
 53
45.00000209717174
 43
8.980256
 44
0.0
 45
-13.47038467465416
 46
13.47038368855329
 79
     0
 53
45.00000209717174
 43
13.47038
 44
0.0
 45
-13.47038467465416
 46
13.47038368855329
 79
     0
 98
        1
 10
0.0
 20
0.0
  0
HATCH
  5
18F
330
1F
100
AcDbEntity
  8
TRATTEGGIO
 62
     4
100
AcDbHatch
 10
0.0
 20
0.0
 30
0.0
210
0.0
220
0.0
230
1.0
  2
Acciaio e ghisa di acciaio DIN 201
 70
     0
 71
     0
 91
        1
 92
        0
 93
        1
 72
     4
 94
        3
 73
     1
 74
     0
 95
       11
 96
        7
 40
0.0
 40
0.0
 40
0.0
 40
0.0
 40
0.5
 40
0.5
 40
0.5
 40
1.0
 40
1.0
 40
1.0
 40
1.0
 10
275.9921119734861
 20
397.3631651015247
 42
0.9863717826283678
 10
275.9921119734861
 20
396.7131651015247
 42
0.3287905942094559
 10
276.6421119734861
 20
396.7131651015247
 42
0.3287905942094559
 10
276.6421119734861
 20
397.3631651015247
 42
0.9863717826283678
 10
276.6421119734861
 20
398.0131651015247
 42
0.3287905942094559
 10
275.9921119734861
 20
398.0131651015247
 42
0.3287905942094559
 10
275.9921119734861
 20
397.3631651015247
 42
0.9863717826283678
 97
        0
 75
     0
 76
     2
 52
0.0
 41
1.0
 77
     0
 78
     4
 53
45.00000209717174
 43
0.0
 44
0.0
 45
-13.47038467465416
 46
13.47038368855329
 79
     0
 53
45.00000209717174
 43
4.490128
 44
0.0
 45
-13.47038467465416
 46
13.47038368855329
 79
     0
 53
45.00000209717174
 43
8.980256
 44
0.0
 45
-13.47038467465416
 46
13.47038368855329
 79
     0
 53
45.00000209717174
 43
13.47038
 44
0.0
 45
-13.47038467465416
 46
13.47038368855329
 79
     0
 98
        1
 10
0.0
 20
0.0
  0
HATCH
  5
190
330
1F
100
AcDbEntity
  8
TRATTEGGIO
 62
     4
100
AcDbHatch
 10
0.0
 20
0.0
 30
0.0
210
0.0
220
0.0
230
1.0
  2
Acciaio e ghisa di acciaio DIN 201
 70
     0
 71
     0
 91
        1
 92
        0
 93
        1
 72
     4
 94
        3
 73
     1
 74
     0
 95
       11
 96
        7
 40
0.0
 40
0.0
 40
0.0
 40
0.0
 40
0.5
 40
0.5
 40
0.5
 40
1.0
 40
1.0
 40
1.0
 40
1.0
 10
282.9921119734861
 20
398.3631651015247
 42
0.9863717826283669
 10
282.9921119734861
 20
399.0131651015247
 42
0.3287905942094557
 10
282.3421119734861
 20
399.0131651015247
 42
0.3287905942094557
 10
282.3421119734861
 20
398.3631651015247
 42
0.9863717826283669
 10
282.3421119734861
 20
397.7131651015247
 42
0.3287905942094557
 10
282.9921119734861
 20
397.7131651015247
 42
0.3287905942094557
 10
282.9921119734861
 20
398.3631651015247
 42
0.9863717826283669
 97
        0
 75
     0
 76
     2
 52
0.0
 41
1.0
 77
     0
 78
     4
 53
45.00000209717174
 43
0.0
 44
0.0
 45
-13.47038467465416
 46
13.47038368855329
 79
     0
 53
45.00000209717174
 43
4.490128
 44
0.0
 45
-13.47038467465416
 46
13.47038368855329
 79
     0
 53
45.00000209717174
 43
8.980256
 44
0.0
 45
-13.47038467465416
 46
13.47038368855329
 79
     0
 53
45.00000209717174
 43
13.47038
 44
0.0
 45
-13.47038467465416
 46
13.47038368855329
 79
     0
 98
        1
 10
0.0
 20
0.0
  0
HATCH
  5
191
330
1F
100
AcDbEntity
  8
TRATTEGGIO
 62
     4
100
AcDbHatch
 10
0.0
 20
0.0
 30
0.0
210
0.0
220
0.0
230
1.0
  2
Acciaio e ghisa di acciaio DIN 201
 70
     0
 71
     0
 91
        1
 92
        0
 93
        1
 72
     4
 94
        3
 73
     1
 74
     0
 95
       11
 96
        7
 40
0.0
 40
0.0
 40
0.0
 40
0.0
 40
0.5
 40
0.5
 40
0.5
 40
1.0
 40
1.0
 40
1.0
 40
1.0
 10
275.9921119734861
 20
399.3631651015247
 42
0.9863717826283678
 10
275.9921119734861
 20
398.7131651015247
 42
0.3287905942094559
 10
276.6421119734861
 20
398.7131651015247
 42
0.3287905942094559
 10
276.6421119734861
 20
399.3631651015247
 42
0.9863717826283678
 10
276.6421119734861
 20
400.0131651015246
 42
0.3287905942094559
 10
275.9921119734861
 20
400.0131651015246
 42
0.3287905942094559
 10
275.9921119734861
 20
399.3631651015247
 42
0.9863717826283678
 97
        0
 75
     0
 76
     2
 52
0.0
 41
1.0
 77
     0
 78
     4
 53
45.00000209717174
 43
0.0
 44
0.0
 45
-13.47038467465416
 46
13.47038368855329
 79
     0
 53
45.00000209717174
 43
4.490128
 44
0.0
 45
-13.47038467465416
 46
13.47038368855329
 79
     0
 53
45.00000209717174
 43
8.980256
 44
0.0
 45
-13.47038467465416
 46
13.47038368855329
 79
     0
 53
45.00000209717174
 43
13.47038
 44
0.0
 45
-13.47038467465416
 46
13.47038368855329
 79
     0
 98
        1
 10
0.0
 20
0.0
  0
HATCH
  5
192
330
1F
100
AcDbEntity
  8
TRATTEGGIO
 62
     4
100
AcDbHatch
 10
0.0
 20
0.0
 30
0.0
210
0.0
220
0.0
230
1.0
  2
Acciaio e ghisa di acciaio DIN 201
 70
     0
 71
     0
 91
        1
 92
        0
 93
        1
 72
     4
 94
        3
 73
     1
 74
     0
 95
       11
 96
        7
 40
0.0
 40
0.0
 40
0.0
 40
0.0
 40
0.5
 40
0.5
 40
0.5
 40
1.0
 40
1.0
 40
1.0
 40
1.0
 10
282.9921119734861
 20
400.3631651015247
 42
0.9863717826283669
 10
282.9921119734861
 20
401.0131651015247
 42
0.3287905942094557
 10
282.3421119734861
 20
401.0131651015247
 42
0.3287905942094557
 10
282.3421119734861
 20
400.3631651015247
 42
0.9863717826283669
 10
282.3421119734861
 20
399.7131651015246
 42
0.3287905942094557
 10
282.9921119734861
 20
399.7131651015246
 42
0.3287905942094557
 10
282.9921119734861
 20
400.3631651015247
 42
0.9863717826283669
 97
        0
 75
     0
 76
     2
 52
0.0
 41
1.0
 77
     0
 78
     4
 53
45.00000209717174
 43
0.0
 44
0.0
 45
-13.47038467465416
 46
13.47038368855329
 79
     0
 53
45.00000209717174
 43
4.490128
 44
0.0
 45
-13.47038467465416
 46
13.47038368855329
 79
     0
 53
45.00000209717174
 43
8.980256
 44
0.0
 45
-13.47038467465416
 46
13.47038368855329
 79
     0
 53
45.00000209717174
 43
13.47038
 44
0.0
 45
-13.47038467465416
 46
13.47038368855329
 79
     0
 98
        1
 10
0.0
 20
0.0
  0
HATCH
  5
193
330
1F
100
AcDbEntity
  8
TRATTEGGIO
 62
     4
100
AcDbHatch
 10
0.0
 20
0.0
 30
0.0
210
0.0
220
0.0
230
1.0
  2
Acciaio e ghisa di acciaio DIN 201
 70
     0
 71
     0
 91
        1
 92
        0
 93
        1
 72
     4
 94
        3
 73
     1
 74
     0
 95
       11
 96
        7
 40
0.0
 40
0.0
 40
0.0
 40
0.0
 40
0.5
 40
0.5
 40
0.5
 40
1.0
 40
1.0
 40
1.0
 40
1.0
 10
275.9921119734861
 20
401.3631651015247
 42
0.9863717826283678
 10
275.9921119734861
 20
400.7131651015246
 42
0.3287905942094559
 10
276.6421119734861
 20
400.7131651015246
 42
0.3287905942094559
 10
276.6421119734861
 20
401.3631651015247
 42
0.9863717826283678
 10
276.6421119734861
 20
402.0131651015247
 42
0.3287905942094559
 10
275.9921119734861
 20
402.0131651015247
 42
0.3287905942094559
 10
275.9921119734861
 20
401.3631651015247
 42
0.9863717826283678
 97
        0
 75
     0
 76
     2
 52
0.0
 41
1.0
 77
     0
 78
     4
 53
45.00000209717174
 43
0.0
 44
0.0
 45
-13.47038467465416
 46
13.47038368855329
 79
     0
 53
45.00000209717174
 43
4.490128
 44
0.0
 45
-13.47038467465416
 46
13.47038368855329
 79
     0
 53
45.00000209717174
 43
8.980256
 44
0.0
 45
-13.47038467465416
 46
13.47038368855329
 79
     0
 53
45.00000209717174
 43
13.47038
 44
0.0
 45
-13.47038467465416
 46
13.47038368855329
 79
     0
 98
        1
 10
0.0
 20
0.0
  0
HATCH
  5
194
330
1F
100
AcDbEntity
  8
TRATTEGGIO
 62
     4
100
AcDbHatch
 10
0.0
 20
0.0
 30
0.0
210
0.0
220
0.0
230
1.0
  2
Acciaio e ghisa di acciaio DIN 201
 70
     0
 71
     0
 91
        1
 92
        0
 93
        1
 72
     4
 94
        3
 73
     1
 74
     0
 95
       11
 96
        7
 40
0.0
 40
0.0
 40
0.0
 40
0.0
 40
0.5
 40
0.5
 40
0.5
 40
1.0
 40
1.0
 40
1.0
 40
1.0
 10
282.9921119734861
 20
402.3631651015247
 42
0.9863717826283669
 10
282.9921119734861
 20
403.0131651015246
 42
0.3287905942094557
 10
282.3421119734861
 20
403.0131651015246
 42
0.3287905942094557
 10
282.3421119734861
 20
402.3631651015247
 42
0.9863717826283669
 10
282.3421119734861
 20
401.7131651015247
 42
0.3287905942094557
 10
282.9921119734861
 20
401.7131651015247
 42
0.3287905942094557
 10
282.9921119734861
 20
402.3631651015247
 42
0.9863717826283669
 97
        0
 75
     0
 76
     2
 52
0.0
 41
1.0
 77
     0
 78
     4
 53
45.00000209717174
 43
0.0
 44
0.0
 45
-13.47038467465416
 46
13.47038368855329
 79
     0
 53
45.00000209717174
 43
4.490128
 44
0.0
 45
-13.47038467465416
 46
13.47038368855329
 79
     0
 53
45.00000209717174
 43
8.980256
 44
0.0
 45
-13.47038467465416
 46
13.47038368855329
 79
     0
 53
45.00000209717174
 43
13.47038
 44
0.0
 45
-13.47038467465416
 46
13.47038368855329
 79
     0
 98
        1
 10
0.0
 20
0.0
  0
HATCH
  5
195
330
1F
100
AcDbEntity
  8
TRATTEGGIO
 62
     4
100
AcDbHatch
 10
0.0
 20
0.0
 30
0.0
210
0.0
220
0.0
230
1.0
  2
Acciaio e ghisa di acciaio DIN 201
 70
     0
 71
     0
 91
        1
 92
        0
 93
        1
 72
     4
 94
        3
 73
     1
 74
     0
 95
       11
 96
        7
 40
0.0
 40
0.0
 40
0.0
 40
0.0
 40
0.5
 40
0.5
 40
0.5
 40
1.0
 40
1.0
 40
1.0
 40
1.0
 10
275.9921119734861
 20
403.3631651015247
 42
0.9863717826283678
 10
275.9921119734861
 20
402.7131651015247
 42
0.3287905942094559
 10
276.6421119734861
 20
402.7131651015247
 42
0.3287905942094559
 10
276.6421119734861
 20
403.3631651015247
 42
0.9863717826283678
 10
276.6421119734861
 20
404.0131651015246
 42
0.3287905942094559
 10
275.9921119734861
 20
404.0131651015246
 42
0.3287905942094559
 10
275.9921119734861
 20
403.3631651015247
 42
0.9863717826283678
 97
        0
 75
     0
 76
     2
 52
0.0
 41
1.0
 77
     0
 78
     4
 53
45.00000209717174
 43
0.0
 44
0.0
 45
-13.47038467465416
 46
13.47038368855329
 79
     0
 53
45.00000209717174
 43
4.490128
 44
0.0
 45
-13.47038467465416
 46
13.47038368855329
 79
     0
 53
45.00000209717174
 43
8.980256
 44
0.0
 45
-13.47038467465416
 46
13.47038368855329
 79
     0
 53
45.00000209717174
 43
13.47038
 44
0.0
 45
-13.47038467465416
 46
13.47038368855329
 79
     0
 98
        1
 10
0.0
 20
0.0
  0
HATCH
  5
196
330
1F
100
AcDbEntity
  8
TRATTEGGIO
 62
     4
100
AcDbHatch
 10
0.0
 20
0.0
 30
0.0
210
0.0
220
0.0
230
1.0
  2
Acciaio e ghisa di acciaio DIN 201
 70
     0
 71
     0
 91
        1
 92
        0
 93
        1
 72
     4
 94
        3
 73
     1
 74
     0
 95
       11
 96
        7
 40
0.0
 40
0.0
 40
0.0
 40
0.0
 40
0.5
 40
0.5
 40
0.5
 40
1.0
 40
1.0
 40
1.0
 40
1.0
 10
282.9921119734861
 20
404.3631651015247
 42
0.9863717826283663
 10
282.9921119734861
 20
405.0131651015247
 42
0.3287905942094555
 10
282.3421119734861
 20
405.0131651015247
 42
0.3287905942094555
 10
282.3421119734861
 20
404.3631651015247
 42
0.9863717826283663
 10
282.3421119734861
 20
403.7131651015247
 42
0.3287905942094555
 10
282.9921119734861
 20
403.7131651015247
 42
0.3287905942094555
 10
282.9921119734861
 20
404.3631651015247
 42
0.9863717826283663
 97
        0
 75
     0
 76
     2
 52
0.0
 41
1.0
 77
     0
 78
     4
 53
45.00000209717174
 43
0.0
 44
0.0
 45
-13.47038467465416
 46
13.47038368855329
 79
     0
 53
45.00000209717174
 43
4.490128
 44
0.0
 45
-13.47038467465416
 46
13.47038368855329
 79
     0
 53
45.00000209717174
 43
8.980256
 44
0.0
 45
-13.47038467465416
 46
13.47038368855329
 79
     0
 53
45.00000209717174
 43
13.47038
 44
0.0
 45
-13.47038467465416
 46
13.47038368855329
 79
     0
 98
        1
 10
0.0
 20
0.0
  0
HATCH
  5
197
330
1F
100
AcDbEntity
  8
TRATTEGGIO
 62
     4
100
AcDbHatch
 10
0.0
 20
0.0
 30
0.0
210
0.0
220
0.0
230
1.0
  2
Acciaio e ghisa di acciaio DIN 201
 70
     0
 71
     0
 91
        1
 92
        0
 93
        1
 72
     4
 94
        3
 73
     1
 74
     0
 95
       11
 96
        7
 40
0.0
 40
0.0
 40
0.0
 40
0.0
 40
0.5
 40
0.5
 40
0.5
 40
1.0
 40
1.0
 40
1.0
 40
1.0
 10
275.9921119734861
 20
405.3631651015247
 42
0.9863717826283676
 10
275.9921119734861
 20
404.7131651015247
 42
0.3287905942094559
 10
276.6421119734861
 20
404.7131651015247
 42
0.3287905942094559
 10
276.6421119734861
 20
405.3631651015247
 42
0.9863717826283676
 10
276.6421119734861
 20
406.0131651015246
 42
0.3287905942094559
 10
275.9921119734861
 20
406.0131651015246
 42
0.3287905942094559
 10
275.9921119734861
 20
405.3631651015247
 42
0.9863717826283676
 97
        0
 75
     0
 76
     2
 52
0.0
 41
1.0
 77
     0
 78
     4
 53
45.00000209717174
 43
0.0
 44
0.0
 45
-13.47038467465416
 46
13.47038368855329
 79
     0
 53
45.00000209717174
 43
4.490128
 44
0.0
 45
-13.47038467465416
 46
13.47038368855329
 79
     0
 53
45.00000209717174
 43
8.980256
 44
0.0
 45
-13.47038467465416
 46
13.47038368855329
 79
     0
 53
45.00000209717174
 43
13.47038
 44
0.0
 45
-13.47038467465416
 46
13.47038368855329
 79
     0
 98
        1
 10
0.0
 20
0.0
  0
HATCH
  5
198
330
1F
100
AcDbEntity
  8
TRATTEGGIO
 62
     4
100
AcDbHatch
 10
0.0
 20
0.0
 30
0.0
210
0.0
220
0.0
230
1.0
  2
Acciaio e ghisa di acciaio DIN 201
 70
     0
 71
     0
 91
        1
 92
        0
 93
        1
 72
     4
 94
        3
 73
     1
 74
     0
 95
       11
 96
        7
 40
0.0
 40
0.0
 40
0.0
 40
0.0
 40
0.5
 40
0.5
 40
0.5
 40
1.0
 40
1.0
 40
1.0
 40
1.0
 10
282.9921119734861
 20
406.3631651015247
 42
0.9863717826283678
 10
282.9921119734861
 20
407.0131651015246
 42
0.3287905942094559
 10
282.3421119734861
 20
407.0131651015246
 42
0.3287905942094559
 10
282.3421119734861
 20
406.3631651015247
 42
0.9863717826283678
 10
282.3421119734861
 20
405.7131651015247
 42
0.3287905942094559
 10
282.9921119734861
 20
405.7131651015247
 42
0.3287905942094559
 10
282.9921119734861
 20
406.3631651015247
 42
0.9863717826283678
 97
        0
 75
     0
 76
     2
 52
0.0
 41
1.0
 77
     0
 78
     4
 53
45.00000209717174
 43
0.0
 44
0.0
 45
-13.47038467465416
 46
13.47038368855329
 79
     0
 53
45.00000209717174
 43
4.490128
 44
0.0
 45
-13.47038467465416
 46
13.47038368855329
 79
     0
 53
45.00000209717174
 43
8.980256
 44
0.0
 45
-13.47038467465416
 46
13.47038368855329
 79
     0
 53
45.00000209717174
 43
13.47038
 44
0.0
 45
-13.47038467465416
 46
13.47038368855329
 79
     0
 98
        1
 10
0.0
 20
0.0
  0
HATCH
  5
199
330
1F
100
AcDbEntity
  8
TRATTEGGIO
 62
     4
100
AcDbHatch
 10
0.0
 20
0.0
 30
0.0
210
0.0
220
0.0
230
1.0
  2
Acciaio e ghisa di acciaio DIN 201
 70
     0
 71
     0
 91
        1
 92
        0
 93
        2
 72
     1
 10
282.8941849326116
 20
408.1306508627477
 11
282.4400390143607
 21
408.1306508627477
 72
     4
 94
        3
 73
     1
 74
     0
 95
        8
 96
        4
 40
0.6481761615528696
 40
0.6481761615528696
 40
0.6481761615528696
 40
0.6481761615528696
 40
0.8518238384473347
 40
0.8518238384473347
 40
0.8518238384473347
 40
0.8518238384473347
 10
282.4400390143612
 20
408.1306508627472
 42
0.5750002548046527
 10
282.5736992500057
 20
408.0001185332661
 42
0.4659144368172515
 10
282.7605246969671
 20
408.0001185332663
 42
0.4659144368173609
 10
282.8941849326114
 20
408.1306508627476
 42
0.5750002548049808
 97
        0
 75
     0
 76
     2
 52
0.0
 41
1.0
 77
     0
 78
     4
 53
45.00000209717174
 43
0.0
 44
0.0
 45
-13.47038467465416
 46
13.47038368855329
 79
     0
 53
45.00000209717174
 43
4.490128
 44
0.0
 45
-13.47038467465416
 46
13.47038368855329
 79
     0
 53
45.00000209717174
 43
8.980256
 44
0.0
 45
-13.47038467465416
 46
13.47038368855329
 79
     0
 53
45.00000209717174
 43
13.47038
 44
0.0
 45
-13.47038467465416
 46
13.47038368855329
 79
     0
 98
        1
 10
0.0
 20
0.0
  0
HATCH
  5
19A
330
1F
100
AcDbEntity
  8
TRATTEGGIO
 62
     4
100
AcDbHatch
 10
0.0
 20
0.0
 30
0.0
210
0.0
220
0.0
230
1.0
  2
Acciaio e ghisa di acciaio DIN 201
 70
     0
 71
     0
 91
        1
 92
        0
 93
        1
 72
     4
 94
        3
 73
     1
 74
     0
 95
       11
 96
        7
 40
0.0
 40
0.0
 40
0.0
 40
0.0
 40
0.5
 40
0.5
 40
0.5
 40
1.0
 40
1.0
 40
1.0
 40
1.0
 10
275.9921119734861
 20
407.3631651015247
 42
0.9863717826283691
 10
275.9921119734861
 20
406.7131651015247
 42
0.3287905942094564
 10
276.6421119734861
 20
406.7131651015247
 42
0.3287905942094564
 10
276.6421119734861
 20
407.3631651015247
 42
0.9863717826283691
 10
276.6421119734861
 20
408.0131651015246
 42
0.3287905942094564
 10
275.9921119734861
 20
408.0131651015246
 42
0.3287905942094564
 10
275.9921119734861
 20
407.3631651015247
 42
0.9863717826283691
 97
        0
 75
     0
 76
     2
 52
0.0
 41
1.0
 77
     0
 78
     4
 53
45.00000209717174
 43
0.0
 44
0.0
 45
-13.47038467465416
 46
13.47038368855329
 79
     0
 53
45.00000209717174
 43
4.490128
 44
0.0
 45
-13.47038467465416
 46
13.47038368855329
 79
     0
 53
45.00000209717174
 43
8.980256
 44
0.0
 45
-13.47038467465416
 46
13.47038368855329
 79
     0
 53
45.00000209717174
 43
13.47038
 44
0.0
 45
-13.47038467465416
 46
13.47038368855329
 79
     0
 98
        1
 10
0.0
 20
0.0
  0
HATCH
  5
19B
330
1F
100
AcDbEntity
  8
TRATTEGGIO
 62
     4
100
AcDbHatch
 10
0.0
 20
0.0
 30
0.0
210
0.0
220
0.0
230
1.0
  2
Acciaio e ghisa di acciaio DIN 201
 70
     0
 71
     0
 91
        1
 92
        0
 93
        2
 72
     1
 10
276.0900390143622
 20
385.1306508627476
 11
276.5441849326116
 21
385.1306508627476
 72
     4
 94
        3
 73
     1
 74
     0
 95
       14
 96
       10
 40
0.0
 40
0.0
 40
0.0
 40
0.0
 40
0.1481761615525667
 40
0.1481761615525667
 40
0.1481761615525667
 40
0.6481761615525667
 40
0.6481761615525667
 40
0.6481761615525667
 40
0.7963523231056843
 40
0.7963523231056843
 40
0.7963523231056843
 40
0.7963523231056843
 10
276.5441849326116
 20
385.1306508627477
 42
0.5750002548051388
 10
276.6134289746696
 20
385.1982744612621
 42
0.6543722272024454
 10
276.6421119734861
 20
385.2831462497809
 42
0.791496069810188
 10
276.6421119734861
 20
385.3631651015247
 42
0.9863717826283669
 10
276.6421119734861
 20
386.0131651015247
 42
0.3287905942094557
 10
275.9921119734861
 20
386.0131651015247
 42
0.3287905942094557
 10
275.9921119734861
 20
385.3631651015247
 42
0.9863717826283669
 10
275.9921119734861
 20
385.2831462497805
 42
0.7914960698094637
 10
276.0207949723028
 20
385.1982744612613
 42
0.6543722272014261
 10
276.0900390143615
 20
385.1306508627469
 42
0.5750002548042539
 97
        0
 75
     0
 76
     2
 52
0.0
 41
1.0
 77
     0
 78
     4
 53
45.00000209717174
 43
0.0
 44
0.0
 45
-13.47038467465416
 46
13.47038368855329
 79
     0
 53
45.00000209717174
 43
4.490128
 44
0.0
 45
-13.47038467465416
 46
13.47038368855329
 79
     0
 53
45.00000209717174
 43
8.980256
 44
0.0
 45
-13.47038467465416
 46
13.47038368855329
 79
     0
 53
45.00000209717174
 43
13.47038
 44
0.0
 45
-13.47038467465416
 46
13.47038368855329
 79
     0
 98
        1
 10
0.0
 20
0.0
  0
HATCH
  5
19C
330
1F
100
AcDbEntity
  8
TRATTEGGIO
 62
     4
100
AcDbHatch
 10
0.0
 20
0.0
 30
0.0
210
0.0
220
0.0
230
1.0
  2
Acciaio e ghisa di acciaio DIN 201
 70
     0
 71
     0
 91
        1
 92
        0
 93
        1
 72
     4
 94
        3
 73
     1
 74
     0
 95
       11
 96
        7
 40
0.0
 40
0.0
 40
0.0
 40
0.0
 40
0.5
 40
0.5
 40
0.5
 40
1.0
 40
1.0
 40
1.0
 40
1.0
 10
282.9921119734861
 20
386.3631651015247
 42
0.9863717826283672
 10
282.9921119734861
 20
387.0131651015247
 42
0.3287905942094558
 10
282.3421119734861
 20
387.0131651015247
 42
0.3287905942094558
 10
282.3421119734861
 20
386.3631651015247
 42
0.9863717826283672
 10
282.3421119734861
 20
385.7131651015246
 42
0.3287905942094558
 10
282.9921119734861
 20
385.7131651015246
 42
0.3287905942094558
 10
282.9921119734861
 20
386.3631651015247
 42
0.9863717826283672
 97
        0
 75
     0
 76
     2
 52
0.0
 41
1.0
 77
     0
 78
     4
 53
45.00000209717174
 43
0.0
 44
0.0
 45
-13.47038467465416
 46
13.47038368855329
 79
     0
 53
45.00000209717174
 43
4.490128
 44
0.0
 45
-13.47038467465416
 46
13.47038368855329
 79
     0
 53
45.00000209717174
 43
8.980256
 44
0.0
 45
-13.47038467465416
 46
13.47038368855329
 79
     0
 53
45.00000209717174
 43
13.47038
 44
0.0
 45
-13.47038467465416
 46
13.47038368855329
 79
     0
 98
        1
 10
0.0
 20
0.0
  0
HATCH
  5
19D
330
1F
100
AcDbEntity
  8
TRATTEGGIO
 62
     4
100
AcDbHatch
 10
0.0
 20
0.0
 30
0.0
210
0.0
220
0.0
230
1.0
  2
ANSI37
 70
     0
 71
     0
 91
        1
 92
        0
 93
        7
 72
     1
 10
286.8921119734863
 20
494.3106409573161
 11
285.6421119734864
 21
494.3106409573161
 72
     1
 10
285.6421119734864
 20
494.3106409573161
 11
285.6421119734864
 21
482.3106409573161
 72
     1
 10
285.6421119734864
 20
482.3106409573161
 11
287.5421119734863
 21
482.3106409573161
 72
     1
 10
287.5421119734863
 20
482.3106409573161
 11
287.5421119734863
 21
489.3106409573161
 72
     1
 10
287.5421119734863
 20
489.3106409573161
 11
287.3921119734864
 21
489.3106409573161
 72
     1
 10
287.3921119734864
 20
489.3106409573161
 11
287.3921119734864
 21
493.8106409573161
 72
     1
 10
287.3921119734864
 20
493.8106409573161
 11
286.8921119734863
 21
494.3106409573161
 97
        0
 75
     0
 76
     1
 52
0.0
 41
1.0
 77
     0
 78
     2
 53
45.0
 43
0.0
 44
0.0
 45
-2.245064030267288
 46
2.245064030267288
 79
     0
 53
135.0
 43
0.0
 44
0.0
 45
-2.245064030267288
 46
-2.245064030267288
 79
     0
 98
        1
 10
0.0
 20
0.0
  0
HATCH
  5
19E
330
1F
100
AcDbEntity
  8
TRATTEGGIO
 62
     4
100
AcDbHatch
 10
0.0
 20
0.0
 30
0.0
210
0.0
220
0.0
230
1.0
  2
ANSI37
 70
     0
 71
     0
 91
        1
 92
        0
 93
        7
 72
     1
 10
273.3421119734863
 20
494.3106409573161
 11
272.0921119734863
 21
494.3106409573161
 72
     1
 10
272.0921119734863
 20
494.3106409573161
 11
271.5921119734863
 21
493.8106409573161
 72
     1
 10
271.5921119734863
 20
493.8106409573161
 11
271.5921119734863
 21
489.3106409573161
 72
     1
 10
271.5921119734863
 20
489.3106409573161
 11
271.4421119734863
 21
489.3106409573161
 72
     1
 10
271.4421119734863
 20
489.3106409573161
 11
271.4421119734863
 21
482.3106409573161
 72
     1
 10
271.4421119734863
 20
482.3106409573161
 11
273.3421119734863
 21
482.3106409573161
 72
     1
 10
273.3421119734863
 20
482.3106409573161
 11
273.3421119734863
 21
494.3106409573161
 97
        0
 75
     0
 76
     1
 52
0.0
 41
1.0
 77
     0
 78
     2
 53
45.0
 43
0.0
 44
0.0
 45
-2.245064030267288
 46
2.245064030267288
 79
     0
 53
135.0
 43
0.0
 44
0.0
 45
-2.245064030267288
 46
-2.245064030267288
 79
     0
 98
        1
 10
0.0
 20
0.0
  0
MTEXT
  5
19F
330
1F
100
AcDbEntity
  8
0
  6
Continuous
 62
     7
370
     0
100
AcDbMText
 10
279.4823899865
 20
354.3624077486
 30
0.0
 40
3.5
 41
0.0
 71
     2
 72
     1
  1
SEZIONE G-G
  7
SLDTEXTSTYLE0
 73
     1
 44
1.0
  0
LINE
  5
1A0
330
1F
100
AcDbEntity
  8
0
100
AcDbLine
 10
138.5490981197
 20
397.2631184329
 30
0.0
 11
139.5490981197
 21
398.2631184329
 31
0.0
  0
LINE
  5
1A1
330
1F
100
AcDbEntity
  8
0
100
AcDbLine
 10
163.5490981197
 20
398.2631184329
 30
0.0
 11
139.5490981197
 21
398.2631184329
 31
0.0
  0
LINE
  5
1A2
330
1F
100
AcDbEntity
  8
0
100
AcDbLine
 10
163.5490981197
 20
368.7631184329
 30
0.0
 11
163.5490981197
 21
398.2631184329
 31
0.0
  0
LINE
  5
1A3
330
1F
100
AcDbEntity
  8
0
100
AcDbLine
 10
138.5490981197
 20
368.7631184329
 30
0.0
 11
163.5490981197
 21
368.7631184329
 31
0.0
  0
LINE
  5
1A4
330
1F
100
AcDbEntity
  8
0
100
AcDbLine
 10
138.5490981197
 20
368.7631184329
 30
0.0
 11
138.5490981197
 21
397.2631184329
 31
0.0
  0
LINE
  5
1A5
330
1F
100
AcDbEntity
  8
0
100
AcDbLine
 10
163.5490981197
 20
431.2631184329
 30
0.0
 11
163.5490981197
 21
426.2631184329
 31
0.0
  0
LINE
  5
1A6
330
1F
100
AcDbEntity
  8
0
100
AcDbLine
 10
163.5490981197
 20
426.2631184329
 30
0.0
 11
139.5490981197
 21
426.2631184329
 31
0.0
  0
LINE
  5
1A7
330
1F
100
AcDbEntity
  8
0
100
AcDbLine
 10
139.5490981197
 20
431.2631184329
 30
0.0
 11
139.5490981197
 21
426.2631184329
 31
0.0
  0
LINE
  5
1A8
330
1F
100
AcDbEntity
  8
0
100
AcDbLine
 10
139.5490981197
 20
431.2631184329
 30
0.0
 11
163.5490981197
 21
431.2631184329
 31
0.0
  0
LINE
  5
1A9
330
1F
100
AcDbEntity
  8
0
100
AcDbLine
 10
139.5490981197
 20
403.2631184329
 30
0.0
 11
139.5490981197
 21
398.2631184329
 31
0.0
  0
LINE
  5
1AA
330
1F
100
AcDbEntity
  8
0
100
AcDbLine
 10
139.5490981197
 20
403.2631184329
 30
0.0
 11
163.5490981197
 21
403.2631184329
 31
0.0
  0
LINE
  5
1AB
330
1F
100
AcDbEntity
  8
0
100
AcDbLine
 10
163.5490981197
 20
403.2631184329
 30
0.0
 11
163.5490981197
 21
398.2631184329
 31
0.0
  0
SPLINE
  5
1AC
330
1F
100
AcDbEntity
  8
0
100
AcDbSpline
210
0.0
220
0.0
230
1.0
 70
     8
 71
     3
 72
     8
 73
     4
 74
     0
 42
0.000000001
 43
0.00000001
 40
0.0
 40
0.0
 40
0.0
 40
0.0
 40
1.0
 40
1.0
 40
1.0
 40
1.0
 10
158.8912916903711
 20
473.7631184328536
 30
0.0
 10
159.1371650288817
 20
473.5990174699201
 30
0.0
 10
159.3807120778453
 20
473.4322033096176
 30
0.0
 10
159.6223122194332
 20
473.2631184328536
 30
0.0
  0
LINE
  5
1AD
330
1F
100
AcDbEntity
  8
0
100
AcDbLine
 10
159.6223122194
 20
438.7631184329
 30
0.0
 11
159.6223122194
 21
473.2631184329
 31
0.0
  0
LINE
  5
1AE
330
1F
100
AcDbEntity
  8
0
100
AcDbLine
 10
139.5490981197
 20
431.2631184329
 30
0.0
 11
138.5490981197
 21
432.2631184329
 31
0.0
  0
LINE
  5
1AF
330
1F
100
AcDbEntity
  8
0
100
AcDbLine
 10
138.5490981197
 20
432.2631184329
 30
0.0
 11
138.5490981197
 21
438.7631184329
 31
0.0
  0
LINE
  5
1B0
330
1F
100
AcDbEntity
  8
0
100
AcDbLine
 10
142.47588402
 20
473.2631184329
 30
0.0
 11
142.47588402
 21
438.7631184329
 31
0.0
  0
SPLINE
  5
1B1
330
1F
100
AcDbEntity
  8
0
100
AcDbSpline
210
0.0
220
0.0
230
1.0
 70
     8
 71
     3
 72
     8
 73
     4
 74
     0
 42
0.000000001
 43
0.00000001
 40
0.0
 40
0.0
 40
0.0
 40
0.0
 40
1.0
 40
1.0
 40
1.0
 40
1.0
 10
142.475884019951
 20
473.2631184328536
 30
0.0
 10
142.7177412522584
 20
473.4323832356407
 30
0.0
 10
142.9613081989813
 20
473.5992023377726
 30
0.0
 10
143.206904549013
 20
473.7631184328536
 30
0.0
  0
LINE
  5
1B2
330
1F
100
AcDbEntity
  8
0
100
AcDbLine
 10
143.206904549
 20
473.7631184329
 30
0.0
 11
158.8912916904
 21
473.7631184329
 31
0.0
  0
LINE
  5
1B3
330
1F
100
AcDbEntity
  8
0
100
AcDbLine
 10
142.47588402
 20
438.7631184329
 30
0.0
 11
138.5490981197
 21
438.7631184329
 31
0.0
  0
LINE
  5
1B4
330
1F
100
AcDbEntity
  8
0
100
AcDbLine
 10
163.5490981197
 20
438.7631184329
 30
0.0
 11
159.6223122194
 21
438.7631184329
 31
0.0
  0
LINE
  5
1B5
330
1F
100
AcDbEntity
  8
0
100
AcDbLine
 10
163.5490981197
 20
431.2631184329
 30
0.0
 11
163.5490981197
 21
438.7631184329
 31
0.0
  0
LINE
  5
1B6
330
1F
100
AcDbEntity
  8
0
100
AcDbLine
 10
138.5490981197
 20
404.2631184329
 30
0.0
 11
138.5490981197
 21
425.2631184329
 31
0.0
  0
LINE
  5
1B7
330
1F
100
AcDbEntity
  8
0
100
AcDbLine
 10
138.5490981197
 20
425.2631184329
 30
0.0
 11
139.5490981197
 21
426.2631184329
 31
0.0
  0
LINE
  5
1B8
330
1F
100
AcDbEntity
  8
0
100
AcDbLine
 10
139.5490981197
 20
403.2631184329
 30
0.0
 11
138.5490981197
 21
404.2631184329
 31
0.0
  0
LINE
  5
1B9
330
1F
100
AcDbEntity
  8
0
100
AcDbLine
 10
163.5490981197
 20
403.2631184329
 30
0.0
 11
163.5490981197
 21
426.2631184329
 31
0.0
  0
LINE
  5
1BA
330
1F
100
AcDbEntity
  8
0
100
AcDbLine
 10
138.5490981197
 20
425.2631184329
 30
0.0
 11
138.5490981197
 21
432.2631184329
 31
0.0
  0
LINE
  5
1BB
330
1F
100
AcDbEntity
  8
0
100
AcDbLine
 10
138.5490981197
 20
397.2631184329
 30
0.0
 11
138.5490981197
 21
404.2631184329
 31
0.0
  0
HATCH
  5
1BC
330
1F
100
AcDbEntity
  8
TRATTEGGIO
 62
     4
100
AcDbHatch
 10
0.0
 20
0.0
 30
0.0
210
0.0
220
0.0
230
1.0
  2
ANSI38
 70
     0
 71
     0
 91
        1
 92
        0
 93
        5
 72
     1
 10
138.5490981196921
 20
397.2631184328536
 11
138.5490981196921
 21
368.7631184328536
 72
     1
 10
138.5490981196921
 20
368.7631184328536
 11
163.5490981196921
 21
368.7631184328536
 72
     1
 10
163.5490981196921
 20
368.7631184328536
 11
163.5490981196921
 21
398.2631184328536
 72
     1
 10
163.5490981196921
 20
398.2631184328536
 11
139.5490981196921
 21
398.2631184328536
 72
     1
 10
139.5490981196921
 20
398.2631184328536
 11
138.5490981196921
 21
397.2631184328536
 97
        0
 75
     0
 76
     1
 52
0.0
 41
1.0
 77
     0
 78
     2
 53
45.0
 43
0.0
 44
0.0
 45
-2.245064030267288
 46
2.245064030267288
 79
     0
 53
135.0
 43
0.0
 44
0.0
 45
-6.735192090801864
 46
2.245064030267289
 79
     2
 49
7.9375
 49
-4.7625
 98
        1
 10
0.0
 20
0.0
  0
HATCH
  5
1BD
330
1F
100
AcDbEntity
  8
TRATTEGGIO
 62
     4
100
AcDbHatch
 10
0.0
 20
0.0
 30
0.0
210
0.0
220
0.0
230
1.0
  2
ANSI38
 70
     0
 71
     0
 91
        1
 92
        0
 93
        6
 72
     1
 10
138.5490981196921
 20
404.2631184328536
 11
139.5490981196921
 21
403.2631184328536
 72
     1
 10
139.5490981196921
 20
403.2631184328536
 11
163.5490981196921
 21
403.2631184328536
 72
     1
 10
163.5490981196921
 20
403.2631184328536
 11
163.5490981196921
 21
426.2631184328536
 72
     1
 10
163.5490981196921
 20
426.2631184328536
 11
139.5490981196921
 21
426.2631184328536
 72
     1
 10
139.5490981196921
 20
426.2631184328536
 11
138.5490981196921
 21
425.2631184328536
 72
     1
 10
138.5490981196921
 20
425.2631184328536
 11
138.5490981196921
 21
404.2631184328536
 97
        0
 75
     0
 76
     1
 52
0.0
 41
1.0
 77
     0
 78
     2
 53
45.0
 43
0.0
 44
0.0
 45
-2.245064030267288
 46
2.245064030267288
 79
     0
 53
135.0
 43
0.0
 44
0.0
 45
-6.735192090801864
 46
2.245064030267289
 79
     2
 49
7.9375
 49
-4.7625
 98
        1
 10
0.0
 20
0.0
  0
HATCH
  5
1BE
330
1F
100
AcDbEntity
  8
TRATTEGGIO
 62
     4
100
AcDbHatch
 10
0.0
 20
0.0
 30
0.0
210
0.0
220
0.0
230
1.0
  2
ANSI38
 70
     0
 71
     0
 91
        1
 92
        0
 93
       11
 72
     1
 10
158.8912916903711
 20
473.7631184328536
 11
143.2069045490131
 21
473.7631184328536
 72
     4
 94
        3
 73
     1
 74
     0
 95
        8
 96
        4
 40
0.0402821657042382
 40
0.0402821657042382
 40
0.0402821657042382
 40
0.0402821657042382
 40
0.0411801782878018
 40
0.0411801782878018
 40
0.0411801782878018
 40
0.0411801782878018
 10
143.2069045490131
 20
473.7631184328536
 42
1.0
 10
142.9613525642695
 20
473.5992319480856
 42
1.0
 10
142.7177538280743
 20
473.4323920368784
 42
1.0
 10
142.475884019951
 20
473.2631184328535
 42
1.0
 72
     1
 10
142.475884019951
 20
473.2631184328535
 11
142.475884019951
 21
438.7631184328536
 72
     1
 10
142.475884019951
 20
438.7631184328536
 11
138.5490981196921
 21
438.7631184328536
 72
     1
 10
138.5490981196921
 20
438.7631184328536
 11
138.5490981196921
 21
432.2631184328536
 72
     1
 10
138.5490981196921
 20
432.2631184328536
 11
139.5490981196921
 21
431.2631184328536
 72
     1
 10
139.5490981196921
 20
431.2631184328536
 11
163.5490981196921
 21
431.2631184328536
 72
     1
 10
163.5490981196921
 20
431.2631184328536
 11
163.5490981196921
 21
438.7631184328536
 72
     1
 10
163.5490981196921
 20
438.7631184328536
 11
159.6223122194332
 21
438.7631184328536
 72
     1
 10
159.6223122194332
 20
438.7631184328536
 11
159.6223122194332
 21
473.2631184328535
 72
     4
 94
        3
 73
     1
 74
     0
 95
        8
 96
        4
 40
0.0224155750103286
 40
0.0224155750103286
 40
0.0224155750103286
 40
0.0224155750103286
 40
0.0232959887250782
 40
0.0232959887250782
 40
0.0232959887250782
 40
0.0232959887250782
 10
159.6223122194332
 20
473.2631184328535
 42
1.0
 10
159.38044241131
 20
473.4323920368784
 42
1.0
 10
159.1368436751148
 20
473.5992319480856
 42
1.0
 10
158.8912916903711
 20
473.7631184328536
 42
1.0
 97
        0
 75
     0
 76
     1
 52
0.0
 41
1.0
 77
     0
 78
     2
 53
45.0
 43
0.0
 44
0.0
 45
-2.245064030267288
 46
2.245064030267288
 79
     0
 53
135.0
 43
0.0
 44
0.0
 45
-6.735192090801864
 46
2.245064030267289
 79
     2
 49
7.9375
 49
-4.7625
 98
        1
 10
0.0
 20
0.0
  0
MTEXT
  5
1BF
330
1F
100
AcDbEntity
  8
0
  6
Continuous
 62
     7
370
     0
100
AcDbMText
 10
151.0442375472
 20
356.4991609916
 30
0.0
 40
3.5
 41
0.0
 71
     2
 72
     1
  1
SEZIONE H-H
  7
SLDTEXTSTYLE0
 73
     1
 44
1.0
  0
LINE
  5
1C0
330
1F
100
AcDbEntity
  8
0
  6
Continuous
 62
     7
370
     0
100
AcDbLine
 10
139.0490980154
 20
403.7631184329
 30
0.0
 11
163.549098306
 21
403.7631184329
 31
0.0
  0
LINE
  5
1C1
330
1F
100
AcDbEntity
  8
0
  6
Continuous
 62
     7
370
     0
100
AcDbLine
 10
163.549098306
 20
397.7631183807
 30
0.0
 11
139.0490980154
 21
397.7631183807
 31
0.0
  0
LINE
  5
1C2
330
1F
100
AcDbEntity
  8
0
  6
Continuous
 62
     7
370
     0
100
AcDbLine
 10
139.0490980154
 20
431.7631192971
 30
0.0
 11
163.549098306
 21
431.7631192971
 31
0.0
  0
LINE
  5
1C3
330
1F
100
AcDbEntity
  8
0
  6
Continuous
 62
     7
370
     0
100
AcDbLine
 10
163.549098306
 20
425.7631183136
 30
0.0
 11
139.0490980154
 21
425.7631183136
 31
0.0
  0
ENDSEC
  0
SECTION
  2
OBJECTS
  0
DICTIONARY
  5
C
330
0
100
AcDbDictionary
281
     1
  3
ACAD_GROUP
350
D
  3
ACAD_LAYOUT
350
1A
  3
ACAD_MLINESTYLE
350
17
  3
ACAD_PLOTSETTINGS
350
19
  3
ACAD_PLOTSTYLENAME
350
E
  3
ACAD_SCALELIST
350
47
  0
DICTIONARY
  5
D
102
{ACAD_REACTORS
330
C
102
}
330
C
100
AcDbDictionary
281
     1
  0
DICTIONARY
  5
1A
102
{ACAD_REACTORS
330
C
102
}
330
C
100
AcDbDictionary
281
     1
  3
Layout1
350
1E
  3
Layout2
350
26
  3
Model
350
22
  0
DICTIONARY
  5
17
102
{ACAD_REACTORS
330
C
102
}
330
C
100
AcDbDictionary
281
     1
  3
Standard
350
18
  0
DICTIONARY
  5
19
102
{ACAD_REACTORS
330
C
102
}
330
C
100
AcDbDictionary
281
     1
  0
ACDBDICTIONARYWDFLT
  5
E
102
{ACAD_REACTORS
330
C
102
}
330
C
100
AcDbDictionary
281
     1
  3
Normal
350
F
100
AcDbDictionaryWithDefault
340
F
  0
DICTIONARY
  5
47
102
{ACAD_REACTORS
330
C
102
}
330
C
100
AcDbDictionary
281
     1
  3
A0
350
48
  3
A1
350
49
  3
A2
350
4A
  3
A3
350
4B
  3
A4
350
4C
  3
A5
350
4D
  3
A6
350
4E
  3
A7
350
4F
  3
A8
350
50
  3
A9
350
51
  3
B0
350
52
  3
B1
350
53
  3
B2
350
54
  3
B3
350
55
  3
B4
350
56
  3
B5
350
57
  3
B6
350
58
  3
B7
350
59
  3
B8
350
5A
  3
B9
350
5B
  3
C0
350
5C
  3
C1
350
5D
  3
C2
350
5E
  3
C3
350
5F
  3
C4
350
60
  3
C5
350
61
  3
C6
350
62
  3
C7
350
63
  3
C8
350
64
  3
C9
350
65
  3
D0
350
66
  3
D1
350
67
  3
D2
350
68
  0
LAYOUT
  5
1E
102
{ACAD_REACTORS
330
1A
102
}
330
1A
100
AcDbPlotSettings
  1

  2
none_device
  4

  6

 40
0.0
 41
0.0
 42
0.0
 43
0.0
 44
0.0
 45
0.0
 46
0.0
 47
0.0
 48
0.0
 49
0.0
140
0.0
141
0.0
142
1.0
143
1.0
 70
   688
 72
     1
 73
     0
 74
     5
  7

 75
    16
147
1.0
148
0.0
149
0.0
100
AcDbLayout
  1
Layout1
 70
     1
 71
     1
 10
0.0
 20
0.0
 11
420.0
 21
297.0
 12
0.0
 22
0.0
 32
0.0
 14
1.0000000000E+20
 24
1.0000000000E+20
 34
1.0000000000E+20
 15
-1.0000000000E+20
 25
-1.0000000000E+20
 35
-1.0000000000E+20
146
0.0
 13
0.0
 23
0.0
 33
0.0
 16
1.0
 26
0.0
 36
0.0
 17
0.0
 27
1.0
 37
0.0
 76
     0
330
1B
  0
LAYOUT
  5
26
102
{ACAD_REACTORS
330
1A
102
}
330
1A
100
AcDbPlotSettings
  1

  2
none_device
  4

  6

 40
0.0
 41
0.0
 42
0.0
 43
0.0
 44
0.0
 45
0.0
 46
0.0
 47
0.0
 48
0.0
 49
0.0
140
0.0
141
0.0
142
1.0
143
1.0
 70
   688
 72
     1
 73
     0
 74
     5
  7

 75
    16
147
1.0
148
0.0
149
0.0
100
AcDbLayout
  1
Layout2
 70
     1
 71
     2
 10
0.0
 20
0.0
 11
0.0
 21
0.0
 12
0.0
 22
0.0
 32
0.0
 14
0.0
 24
0.0
 34
0.0
 15
0.0
 25
0.0
 35
0.0
146
0.0
 13
0.0
 23
0.0
 33
0.0
 16
1.0
 26
0.0
 36
0.0
 17
0.0
 27
1.0
 37
0.0
 76
     0
330
23
  0
LAYOUT
  5
22
102
{ACAD_REACTORS
330
1A
102
}
330
1A
100
AcDbPlotSettings
  1

  2
none_device
  4
Letter_(8.50_x_11.00_Inches)
  6

 40
6.35
 41
6.35
 42
6.35000508
 43
6.35000508
 44
215.9
 45
279.4
 46
0.0
 47
0.0
 48
0.0
 49
0.0
140
0.0
141
0.0
142
1.0
143
1.0
 70
  1712
 72
     1
 73
     0
 74
     0
  7

 75
     0
147
1.0
148
0.0
149
0.0
100
AcDbLayout
  1
Model
 70
     1
 71
     0
 10
0.0
 20
0.0
 11
840.0
 21
594.0
 12
0.0
 22
0.0
 32
0.0
 14
0.0
 24
0.0
 34
0.0
 15
840.0
 25
594.0
 35
0.0
146
0.0
 13
0.0
 23
0.0
 33
0.0
 16
1.0
 26
0.0
 36
0.0
 17
0.0
 27
1.0
 37
0.0
 76
     0
330
1F
331
29
  0
MLINESTYLE
  5
18
102
{ACAD_REACTORS
330
17
102
}
330
17
100
AcDbMlineStyle
  2
Standard
 70
     0
  3

 62
   256
 51
90.0
 52
90.0
 71
     2
 49
0.5
 62
   256
  6
BYLAYER
 49
-0.5
 62
   256
  6
BYLAYER
  0
ACDBPLACEHOLDER
  5
F
102
{ACAD_REACTORS
330
E
102
}
330
E
  0
SCALE
  5
48
102
{ACAD_REACTORS
330
47
102
}
330
47
100
AcDbScale
 70
     0
300
1:1
140
1.0
141
1.0
290
     1
  0
SCALE
  5
49
102
{ACAD_REACTORS
330
47
102
}
330
47
100
AcDbScale
 70
     0
300
1:2
140
1.0
141
2.0
290
     0
  0
SCALE
  5
4A
102
{ACAD_REACTORS
330
47
102
}
330
47
100
AcDbScale
 70
     0
300
1:4
140
1.0
141
4.0
290
     0
  0
SCALE
  5
4B
102
{ACAD_REACTORS
330
47
102
}
330
47
100
AcDbScale
 70
     0
300
1:5
140
1.0
141
5.0
290
     0
  0
SCALE
  5
4C
102
{ACAD_REACTORS
330
47
102
}
330
47
100
AcDbScale
 70
     0
300
1:8
140
1.0
141
8.0
290
     0
  0
SCALE
  5
4D
102
{ACAD_REACTORS
330
47
102
}
330
47
100
AcDbScale
 70
     0
300
1:10
140
1.0
141
10.0
290
     0
  0
SCALE
  5
4E
102
{ACAD_REACTORS
330
47
102
}
330
47
100
AcDbScale
 70
     0
300
1:16
140
1.0
141
16.0
290
     0
  0
SCALE
  5
4F
102
{ACAD_REACTORS
330
47
102
}
330
47
100
AcDbScale
 70
     0
300
1:20
140
1.0
141
20.0
290
     0
  0
SCALE
  5
50
102
{ACAD_REACTORS
330
47
102
}
330
47
100
AcDbScale
 70
     0
300
1:30
140
1.0
141
30.0
290
     0
  0
SCALE
  5
51
102
{ACAD_REACTORS
330
47
102
}
330
47
100
AcDbScale
 70
     0
300
1:40
140
1.0
141
40.0
290
     0
  0
SCALE
  5
52
102
{ACAD_REACTORS
330
47
102
}
330
47
100
AcDbScale
 70
     0
300
1:50
140
1.0
141
50.0
290
     0
  0
SCALE
  5
53
102
{ACAD_REACTORS
330
47
102
}
330
47
100
AcDbScale
 70
     0
300
1:100
140
1.0
141
100.0
290
     0
  0
SCALE
  5
54
102
{ACAD_REACTORS
330
47
102
}
330
47
100
AcDbScale
 70
     0
300
2:1
140
2.0
141
1.0
290
     0
  0
SCALE
  5
55
102
{ACAD_REACTORS
330
47
102
}
330
47
100
AcDbScale
 70
     0
300
4:1
140
4.0
141
1.0
290
     0
  0
SCALE
  5
56
102
{ACAD_REACTORS
330
47
102
}
330
47
100
AcDbScale
 70
     0
300
8:1
140
8.0
141
1.0
290
     0
  0
SCALE
  5
57
102
{ACAD_REACTORS
330
47
102
}
330
47
100
AcDbScale
 70
     0
300
10:1
140
10.0
141
1.0
290
     0
  0
SCALE
  5
58
102
{ACAD_REACTORS
330
47
102
}
330
47
100
AcDbScale
 70
     0
300
100:1
140
100.0
141
1.0
290
     0
  0
SCALE
  5
59
102
{ACAD_REACTORS
330
47
102
}
330
47
100
AcDbScale
 70
     0
300
1/128" = 1'-0"
140
0.0078125
141
12.0
290
     0
  0
SCALE
  5
5A
102
{ACAD_REACTORS
330
47
102
}
330
47
100
AcDbScale
 70
     0
300
1/64" = 1'-0"
140
0.015625
141
12.0
290
     0
  0
SCALE
  5
5B
102
{ACAD_REACTORS
330
47
102
}
330
47
100
AcDbScale
 70
     0
300
1/32" = 1'-0"
140
0.03125
141
12.0
290
     0
  0
SCALE
  5
5C
102
{ACAD_REACTORS
330
47
102
}
330
47
100
AcDbScale
 70
     0
300
1/16" = 1'-0"
140
0.0625
141
12.0
290
     0
  0
SCALE
  5
5D
102
{ACAD_REACTORS
330
47
102
}
330
47
100
AcDbScale
 70
     0
300
3/32" = 1'-0"
140
0.09375
141
12.0
290
     0
  0
SCALE
  5
5E
102
{ACAD_REACTORS
330
47
102
}
330
47
100
AcDbScale
 70
     0
300
1/8" = 1'-0"
140
0.125
141
12.0
290
     0
  0
SCALE
  5
5F
102
{ACAD_REACTORS
330
47
102
}
330
47
100
AcDbScale
 70
     0
300
3/16" = 1'-0"
140
0.1875
141
12.0
290
     0
  0
SCALE
  5
60
102
{ACAD_REACTORS
330
47
102
}
330
47
100
AcDbScale
 70
     0
300
1/4" = 1'-0"
140
0.25
141
12.0
290
     0
  0
SCALE
  5
61
102
{ACAD_REACTORS
330
47
102
}
330
47
100
AcDbScale
 70
     0
300
3/8" = 1'-0"
140
0.375
141
12.0
290
     0
  0
SCALE
  5
62
102
{ACAD_REACTORS
330
47
102
}
330
47
100
AcDbScale
 70
     0
300
1/2" = 1'-0"
140
0.5
141
12.0
290
     0
  0
SCALE
  5
63
102
{ACAD_REACTORS
330
47
102
}
330
47
100
AcDbScale
 70
     0
300
3/4" = 1'-0"
140
0.75
141
12.0
290
     0
  0
SCALE
  5
64
102
{ACAD_REACTORS
330
47
102
}
330
47
100
AcDbScale
 70
     0
300
1" = 1'-0"
140
1.0
141
12.0
290
     0
  0
SCALE
  5
65
102
{ACAD_REACTORS
330
47
102
}
330
47
100
AcDbScale
 70
     0
300
1-1/2" = 1'-0"
140
1.5
141
12.0
290
     0
  0
SCALE
  5
66
102
{ACAD_REACTORS
330
47
102
}
330
47
100
AcDbScale
 70
     0
300
3" = 1'-0"
140
3.0
141
12.0
290
     0
  0
SCALE
  5
67
102
{ACAD_REACTORS
330
47
102
}
330
47
100
AcDbScale
 70
     0
300
6" = 1'-0"
140
6.0
141
12.0
290
     0
  0
SCALE
  5
68
102
{ACAD_REACTORS
330
47
102
}
330
47
100
AcDbScale
 70
     0
300
1'-0" = 1'-0"
140
12.0
141
12.0
290
     0
  0
ENDSEC
  0
EOF
