  0
SECTION
  2
HEADER
  9
$ACADVER
  1
AC1015
  9
$ACADMAINTVER
 70
    20
  9
$DWGCODEPAGE
  3
ANSI_1252
  9
$INSBASE
 10
0.0
 20
0.0
 30
0.0
  9
$EXTMIN
 10
-0.025633200973175
 20
-0.0181263349739993
 30
-0.0000000349181948
  9
$EXTMAX
 10
109.5983780436205
 20
109.5882606136293
 30
0.0000000814935746
  9
$LIMMIN
 10
0.0
 20
0.0
  9
$LIMMAX
 10
420.0
 20
297.0
  9
$ORTHOMODE
 70
     1
  9
$REGENMODE
 70
     1
  9
$FILLMODE
 70
     1
  9
$QTEXTMODE
 70
     0
  9
$MIRRTEXT
 70
     1
  9
$LTSCALE
 40
16.0
  9
$ATTMODE
 70
     1
  9
$TEXTSIZE
 40
53.96816269751105
  9
$TRACEWID
 40
1.0
  9
$TEXTSTYLE
  7
ISOCP
  9
$CLAYER
  8
0
  9
$CELTYPE
  6
ByLayer
  9
$CECOLOR
 62
   256
  9
$CELTSCALE
 40
1.0
  9
$DISPSILH
 70
     1
  9
$DIMSCALE
 40
5.0
  9
$DIMASZ
 40
3.0
  9
$DIMEXO
 40
1.0
  9
$DIMDLI
 40
7.0
  9
$DIMRND
 40
0.0
  9
$DIMDLE
 40
0.0
  9
$DIMEXE
 40
2.0
  9
$DIMTP
 40
0.0
  9
$DIMTM
 40
0.0
  9
$DIMTXT
 40
2.0
  9
$DIMCEN
 40
2.5
  9
$DIMTSZ
 40
0.0
  9
$DIMTOL
 70
     0
  9
$DIMLIM
 70
     0
  9
$DIMTIH
 70
     0
  9
$DIMTOH
 70
     0
  9
$DIMSE1
 70
     0
  9
$DIMSE2
 70
     0
  9
$DIMTAD
 70
     1
  9
$DIMZIN
 70
     8
  9
$DIMBLK
  1

  9
$DIMASO
 70
     1
  9
$DIMSHO
 70
     1
  9
$DIMPOST
  1

  9
$DIMAPOST
  1

  9
$DIMALT
 70
     0
  9
$DIMALTD
 70
     3
  9
$DIMALTF
 40
0.03937007874016
  9
$DIMLFAC
 40
1.0
  9
$DIMTOFL
 70
     1
  9
$DIMTVP
 40
0.0
  9
$DIMTIX
 70
     0
  9
$DIMSOXD
 70
     0
  9
$DIMSAH
 70
     0
  9
$DIMBLK1
  1

  9
$DIMBLK2
  1

  9
$DIMSTYLE
  2
sadev_1-5
  9
$DIMCLRD
 70
   256
  9
$DIMCLRE
 70
   256
  9
$DIMCLRT
 70
    10
  9
$DIMTFAC
 40
1.0
  9
$DIMGAP
 40
0.5
  9
$DIMJUST
 70
     0
  9
$DIMSD1
 70
     0
  9
$DIMSD2
 70
     0
  9
$DIMTOLJ
 70
     0
  9
$DIMTZIN
 70
     8
  9
$DIMALTZ
 70
     0
  9
$DIMALTTZ
 70
     0
  9
$DIMUPT
 70
     0
  9
$DIMDEC
 70
     2
  9
$DIMTDEC
 70
     2
  9
$DIMALTU
 70
     2
  9
$DIMALTTD
 70
     3
  9
$DIMTXSTY
  7
cotation
  9
$DIMAUNIT
 70
     0
  9
$DIMADEC
 70
     0
  9
$DIMALTRND
 40
0.0
  9
$DIMAZIN
 70
     0
  9
$DIMDSEP
 70
    44
  9
$DIMATFIT
 70
     3
  9
$DIMFRAC
 70
     0
  9
$DIMLDRBLK
  1

  9
$DIMLUNIT
 70
     2
  9
$DIMLWD
 70
    -1
  9
$DIMLWE
 70
    -1
  9
$DIMTMOVE
 70
     0
  9
$LUNITS
 70
     2
  9
$LUPREC
 70
     4
  9
$SKETCHINC
 40
1.0
  9
$FILLETRAD
 40
10.0
  9
$AUNITS
 70
     0
  9
$AUPREC
 70
     0
  9
$MENU
  1
.
  9
$ELEVATION
 40
0.0
  9
$PELEVATION
 40
0.0
  9
$THICKNESS
 40
0.0
  9
$LIMCHECK
 70
     0
  9
$CHAMFERA
 40
10.0
  9
$CHAMFERB
 40
10.0
  9
$CHAMFERC
 40
20.0
  9
$CHAMFERD
 40
0.0
  9
$SKPOLY
 70
     0
  9
$TDCREATE
 40
2454468.434413449
  9
$TDUCREATE
 40
2454468.351080116
  9
$TDUPDATE
 40
2454608.430866493
  9
$TDUUPDATE
 40
2454608.347533160
  9
$TDINDWG
 40
0.2937524653
  9
$TDUSRTIMER
 40
0.2937515741
  9
$USRTIMER
 70
     1
  9
$ANGBASE
 50
0.0
  9
$ANGDIR
 70
     0
  9
$PDMODE
 70
     0
  9
$PDSIZE
 40
0.0
  9
$PLINEWID
 40
0.0
  9
$SPLFRAME
 70
     0
  9
$SPLINETYPE
 70
     6
  9
$SPLINESEGS
 70
     8
  9
$HANDSEED
  5
319
  9
$SURFTAB1
 70
     6
  9
$SURFTAB2
 70
     6
  9
$SURFTYPE
 70
     6
  9
$SURFU
 70
     6
  9
$SURFV
 70
     6
  9
$UCSBASE
  2

  9
$UCSNAME
  2

  9
$UCSORG
 10
0.0
 20
0.0
 30
0.0
  9
$UCSXDIR
 10
1.0
 20
0.0
 30
0.0
  9
$UCSYDIR
 10
0.0
 20
1.0
 30
0.0
  9
$UCSORTHOREF
  2

  9
$UCSORTHOVIEW
 70
     0
  9
$UCSORGTOP
 10
0.0
 20
0.0
 30
0.0
  9
$UCSORGBOTTOM
 10
0.0
 20
0.0
 30
0.0
  9
$UCSORGLEFT
 10
0.0
 20
0.0
 30
0.0
  9
$UCSORGRIGHT
 10
0.0
 20
0.0
 30
0.0
  9
$UCSORGFRONT
 10
0.0
 20
0.0
 30
0.0
  9
$UCSORGBACK
 10
0.0
 20
0.0
 30
0.0
  9
$PUCSBASE
  2

  9
$PUCSNAME
  2

  9
$PUCSORG
 10
0.0
 20
0.0
 30
0.0
  9
$PUCSXDIR
 10
1.0
 20
0.0
 30
0.0
  9
$PUCSYDIR
 10
0.0
 20
1.0
 30
0.0
  9
$PUCSORTHOREF
  2

  9
$PUCSORTHOVIEW
 70
     0
  9
$PUCSORGTOP
 10
0.0
 20
0.0
 30
0.0
  9
$PUCSORGBOTTOM
 10
0.0
 20
0.0
 30
0.0
  9
$PUCSORGLEFT
 10
0.0
 20
0.0
 30
0.0
  9
$PUCSORGRIGHT
 10
0.0
 20
0.0
 30
0.0
  9
$PUCSORGFRONT
 10
0.0
 20
0.0
 30
0.0
  9
$PUCSORGBACK
 10
0.0
 20
0.0
 30
0.0
  9
$USERI1
 70
     0
  9
$USERI2
 70
     0
  9
$USERI3
 70
     0
  9
$USERI4
 70
     0
  9
$USERI5
 70
     0
  9
$USERR1
 40
0.0
  9
$USERR2
 40
0.0
  9
$USERR3
 40
0.0
  9
$USERR4
 40
0.0
  9
$USERR5
 40
0.0
  9
$WORLDVIEW
 70
     1
  9
$SHADEDGE
 70
     3
  9
$SHADEDIF
 70
    70
  9
$TILEMODE
 70
     1
  9
$MAXACTVP
 70
    64
  9
$PINSBASE
 10
0.0
 20
0.0
 30
0.0
  9
$PLIMCHECK
 70
     0
  9
$PEXTMIN
 10
0.0
 20
0.0
 30
0.0
  9
$PEXTMAX
 10
210.0
 20
297.0
 30
0.0
  9
$PLIMMIN
 10
-0.2874896228714894
 20
-1.30719366923508
  9
$PLIMMAX
 10
209.6435101329879
 20
295.7458153639681
  9
$UNITMODE
 70
     0
  9
$VISRETAIN
 70
     1
  9
$PLINEGEN
 70
     0
  9
$PSLTSCALE
 70
     1
  9
$TREEDEPTH
 70
  3020
  9
$CMLSTYLE
  2
Standard
  9
$CMLJUST
 70
     0
  9
$CMLSCALE
 40
20.0
  9
$PROXYGRAPHICS
 70
     1
  9
$MEASUREMENT
 70
     1
  9
$CELWEIGHT
370
    -1
  9
$ENDCAPS
280
     0
  9
$JOINSTYLE
280
     0
  9
$LWDISPLAY
290
     0
  9
$INSUNITS
 70
     4
  9
$HYPERLINKBASE
  1

  9
$STYLESHEET
  1

  9
$XEDIT
290
     1
  9
$CEPSNTYPE
380
     0
  9
$PSTYLEMODE
290
     1
  9
$FINGERPRINTGUID
  2
{F954E789-FAAE-44D4-882D-EAAFD86F2902}
  9
$VERSIONGUID
  2
{EF88A703-CC84-41D4-8D98-AD6F0D6D59A3}
  9
$EXTNAMES
290
     1
  9
$PSVPSCALE
 40
0.0
  9
$OLESTARTUP
290
     0
  0
ENDSEC
  0
SECTION
  2
CLASSES
  0
CLASS
  1
ACDBDICTIONARYWDFLT
  2
AcDbDictionaryWithDefault
  3
ObjectDBX Classes
 90
        0
280
     0
281
     0
  0
CLASS
  1
ACDBPLACEHOLDER
  2
AcDbPlaceHolder
  3
ObjectDBX Classes
 90
        0
280
     0
281
     0
  0
CLASS
  1
LAYOUT
  2
AcDbLayout
  3
ObjectDBX Classes
 90
        0
280
     0
281
     0
  0
CLASS
  1
DICTIONARYVAR
  2
AcDbDictionaryVar
  3
ObjectDBX Classes
 90
        0
280
     0
281
     0
  0
CLASS
  1
MATERIAL
  2
AcDbMaterial
  3
ObjectDBX Classes
 90
     1024
280
     0
281
     0
  0
CLASS
  1
VISUALSTYLE
  2
AcDbVisualStyle
  3
ObjectDBX Classes
 90
     4095
280
     0
281
     0
  0
CLASS
  1
TABLESTYLE
  2
AcDbTableStyle
  3
ObjectDBX Classes
 90
     4095
280
     0
281
     0
  0
CLASS
  1
ACAD_EVALUATION_GRAPH
  2
AcDbEvalGraph
  3
ObjectDBX Classes
 90
    33921
280
     0
281
     0
  0
CLASS
  1
ACAECUSTOBJ
  2
AcAeEditorObj
  3
AcAeEditorObj
 90
    33792
280
     0
281
     0
  0
CLASS
  1
ACDB_DYNAMICBLOCKPURGEPREVENTER_VERSION
  2
AcDbDynamicBlockPurgePreventer
  3
ObjectDBX Classes
 90
    33921
280
     0
281
     0
  0
CLASS
  1
BLOCKBASEPOINTPARAMETER
  2
AcDbBlockBasepointParameter
  3
ObjectDBX Classes
 90
    33921
280
     0
281
     0
  0
CLASS
  1
BASEPOINTPARAMETERENTITY
  2
AcDbBlockBasepointParameterEntity
  3
ObjectDBX Classes
 90
    33793
280
     0
281
     1
  0
CLASS
  1
ACAEEEMGROBJ
  2
AcAeEEMgrObj
  3
AcAeEEMgrObj
 90
    33792
280
     0
281
     0
  0
CLASS
  1
SOLID_BACKGROUND
  2
AcDbSolidBackground
  3
SCENEOE
 90
    36863
280
     0
281
     0
  0
CLASS
  1
NPOCOLLECTION
  2
AcDbImpNonPersistentObjectsCollection
  3
ObjectDBX Classes
 90
    33921
280
     0
281
     0
  0
CLASS
  1
SORTENTSTABLE
  2
AcDbSortentsTable
  3
ObjectDBX Classes
 90
        0
280
     0
281
     0
  0
ENDSEC
  0
SECTION
  2
TABLES
  0
TABLE
  2
VPORT
  5
1DE
102
{ACAD_XDICTIONARY
360
2D6
102
}
330
0
100
AcDbSymbolTable
 70
     1
  0
VPORT
  5
1DF
330
1DE
100
AcDbSymbolTableRecord
100
AcDbViewportTableRecord
  2
*Active
 70
     0
 10
0.0
 20
0.0
 11
1.0
 21
1.0
 12
54.78637242132368
 22
54.78506713932768
 13
0.0
 23
0.0
 14
10.0
 24
10.0
 15
10.0
 25
10.0
 16
0.0
 26
0.0
 36
1.0
 17
0.0
 27
0.0
 37
0.0
 40
110.5109788628972
 41
1.575757575757575
 42
50.0
 43
0.0
 44
0.0
 50
0.0
 51
0.0
 71
     0
 72
   100
 73
     1
 74
     1
 75
     0
 76
     0
 77
     0
 78
     0
281
     0
 65
     1
110
0.0
120
0.0
130
0.0
111
1.0
121
0.0
131
0.0
112
0.0
122
1.0
132
0.0
 79
     0
146
0.0
  0
ENDTAB
  0
TABLE
  2
LTYPE
  5
1D9
330
0
100
AcDbSymbolTable
 70
     1
  0
LTYPE
  5
1DA
330
1D9
100
AcDbSymbolTableRecord
100
AcDbLinetypeTableRecord
  2
ByBlock
 70
     0
  3

 72
    65
 73
     0
 40
0.0
  0
LTYPE
  5
1DB
330
1D9
100
AcDbSymbolTableRecord
100
AcDbLinetypeTableRecord
  2
ByLayer
 70
     0
  3

 72
    65
 73
     0
 40
0.0
  0
LTYPE
  5
C
330
1D9
100
AcDbSymbolTableRecord
100
AcDbLinetypeTableRecord
  2
Continuous
 70
     0
  3
Solid line
 72
    65
 73
     0
 40
0.0
  0
ENDTAB
  0
TABLE
  2
LAYER
  5
14
102
{ACAD_XDICTIONARY
360
15
102
}
330
0
100
AcDbSymbolTable
 70
     3
  0
LAYER
  5
6
330
14
100
AcDbSymbolTableRecord
100
AcDbLayerTableRecord
  2
0
 70
     0
 62
     7
  6
Continuous
370
    -3
390
7
  0
LAYER
  5
2B7
330
14
100
AcDbSymbolTableRecord
100
AcDbLayerTableRecord
  2
percage
 70
     0
 62
     5
  6
Continuous
370
    -3
390
7
  0
LAYER
  5
1F7
330
14
100
AcDbSymbolTableRecord
100
AcDbLayerTableRecord
  2
renvoi
 70
     0
 62
     7
  6
Continuous
370
    -3
390
7
  0
ENDTAB
  0
TABLE
  2
STYLE
  5
1D6
330
0
100
AcDbSymbolTable
 70
     3
  0
STYLE
  5
1D7
330
1D6
100
AcDbSymbolTableRecord
100
AcDbTextStyleTableRecord
  2
Standard
 70
     0
 40
0.0
 41
1.0
 50
0.0
 71
     0
 42
2.5
  3
txt
  4

  0
STYLE
  5
1F1
330
1D6
100
AcDbSymbolTableRecord
100
AcDbTextStyleTableRecord
  2
ISOCP
 70
     0
 40
0.0
 41
1.0
 50
0.0
 71
     0
 42
53.96816269751105
  3
isocp
  4

  0
STYLE
  5
1E6
330
1D6
100
AcDbSymbolTableRecord
100
AcDbTextStyleTableRecord
  2
cotation
 70
     0
 40
0.0
 41
1.0
 50
10.0
 71
     0
 42
2.5
  3
romans.shx
  4

  0
ENDTAB
  0
TABLE
  2
VIEW
  5
1DC
330
0
100
AcDbSymbolTable
 70
     0
  0
ENDTAB
  0
TABLE
  2
UCS
  5
1DD
330
0
100
AcDbSymbolTable
 70
     0
  0
ENDTAB
  0
TABLE
  2
APPID
  5
1E2
330
0
100
AcDbSymbolTable
 70
     2
  0
APPID
  5
1E3
330
1E2
100
AcDbSymbolTableRecord
100
AcDbRegAppTableRecord
  2
ACAD
 70
     0
  0
APPID
  5
1F8
330
1E2
100
AcDbSymbolTableRecord
100
AcDbRegAppTableRecord
  2
AcDbBlockRepETag
 70
     0
  0
ENDTAB
  0
TABLE
  2
DIMSTYLE
  5
1E4
330
0
100
AcDbSymbolTable
 70
     3
100
AcDbDimStyleTable
 71
     1
340
1E5
  0
DIMSTYLE
105
1E5
330
1E4
100
AcDbSymbolTableRecord
100
AcDbDimStyleTableRecord
  2
sadev_1-5
 70
     0
 40
5.0
 41
3.0
 42
1.0
 43
7.0
 44
2.0
 73
     0
 74
     0
 77
     1
 78
     8
140
2.0
141
2.5
143
0.03937007874016
147
0.5
171
     3
172
     1
176
   256
177
   256
178
    10
271
     2
272
     2
274
     3
278
    44
283
     0
284
     8
340
1E6
371
    -1
372
    -1
  0
ENDTAB
  0
TABLE
  2
BLOCK_RECORD
  5
1
330
0
100
AcDbSymbolTable
 70
     0
  0
BLOCK_RECORD
  5
2
102
{ACAD_XDICTIONARY
360
3
102
}
330
1
100
AcDbSymbolTableRecord
100
AcDbBlockTableRecord
  2
*Model_Space
340
E
1001
ACAD
1000
DesignCenter Data
1002
{
1070
     1
1070
     4
1002
}
  0
BLOCK_RECORD
  5
10
330
1
100
AcDbSymbolTableRecord
100
AcDbBlockTableRecord
  2
*Paper_Space
340
13
  0
ENDTAB
  0
ENDSEC
  0
SECTION
  2
BLOCKS
  0
BLOCK
  5
5
330
2
100
AcDbEntity
  8
0
100
AcDbBlockBegin
  2
*Model_Space
 70
     0
 10
0.0
 20
0.0
 30
0.0
  3
*Model_Space
  1

  0
ENDBLK
  5
D
330
2
100
AcDbEntity
  8
0
100
AcDbBlockEnd
  0
BLOCK
  5
11
330
10
100
AcDbEntity
 67
     1
  8
0
100
AcDbBlockBegin
  2
*Paper_Space
 70
     0
 10
0.0
 20
0.0
 30
0.0
  3
*Paper_Space
  1

  0
ENDBLK
  5
12
330
10
100
AcDbEntity
 67
     1
  8
0
100
AcDbBlockEnd
  0
ENDSEC
  0
SECTION
  2
ENTITIES
  0
LINE
  5
1F6
330
2
100
AcDbEntity
  8
renvoi
100
AcDbLine
 10
22.6994743322075
 20
74.31271897660741
 30
0.0
 11
32.45481209272566
 21
64.55738121608925
 31
0.0
1001
AcDbBlockRepETag
1070
     1
1071
        0
1005
1F6
  0
LINE
  5
1F9
330
2
100
AcDbEntity
  8
renvoi
100
AcDbLine
 10
6.000020975549887
 20
83.48167033666909
 30
0.0
 11
6.000020975549887
 21
67.1023262787059
 31
0.0
1001
AcDbBlockRepETag
1070
     1
1071
        1
1005
1F9
  0
LINE
  5
1FA
330
2
100
AcDbEntity
  8
renvoi
100
AcDbLine
 10
1.000020975548977
 20
109.0685424949225
 30
0.0
 11
1.000020975548977
 21
60.06854249492232
 31
0.0
1001
AcDbBlockRepETag
1070
     1
1071
        2
1005
1FA
  0
LINE
  5
1FB
330
2
100
AcDbEntity
  8
renvoi
100
AcDbLine
 10
1.500020975548977
 20
109.5685424949225
 30
0.0
 11
1.500020975548977
 21
59.56854249492232
 31
0.0
1001
AcDbBlockRepETag
1070
     1
1071
        3
1005
1FB
  0
LINE
  5
1FC
330
2
100
AcDbEntity
  8
renvoi
100
AcDbLine
 10
3.500020975548977
 20
109.5685424949225
 30
0.0
 11
3.500020975548977
 21
59.56854249492238
 31
0.0
1001
AcDbBlockRepETag
1070
     1
1071
        4
1005
1FC
  0
LINE
  5
1FD
330
2
100
AcDbEntity
  8
renvoi
100
AcDbLine
 10
4.128852300828839
 20
109.0854250251219
 30
0.0
 11
4.128852300828839
 21
60.051659964723
 31
0.0
1001
AcDbBlockRepETag
1070
     1
1071
        5
1005
1FD
  0
LINE
  5
1FE
330
2
100
AcDbEntity
  8
renvoi
100
AcDbLine
 10
1.0
 20
60.06854249492249
 30
0.0
 11
1.0
 21
109.0685424949225
 31
0.0
1001
AcDbBlockRepETag
1070
     1
1071
        6
1005
1FE
  0
LINE
  5
1FF
330
2
100
AcDbEntity
  8
renvoi
100
AcDbLine
 10
0.0
 20
60.06854249492249
 30
0.0
 11
0.0
 21
109.0685424949225
 31
0.0
1001
AcDbBlockRepETag
1070
     1
1071
        7
1005
1FF
  0
CIRCLE
  5
200
330
2
100
AcDbEntity
  8
renvoi
100
AcDbCircle
 10
56.10749455216773
 20
56.46104794276027
 30
0.0
 40
25.00000000000011
1001
AcDbBlockRepETag
1070
     1
1071
        8
1005
200
  0
CIRCLE
  5
201
330
2
100
AcDbEntity
  8
renvoi
100
AcDbCircle
 10
56.10749455216773
 20
56.46104794276027
 30
0.0
 40
24.5
1001
AcDbBlockRepETag
1070
     1
1071
        9
1005
201
  0
SPLINE
  5
202
330
2
100
AcDbEntity
  8
renvoi
100
AcDbSpline
210
0.0
220
0.0
230
1.0
 70
     8
 71
     3
 72
    34
 73
    30
 74
     0
 42
0.0000000001
 43
0.0000000001
 40
2.108031772858938
 40
2.108031772858938
 40
2.108031772858938
 40
2.108031772858938
 40
3.211772144449517
 40
3.211772144449517
 40
4.817658216674276
 40
4.817658216674276
 40
6.423544288899035
 40
6.423544288899035
 40
7.770982702198253
 40
7.770982702198253
 40
9.11842111549747
 40
9.11842111549747
 40
10.46585952879669
 40
10.46585952879669
 40
11.8132979420959
 40
11.8132979420959
 40
13.16073635539498
 40
13.16073635539498
 40
14.50817476869406
 40
14.50817476869406
 40
15.85561318199314
 40
15.85561318199314
 40
17.20305159529221
 40
17.20305159529221
 40
18.80893766751733
 40
18.80893766751733
 40
20.41482373974245
 40
20.41482373974245
 40
21.51856411134432
 40
21.51856411134432
 40
21.51856411134432
 40
21.51856411134432
 10
42.30849685121211
 20
82.26002998824583
 30
0.0
 10
42.27814612182192
 20
81.97402397593771
 30
0.0
 10
42.23729931964681
 20
81.67683770453839
 30
0.0
 10
42.10756839759324
 20
80.93046201232073
 30
0.0
 10
42.00497760924281
 20
80.47330290513668
 30
0.0
 10
41.74655851736588
 20
79.55821512548311
 30
0.0
 10
41.59063440974295
 20
79.10028291562418
 30
0.0
 10
41.26352719233364
 20
78.28512627396134
 30
0.0
 10
41.08733479593683
 20
77.89469173556461
 30
0.0
 10
40.67958398645714
 20
77.10367036212352
 30
0.0
 10
40.44794389845992
 20
76.70310810349036
 30
0.0
 10
39.9360385246373
 20
75.91810072446441
 30
0.0
 10
39.65542900008586
 20
75.5332387885473
 30
0.0
 10
39.06112592229147
 20
74.8023402345155
 30
0.0
 10
38.74741930226355
 20
74.45631175218358
 30
0.0
 10
38.11223074274676
 20
73.82112319266685
 30
0.0
 10
37.76620226041541
 20
73.50741657263899
 30
0.0
 10
37.03530370638418
 20
72.91311349484408
 30
0.0
 10
36.6504417704673
 20
72.63250397029191
 30
0.0
 10
35.86543439144134
 20
72.12059859646894
 30
0.0
 10
35.46487213280852
 20
71.88895850847121
 30
0.0
 10
34.67385075936636
 20
71.48120769899105
 30
0.0
 10
34.28341622096923
 20
71.3050153025942
 30
0.0
 10
33.46825957930651
 20
70.97790808518431
 30
0.0
 10
33.01032736944762
 20
70.82198397756076
 30
0.0
 10
32.09523958979298
 20
70.56356488568389
 30
0.0
 10
31.63808048260853
 20
70.46097409733295
 30
0.0
 10
30.89170479038694
 20
70.3312431752783
 30
0.0
 10
30.59451851898393
 20
70.29039637310228
 30
0.0
 10
30.30851250667274
 20
70.26004564371226
 30
0.0
1001
AcDbBlockRepETag
1070
     1
1071
       10
1005
202
  0
LINE
  5
203
330
2
100
AcDbEntity
  8
renvoi
100
AcDbLine
 10
29.57240788628587
 20
69.52394102332556
 30
0.0
 11
24.68944648775323
 21
74.4069024218582
 31
0.0
1001
AcDbBlockRepETag
1070
     1
1071
       11
1005
203
  0
LINE
  5
204
330
2
100
AcDbEntity
  8
renvoi
100
AcDbLine
 10
13.99999999999909
 20
73.90317799107197
 30
0.0
 11
13.99999999999909
 21
72.67854249492086
 31
0.0
1001
AcDbBlockRepETag
1070
     1
1071
       12
1005
204
  0
LINE
  5
205
330
2
100
AcDbEntity
  8
renvoi
100
AcDbLine
 10
6.5
 20
97.32456789870719
 30
0.0
 11
6.5
 21
71.81251709113769
 31
0.0
1001
AcDbBlockRepETag
1070
     1
1071
       13
1005
205
  0
LINE
  5
206
330
2
100
AcDbEntity
  8
renvoi
100
AcDbLine
 10
7.0
 20
96.4585424949222
 30
0.0
 11
7.0
 21
72.67854249492268
 31
0.0
1001
AcDbBlockRepETag
1070
     1
1071
       14
1005
206
  0
LINE
  5
207
330
2
100
AcDbEntity
  8
renvoi
100
AcDbLine
 10
7.5
 20
97.32456789870695
 30
0.0
 11
7.5
 21
71.81251709113792
 31
0.0
1001
AcDbBlockRepETag
1070
     1
1071
       15
1005
207
  0
LINE
  5
208
330
2
100
AcDbEntity
  8
renvoi
100
AcDbLine
 10
8.0
 20
96.45854249492243
 30
0.0
 11
8.0
 21
72.67854249492245
 31
0.0
1001
AcDbBlockRepETag
1070
     1
1071
       16
1005
208
  0
LINE
  5
209
330
2
100
AcDbEntity
  8
renvoi
100
AcDbLine
 10
8.5
 20
97.32456789870731
 30
0.0
 11
8.5
 21
71.81251709113758
 31
0.0
1001
AcDbBlockRepETag
1070
     1
1071
       17
1005
209
  0
LINE
  5
20A
330
2
100
AcDbEntity
  8
renvoi
100
AcDbLine
 10
9.0
 20
96.45854249492254
 30
0.0
 11
9.0
 21
72.67854249492234
 31
0.0
1001
AcDbBlockRepETag
1070
     1
1071
       18
1005
20A
  0
LINE
  5
20B
330
2
100
AcDbEntity
  8
renvoi
100
AcDbLine
 10
9.5
 20
97.32456789870719
 30
0.0
 11
9.5
 21
71.81251709113769
 31
0.0
1001
AcDbBlockRepETag
1070
     1
1071
       19
1005
20B
  0
LINE
  5
20C
330
2
100
AcDbEntity
  8
renvoi
100
AcDbLine
 10
10.0
 20
96.45854249492238
 30
0.0
 11
10.0
 21
72.67854249492251
 31
0.0
1001
AcDbBlockRepETag
1070
     1
1071
       20
1005
20C
  0
LINE
  5
20D
330
2
100
AcDbEntity
  8
renvoi
100
AcDbLine
 10
10.5
 20
97.32456789870731
 30
0.0
 11
10.5
 21
71.81251709113758
 31
0.0
1001
AcDbBlockRepETag
1070
     1
1071
       21
1005
20D
  0
LINE
  5
20E
330
2
100
AcDbEntity
  8
renvoi
100
AcDbLine
 10
11.0
 20
96.45854249492243
 30
0.0
 11
11.0
 21
72.67854249492245
 31
0.0
1001
AcDbBlockRepETag
1070
     1
1071
       22
1005
20E
  0
LINE
  5
20F
330
2
100
AcDbEntity
  8
renvoi
100
AcDbLine
 10
11.5
 20
97.32456789870731
 30
0.0
 11
11.5
 21
71.81251709113758
 31
0.0
1001
AcDbBlockRepETag
1070
     1
1071
       23
1005
20F
  0
LINE
  5
210
330
2
100
AcDbEntity
  8
renvoi
100
AcDbLine
 10
12.0
 20
96.45854249492254
 30
0.0
 11
12.0
 21
72.67854249492234
 31
0.0
1001
AcDbBlockRepETag
1070
     1
1071
       24
1005
210
  0
LINE
  5
211
330
2
100
AcDbEntity
  8
renvoi
100
AcDbLine
 10
12.49999999999909
 20
97.3245678987069
 30
0.0
 11
12.49999999999909
 21
71.81251709113798
 31
0.0
1001
AcDbBlockRepETag
1070
     1
1071
       25
1005
211
  0
LINE
  5
212
330
2
100
AcDbEntity
  8
renvoi
100
AcDbLine
 10
13.0
 20
96.45854249492254
 30
0.0
 11
13.0
 21
72.67854249492234
 31
0.0
1001
AcDbBlockRepETag
1070
     1
1071
       26
1005
212
  0
LINE
  5
213
330
2
100
AcDbEntity
  8
renvoi
100
AcDbLine
 10
13.5
 20
97.32456789870708
 30
0.0
 11
13.5
 21
71.8125170911378
 31
0.0
1001
AcDbBlockRepETag
1070
     1
1071
       27
1005
213
  0
ARC
  5
214
330
2
100
AcDbEntity
  8
renvoi
100
AcDbCircle
 10
84.3917657996244
 20
28.17677669529457
 30
0.0
 40
11.00000000000096
100
AcDbArc
 50
340.2005465424876
 51
25.24818148659434
1001
AcDbBlockRepETag
1070
     1
1071
       28
1005
214
  0
LINE
  5
215
330
2
100
AcDbEntity
  8
renvoi
100
AcDbLine
 10
64.20382782549586
 20
32.80836548331848
 30
0.0
 11
74.31271897660735
 21
22.69947433220744
 31
0.0
1001
AcDbBlockRepETag
1070
     1
1071
       29
1005
215
  0
LINE
  5
216
330
2
100
AcDbEntity
  8
renvoi
100
AcDbLine
 10
69.17038763273286
 20
29.9259612768787
 30
0.0
 11
69.90649225311972
 21
30.66206589726557
 31
0.0
1001
AcDbBlockRepETag
1070
     1
1071
       30
1005
216
  0
SPLINE
  5
217
330
2
100
AcDbEntity
  8
renvoi
100
AcDbSpline
210
0.0
220
0.0
230
1.0
 70
     8
 71
     3
 72
    34
 73
    30
 74
     0
 42
0.0000000001
 43
0.0000000001
 40
2.108031772848421
 40
2.108031772848421
 40
2.108031772848421
 40
2.108031772848421
 40
3.211772144450329
 40
3.211772144450329
 40
4.817658216675495
 40
4.817658216675495
 40
6.423544288900659
 40
6.423544288900659
 40
7.770982702199698
 40
7.770982702199698
 40
9.118421115498737
 40
9.118421115498737
 40
10.46585952879777
 40
10.46585952879777
 40
11.81329794209681
 40
11.81329794209681
 40
13.16073635539606
 40
13.16073635539606
 40
14.50817476869531
 40
14.50817476869531
 40
15.85561318199455
 40
15.85561318199455
 40
17.2030515952938
 40
17.2030515952938
 40
18.80893766751858
 40
18.80893766751858
 40
20.41482373974337
 40
20.41482373974337
 40
21.51856411133374
 40
21.51856411133374
 40
21.51856411133374
 40
21.51856411133374
 10
69.90649225311972
 20
30.66206589726562
 30
0.0
 10
69.93684298250901
 20
30.94807190957681
 30
0.0
 10
69.97768978468593
 20
31.24525818097942
 30
0.0
 10
70.10742070674041
 20
31.99163387320101
 30
0.0
 10
70.21001149509084
 20
32.44879298038575
 30
0.0
 10
70.46843058696777
 20
33.36388076004033
 30
0.0
 10
70.6243546945916
 20
33.82181296989927
 30
0.0
 10
70.95146191200092
 20
34.63696961156268
 30
0.0
 10
71.12765430839863
 20
35.02740414995941
 30
0.0
 10
71.53540511787833
 20
35.81842552340089
 30
0.0
 10
71.76704520587645
 20
36.21898778203377
 30
0.0
 10
72.27895057969909
 20
37.00399516105961
 30
0.0
 10
72.55956010425143
 20
37.38885709697655
 30
0.0
 10
73.15386318204582
 20
38.11975565100801
 30
0.0
 10
73.46756980207373
 20
38.46578413333941
 30
0.0
 10
74.10275836159053
 20
39.1009726928562
 30
0.0
 10
74.44878684392278
 20
39.41467931288372
 30
0.0
 10
75.17968539795493
 20
40.00898239067828
 30
0.0
 10
75.56454733387181
 20
40.28959191523035
 30
0.0
 10
76.34955471289777
 20
40.80149728905275
 30
0.0
 10
76.75011697153059
 20
41.03313737704991
 30
0.0
 10
77.54113834497184
 20
41.44088818652943
 30
0.0
 10
77.93157288336897
 20
41.61708058292634
 30
0.0
 10
78.7467295250317
 20
41.94418780033567
 30
0.0
 10
79.20466173489058
 20
42.10011190795853
 30
0.0
 10
80.11974951454432
 20
42.35853099983495
 30
0.0
 10
80.57690862172785
 20
42.46112178818555
 30
0.0
 10
81.32328431394581
 20
42.5908527102394
 30
0.0
 10
81.62047058534517
 20
42.63169951241496
 30
0.0
 10
81.90647659765364
 20
42.66205024180464
 30
0.0
1001
AcDbBlockRepETag
1070
     1
1071
       31
1005
217
  0
LINE
  5
218
330
2
100
AcDbEntity
  8
renvoi
100
AcDbLine
 10
84.56854249492243
 20
30.88675134594689
 30
0.0
 11
82.06854249492243
 21
29.44337567297282
 31
0.0
1001
AcDbBlockRepETag
1070
     1
1071
       32
1005
218
  0
LINE
  5
219
330
2
100
AcDbEntity
  8
renvoi
100
AcDbLine
 10
87.06854249492243
 20
29.44337567297282
 30
0.0
 11
84.56854249492243
 21
30.88675134594689
 31
0.0
1001
AcDbBlockRepETag
1070
     1
1071
       33
1005
219
  0
CIRCLE
  5
21A
330
2
100
AcDbEntity
  8
renvoi
100
AcDbCircle
 10
84.56854249492243
 20
27.99999999999881
 30
0.0
 40
6.5
1001
AcDbBlockRepETag
1070
     1
1071
       34
1005
21A
  0
SPLINE
  5
21B
330
2
100
AcDbEntity
  8
renvoi
100
AcDbSpline
210
0.0
220
0.0
230
1.0
 70
    12
 71
     2
 72
     6
 73
     3
 74
     0
 42
0.0000000001
 43
0.0000000001
 40
0.0
 40
0.0
 40
0.0
 40
19.68807474904354
 40
19.68807474904354
 40
19.68807474904354
 10
73.90317799107197
 20
13.99999999999818
 30
0.0
 41
1.0
 10
74.39026847268997
 20
24.38999506561732
 30
0.0
 41
1.001006788476264
 10
74.84376376666296
 20
33.86368937365842
 30
0.0
 41
1.000363652240566
1001
AcDbBlockRepETag
1070
     1
1071
       35
1005
21B
  0
SPLINE
  5
21C
330
2
100
AcDbEntity
  8
renvoi
100
AcDbSpline
210
0.0
220
0.0
230
1.0
 70
    12
 71
     2
 72
     6
 73
     3
 74
     0
 42
0.0000000001
 43
0.0000000001
 40
4.339357088853372
 40
4.339357088853372
 40
4.339357088853372
 40
24.02743183789691
 40
24.02743183789691
 40
24.02743183789691
 10
94.29332122318191
 20
33.86368937365842
 30
0.0
 41
1.000363652240566
 10
94.7468165171549
 20
24.38999506561732
 30
0.0
 41
1.001006788476264
 10
95.23390699877291
 20
13.99999999999818
 30
0.0
 41
1.0
1001
AcDbBlockRepETag
1070
     1
1071
       36
1005
21C
  0
SPLINE
  5
21D
330
2
100
AcDbEntity
  8
renvoi
100
AcDbSpline
210
0.0
220
0.0
230
1.0
 70
    11
 71
     3
 72
    70
 73
    66
 74
     0
 42
0.0000000001
 43
0.0000000001
 40
0.0
 40
0.0
 40
0.0
 40
0.0
 40
1.332150015172175
 40
1.332150015172175
 40
2.66430003034435
 40
2.66430003034435
 40
3.996450045516525
 40
3.996450045516525
 40
5.3286000606887
 40
5.3286000606887
 40
6.662092894037161
 40
6.662092894037161
 40
7.995585727385623
 40
7.995585727385623
 40
9.329078560734085
 40
9.329078560734085
 40
10.66257139408254
 40
10.66257139408254
 40
11.99606422743101
 40
11.99606422743101
 40
13.32955706077947
 40
13.32955706077947
 40
14.66304989412793
 40
14.66304989412793
 40
15.99654272747639
 40
15.99654272747639
 40
17.32869274264857
 40
17.32869274264857
 40
18.66084275782074
 40
18.66084275782074
 40
19.99299277299292
 40
19.99299277299292
 40
21.32514278816509
 40
21.32514278816509
 40
22.72573459962985
 40
22.72573459962985
 40
24.12632641109461
 40
24.12632641109461
 40
25.52691822255937
 40
25.52691822255937
 40
26.92751003402412
 40
26.92751003402412
 40
28.31375335751618
 40
28.31375335751618
 40
29.69999668100822
 40
29.69999668100822
 40
31.08624000450027
 40
31.08624000450027
 40
32.47248332799232
 40
32.47248332799232
 40
33.8587266514844
 40
33.8587266514844
 40
35.24496997497648
 40
35.24496997497648
 40
36.63121329846857
 40
36.63121329846857
 40
38.01745662196065
 40
38.01745662196065
 40
39.41804843342539
 40
39.41804843342539
 40
40.81864024489013
 40
40.81864024489013
 40
42.21923205635486
 40
42.21923205635486
 40
43.61982386781961
 40
43.61982386781961
 40
43.61982386781961
 40
43.61982386781961
 10
77.57082721963434
 20
28.17883211678691
 30
0.0
 10
77.58216542878199
 20
28.62249716294627
 30
0.0
 10
77.63662951745755
 20
29.0758891096757
 30
0.0
 10
77.83541851958398
 20
29.968247069688
 30
0.0
 10
77.97966111035657
 20
30.40726687703773
 30
0.0
 10
78.34801907633845
 20
31.24243653015492
 30
0.0
 10
78.57244701664331
 20
31.63949325946215
 30
0.0
 10
79.08305069419111
 20
32.37132152771301
 30
0.0
 10
79.36932374957814
 20
32.70611726658263
 30
0.0
 10
79.9750266987794
 20
33.29899894374648
 30
0.0
 10
80.31709035228686
 20
33.57911481595875
 30
0.0
 10
81.06426886649932
 20
34.07630099661856
 30
0.0
 10
81.46942198466149
 20
34.29340631549803
 30
0.0
 10
82.31946848153985
 20
34.6447858046231
 30
0.0
 10
82.76520135345618
 20
34.77933450142973
 30
0.0
 10
83.66747962097361
 20
34.9569750073606
 30
0.0
 10
84.12404488380616
 20
34.99999999999818
 30
0.0
 10
85.01304010603872
 20
34.99999999999818
 30
0.0
 10
85.46960536887127
 20
34.9569750073606
 30
0.0
 10
86.3718836363887
 20
34.77933450142973
 30
0.0
 10
86.81761650830503
 20
34.6447858046231
 30
0.0
 10
87.66766300518339
 20
34.29340631549803
 30
0.0
 10
88.07281612334554
 20
34.07630099661856
 30
0.0
 10
88.81999463755802
 20
33.57911481595875
 30
0.0
 10
89.16205829106548
 20
33.29899894374648
 30
0.0
 10
89.76776124026674
 20
32.70611726658263
 30
0.0
 10
90.05403429565376
 20
32.37132152771301
 30
0.0
 10
90.56463797320157
 20
31.63949325946215
 30
0.0
 10
90.78906591350643
 20
31.24243653015492
 30
0.0
 10
91.15742387948831
 20
30.40726687703773
 30
0.0
 10
91.3016664702609
 20
29.968247069688
 30
0.0
 10
91.50045547238732
 20
29.0758891096757
 30
0.0
 10
91.55491956106288
 20
28.62249716294627
 30
0.0
 10
91.57817850189166
 20
27.71237291654052
 30
0.0
 10
91.54301558107546
 20
27.23706539596333
 30
0.0
 10
91.37615705616463
 20
26.30243463867646
 30
0.0
 10
91.24457487006656
 20
25.84301869675437
 30
0.0
 10
90.8953078286304
 20
24.96783380650323
 30
0.0
 10
90.67734652173021
 20
24.55119280851432
 30
0.0
 10
90.1732847594094
 20
23.78115870699184
 30
0.0
 10
89.88706234333676
 20
23.42775125678691
 30
0.0
 10
89.27830777495637
 20
22.80324073087832
 30
0.0
 10
88.93397945024663
 20
22.50863769690568
 30
0.0
 10
88.17689069743755
 20
21.98402767440166
 30
0.0
 10
87.76408833257665
 20
21.75398412013692
 30
0.0
 10
86.8937785025164
 20
21.38052063804298
 30
0.0
 10
86.43533965422738
 20
21.23678515181109
 30
0.0
 10
85.50377464808025
 20
21.04648667663787
 30
0.0
 10
85.0306236027527
 20
20.99999999999818
 30
0.0
 10
84.10646138709216
 20
20.99999999999818
 30
0.0
 10
83.63331034176553
 20
21.04648667663878
 30
0.0
 10
82.7017453356184
 20
21.23678515181109
 30
0.0
 10
82.24330648732939
 20
21.38052063804298
 30
0.0
 10
81.37299665726823
 20
21.75398412013692
 30
0.0
 10
80.96019429240824
 20
21.98402767440166
 30
0.0
 10
80.20310553959825
 20
22.50863769690568
 30
0.0
 10
79.85877721488851
 20
22.80324073087832
 30
0.0
 10
79.25002264650811
 20
23.42775125678691
 30
0.0
 10
78.96380023043639
 20
23.78115870699184
 30
0.0
 10
78.45973846811467
 20
24.55119280851432
 30
0.0
 10
78.24177716121448
 20
24.96783380650323
 30
0.0
 10
77.89251011977831
 20
25.84301869675437
 30
0.0
 10
77.76092793368025
 20
26.30243463867646
 30
0.0
 10
77.59406940876942
 20
27.23706539596333
 30
0.0
 10
77.55890648795321
 20
27.71237291654052
 30
0.0
 10
77.57082721963434
 20
28.17883211678691
 30
0.0
1001
AcDbBlockRepETag
1070
     1
1071
       37
1005
21D
  0
LINE
  5
21E
330
2
100
AcDbEntity
  8
renvoi
100
AcDbLine
 10
72.67854249492211
 20
8.999999999999204
 30
0.0
 11
71.81251709113803
 21
9.499999999999204
 31
0.0
1001
AcDbBlockRepETag
1070
     1
1071
       38
1005
21E
  0
LINE
  5
21F
330
2
100
AcDbEntity
  8
renvoi
100
AcDbLine
 10
96.45854249492277
 20
8.999999999999204
 30
0.0
 11
97.32456789870775
 21
9.499999999999204
 31
0.0
1001
AcDbBlockRepETag
1070
     1
1071
       39
1005
21F
  0
LINE
  5
220
330
2
100
AcDbEntity
  8
renvoi
100
AcDbLine
 10
83.48167033666959
 20
6.00002097554875
 30
0.0
 11
67.10232627870573
 21
6.00002097554875
 31
0.0
1001
AcDbBlockRepETag
1070
     1
1071
       40
1005
220
  0
LINE
  5
221
330
2
100
AcDbEntity
  8
renvoi
100
AcDbLine
 10
109.0685424949224
 20
1.000020975548409
 30
0.0
 11
60.06854249492244
 21
1.000020975548409
 31
0.0
1001
AcDbBlockRepETag
1070
     1
1071
       41
1005
221
  0
LINE
  5
222
330
2
100
AcDbEntity
  8
renvoi
100
AcDbLine
 10
109.5685424949224
 20
1.500020975548409
 30
0.0
 11
59.56854249492244
 21
1.500020975548409
 31
0.0
1001
AcDbBlockRepETag
1070
     1
1071
       42
1005
222
  0
LINE
  5
223
330
2
100
AcDbEntity
  8
renvoi
100
AcDbLine
 10
109.5685424949224
 20
3.500020975548352
 30
0.0
 11
59.56854249492244
 21
3.500020975548352
 31
0.0
1001
AcDbBlockRepETag
1070
     1
1071
       43
1005
223
  0
LINE
  5
224
330
2
100
AcDbEntity
  8
renvoi
100
AcDbLine
 10
109.0854250251223
 20
4.128852300828555
 30
0.0
 11
60.05165996472351
 21
4.128852300828555
 31
0.0
1001
AcDbBlockRepETag
1070
     1
1071
       44
1005
224
  0
LINE
  5
225
330
2
100
AcDbEntity
  8
renvoi
100
AcDbLine
 10
60.06854249492244
 20
0.9999999999995452
 30
0.0
 11
109.0685424949224
 21
0.9999999999995452
 31
0.0
1001
AcDbBlockRepETag
1070
     1
1071
       45
1005
225
  0
LINE
  5
226
330
2
100
AcDbEntity
  8
renvoi
100
AcDbLine
 10
60.06854249492244
 20
0.0
 30
0.0
 11
109.0685424949224
 21
0.0
 31
0.0
1001
AcDbBlockRepETag
1070
     1
1071
       46
1005
226
  0
LINE
  5
227
330
2
100
AcDbEntity
  8
renvoi
100
AcDbLine
 10
97.32456789870775
 20
6.49999999999909
 30
0.0
 11
71.81251709113803
 21
6.49999999999909
 31
0.0
1001
AcDbBlockRepETag
1070
     1
1071
       47
1005
227
  0
LINE
  5
228
330
2
100
AcDbEntity
  8
renvoi
100
AcDbLine
 10
96.45854249492277
 20
6.99999999999909
 30
0.0
 11
72.67854249492302
 21
6.99999999999909
 31
0.0
1001
AcDbBlockRepETag
1070
     1
1071
       48
1005
228
  0
LINE
  5
229
330
2
100
AcDbEntity
  8
renvoi
100
AcDbLine
 10
97.32456789870685
 20
7.499999999999545
 30
0.0
 11
71.81251709113803
 21
7.499999999999545
 31
0.0
1001
AcDbBlockRepETag
1070
     1
1071
       49
1005
229
  0
LINE
  5
22A
330
2
100
AcDbEntity
  8
renvoi
100
AcDbLine
 10
96.45854249492277
 20
7.99999999999909
 30
0.0
 11
72.67854249492302
 21
7.99999999999909
 31
0.0
1001
AcDbBlockRepETag
1070
     1
1071
       50
1005
22A
  0
LINE
  5
22B
330
2
100
AcDbEntity
  8
renvoi
100
AcDbLine
 10
97.32456789870775
 20
8.49999999999909
 30
0.0
 11
71.81251709113803
 21
8.49999999999909
 31
0.0
1001
AcDbBlockRepETag
1070
     1
1071
       51
1005
22B
  0
LINE
  5
22C
330
2
100
AcDbEntity
  8
renvoi
100
AcDbLine
 10
96.45854249492277
 20
8.99999999999909
 30
0.0
 11
72.67854249492211
 21
8.99999999999909
 31
0.0
1001
AcDbBlockRepETag
1070
     1
1071
       52
1005
22C
  0
LINE
  5
22D
330
2
100
AcDbEntity
  8
renvoi
100
AcDbLine
 10
72.67854249492211
 20
0.9999999999995452
 30
0.0
 11
72.67850616420492
 21
1.000020975548636
 31
0.0
1001
AcDbBlockRepETag
1070
     1
1071
       53
1005
22D
  0
LINE
  5
22E
330
2
100
AcDbEntity
  8
renvoi
100
AcDbLine
 10
72.67854249492211
 20
8.999999999998976
 30
0.0
 11
71.81251709113803
 21
8.499999999999033
 31
0.0
1001
AcDbBlockRepETag
1070
     1
1071
       54
1005
22E
  0
LINE
  5
22F
330
2
100
AcDbEntity
  8
renvoi
100
AcDbLine
 10
72.67854249492302
 20
7.99999999999909
 30
0.0
 11
71.81251709113803
 21
8.49999999999909
 31
0.0
1001
AcDbBlockRepETag
1070
     1
1071
       55
1005
22F
  0
LINE
  5
230
330
2
100
AcDbEntity
  8
renvoi
100
AcDbLine
 10
72.67854249492302
 20
7.99999999999909
 30
0.0
 11
71.81251709113803
 21
7.499999999999374
 31
0.0
1001
AcDbBlockRepETag
1070
     1
1071
       56
1005
230
  0
LINE
  5
231
330
2
100
AcDbEntity
  8
renvoi
100
AcDbLine
 10
72.67854249492302
 20
6.999999999998976
 30
0.0
 11
71.81251709113803
 21
7.499999999999147
 31
0.0
1001
AcDbBlockRepETag
1070
     1
1071
       57
1005
231
  0
LINE
  5
232
330
2
100
AcDbEntity
  8
renvoi
100
AcDbLine
 10
72.67854249492302
 20
6.99999999999909
 30
0.0
 11
71.81251709113803
 21
6.49999999999909
 31
0.0
1001
AcDbBlockRepETag
1070
     1
1071
       58
1005
232
  0
LINE
  5
233
330
2
100
AcDbEntity
  8
renvoi
100
AcDbLine
 10
72.67850616420492
 20
6.000020975548636
 30
0.0
 11
71.81251709113803
 21
6.499999999999147
 31
0.0
1001
AcDbBlockRepETag
1070
     1
1071
       59
1005
233
  0
LINE
  5
234
330
2
100
AcDbEntity
  8
renvoi
100
AcDbLine
 10
60.06854249492244
 20
0.0
 30
0.0
 11
60.06854249492244
 21
0.9999999999995452
 31
0.0
1001
AcDbBlockRepETag
1070
     1
1071
       60
1005
234
  0
LINE
  5
235
330
2
100
AcDbEntity
  8
renvoi
100
AcDbLine
 10
64.56854249492244
 20
5.333354308882064
 30
0.0
 11
60.05165996472351
 21
4.128852300828611
 31
0.0
1001
AcDbBlockRepETag
1070
     1
1071
       61
1005
235
  0
LINE
  5
236
330
2
100
AcDbEntity
  8
renvoi
100
AcDbLine
 10
60.05165996472351
 20
4.128852300828725
 30
0.0
 11
59.56854249492244
 21
3.500020975548409
 31
0.0
1001
AcDbBlockRepETag
1070
     1
1071
       62
1005
236
  0
LINE
  5
237
330
2
100
AcDbEntity
  8
renvoi
100
AcDbLine
 10
59.56854249492244
 20
3.500020975548409
 30
0.0
 11
59.56854249492244
 21
1.500020975548409
 31
0.0
1001
AcDbBlockRepETag
1070
     1
1071
       63
1005
237
  0
LINE
  5
238
330
2
100
AcDbEntity
  8
renvoi
100
AcDbLine
 10
60.06854249492244
 20
1.000020975548409
 30
0.0
 11
59.56854249492244
 21
1.500020975548409
 31
0.0
1001
AcDbBlockRepETag
1070
     1
1071
       64
1005
238
  0
SPLINE
  5
239
330
2
100
AcDbEntity
  8
renvoi
100
AcDbSpline
210
0.0
220
0.0
230
1.0
 70
     8
 71
     3
 72
    27
 73
    23
 74
     0
 42
0.0000000001
 43
0.0000000001
 40
-2.423766863886235
 40
-2.423766863886235
 40
-2.423766863886235
 40
-2.423766863886235
 40
-2.123807490570111
 40
-2.123807490570111
 40
-1.823848117253987
 40
-1.823848117253987
 40
-1.523888743937863
 40
-1.523888743937863
 40
-1.223929370621738
 40
-1.223929370621738
 40
-0.9179470279663046
 40
-0.9179470279663046
 40
-0.6119646853108698
 40
-0.6119646853108698
 40
-0.3059823426554349
 40
-0.3059823426554349
 40
0.0
 40
0.0
 40
0.0
 40
0.5549066477789511
 40
0.5549066477789511
 40
1.000272431355579
 40
1.000272431355579
 40
1.000272431355579
 40
1.000272431355579
 10
64.56854249492244
 20
5.333354308882007
 30
0.0
 10
64.56854249492244
 20
5.333354308882007
 30
0.0
 10
64.57870160538641
 20
5.335858241014079
 30
0.0
 10
64.62108863432423
 20
5.346328902251912
 30
0.0
 10
64.65330598823038
 20
5.354293393794364
 30
0.0
 10
64.73798725710185
 20
5.375305325342083
 30
0.0
 10
64.7905284465869
 20
5.388373279462655
 30
0.0
 10
64.91128820492122
 20
5.418557482804715
 30
0.0
 10
64.97951306159848
 20
5.435677419513751
 30
0.0
 10
65.12552004746885
 20
5.472525453441221
 30
0.0
 10
65.20828167279432
 20
5.493512532571287
 30
0.0
 10
65.38702514771376
 20
5.539169063785095
 30
0.0
 10
65.48300047274006
 20
5.563838822311595
 30
0.0
 10
65.68162199606831
 20
5.615304585724516
 30
0.0
 10
65.78442794708462
 20
5.642143495851939
 30
0.0
 10
65.98958564353688
 20
5.696149322868166
 30
0.0
 10
66.09193831566244
 20
5.723317191181479
 30
0.0
 10
66.19016411654411
 20
5.749597264992587
 30
0.0
 10
66.36829906845014
 20
5.797256837552708
 30
0.0
 10
66.55654999289073
 20
5.84838665333126
 30
0.0
 10
66.86653682529414
 20
5.933864543546519
 30
0.0
 10
66.99436131173479
 20
5.969585137240528
 30
0.0
 10
67.10232627870573
 20
6.00002097554875
 30
0.0
1001
AcDbBlockRepETag
1070
     1
1071
       65
1005
239
  0
LINE
  5
23A
330
2
100
AcDbEntity
  8
renvoi
100
AcDbLine
 10
96.45854249492368
 20
0.9999999999995452
 30
0.0
 11
96.45857882563996
 21
1.000020975548636
 31
0.0
1001
AcDbBlockRepETag
1070
     1
1071
       66
1005
23A
  0
LINE
  5
23B
330
2
100
AcDbEntity
  8
renvoi
100
AcDbLine
 10
96.45854249492277
 20
8.999999999998976
 30
0.0
 11
97.32456789870775
 21
8.499999999999033
 31
0.0
1001
AcDbBlockRepETag
1070
     1
1071
       67
1005
23B
  0
LINE
  5
23C
330
2
100
AcDbEntity
  8
renvoi
100
AcDbLine
 10
96.45854249492277
 20
7.99999999999909
 30
0.0
 11
97.32456789870775
 21
8.49999999999909
 31
0.0
1001
AcDbBlockRepETag
1070
     1
1071
       68
1005
23C
  0
LINE
  5
23D
330
2
100
AcDbEntity
  8
renvoi
100
AcDbLine
 10
96.45854249492277
 20
7.99999999999909
 30
0.0
 11
97.32456789870685
 21
7.499999999999374
 31
0.0
1001
AcDbBlockRepETag
1070
     1
1071
       69
1005
23D
  0
LINE
  5
23E
330
2
100
AcDbEntity
  8
renvoi
100
AcDbLine
 10
96.45854249492277
 20
6.999999999998976
 30
0.0
 11
97.32456789870775
 21
7.499999999999147
 31
0.0
1001
AcDbBlockRepETag
1070
     1
1071
       70
1005
23E
  0
LINE
  5
23F
330
2
100
AcDbEntity
  8
renvoi
100
AcDbLine
 10
96.45854249492277
 20
6.99999999999909
 30
0.0
 11
97.32456789870775
 21
6.49999999999909
 31
0.0
1001
AcDbBlockRepETag
1070
     1
1071
       71
1005
23F
  0
LINE
  5
240
330
2
100
AcDbEntity
  8
renvoi
100
AcDbLine
 10
96.45857882563996
 20
6.000020975548636
 30
0.0
 11
97.32456789870775
 21
6.499999999999147
 31
0.0
1001
AcDbBlockRepETag
1070
     1
1071
       72
1005
240
  0
LINE
  5
241
330
2
100
AcDbEntity
  8
renvoi
100
AcDbLine
 10
109.0685424949224
 20
0.0
 30
0.0
 11
109.0685424949224
 21
0.9999999999995452
 31
0.0
1001
AcDbBlockRepETag
1070
     1
1071
       73
1005
241
  0
LINE
  5
242
330
2
100
AcDbEntity
  8
renvoi
100
AcDbLine
 10
104.5685424949224
 20
5.333354308882064
 30
0.0
 11
109.0854250251223
 21
4.128852300828611
 31
0.0
1001
AcDbBlockRepETag
1070
     1
1071
       74
1005
242
  0
LINE
  5
243
330
2
100
AcDbEntity
  8
renvoi
100
AcDbLine
 10
109.0854250251223
 20
4.128852300828725
 30
0.0
 11
109.5685424949224
 21
3.500020975548409
 31
0.0
1001
AcDbBlockRepETag
1070
     1
1071
       75
1005
243
  0
LINE
  5
244
330
2
100
AcDbEntity
  8
renvoi
100
AcDbLine
 10
109.5685424949224
 20
3.500020975548409
 30
0.0
 11
109.5685424949224
 21
1.500020975548409
 31
0.0
1001
AcDbBlockRepETag
1070
     1
1071
       76
1005
244
  0
LINE
  5
245
330
2
100
AcDbEntity
  8
renvoi
100
AcDbLine
 10
109.0685424949224
 20
1.000020975548409
 30
0.0
 11
109.5685424949224
 21
1.500020975548409
 31
0.0
1001
AcDbBlockRepETag
1070
     1
1071
       77
1005
245
  0
SPLINE
  5
246
330
2
100
AcDbEntity
  8
renvoi
100
AcDbSpline
210
0.0
220
0.0
230
1.0
 70
     8
 71
     3
 72
    27
 73
    23
 74
     0
 42
0.0000000001
 43
0.0000000001
 40
-1.000272431355579
 40
-1.000272431355579
 40
-1.000272431355579
 40
-1.000272431355579
 40
-0.554906647778946
 40
-0.554906647778946
 40
0.0
 40
0.0
 40
0.0
 40
0.3059823426554431
 40
0.3059823426554431
 40
0.6119646853108863
 40
0.6119646853108863
 40
0.9179470279663293
 40
0.9179470279663293
 40
1.223929370621772
 40
1.223929370621772
 40
1.523888743937895
 40
1.523888743937895
 40
1.823848117254017
 40
1.823848117254017
 40
2.12380749057014
 40
2.12380749057014
 40
2.423766863886263
 40
2.423766863886263
 40
2.423766863886263
 40
2.423766863886263
 10
102.0347587111391
 20
6.00002097554875
 30
0.0
 10
102.142723678111
 20
5.969585137240528
 30
0.0
 10
102.2705481645507
 20
5.933864543546462
 30
0.0
 10
102.580534996955
 20
5.84838665333126
 30
0.0
 10
102.7687859213956
 20
5.797256837552708
 30
0.0
 10
102.9469208733007
 20
5.749597264992587
 30
0.0
 10
103.0451466741833
 20
5.723317191181536
 30
0.0
 10
103.1474993463089
 20
5.696149322868166
 30
0.0
 10
103.3526570427602
 20
5.642143495851939
 30
0.0
 10
103.4554629937775
 20
5.615304585724516
 30
0.0
 10
103.6540845171048
 20
5.563838822311595
 30
0.0
 10
103.750059842132
 20
5.539169063785095
 30
0.0
 10
103.9288033170505
 20
5.493512532571287
 30
0.0
 10
104.0115649423769
 20
5.472525453441221
 30
0.0
 10
104.1575719282464
 20
5.435677419513694
 30
0.0
 10
104.2257967849245
 20
5.418557482804715
 30
0.0
 10
104.3465565432579
 20
5.388373279462655
 30
0.0
 10
104.3990977327439
 20
5.375305325342083
 30
0.0
 10
104.4837790016154
 20
5.354293393794364
 30
0.0
 10
104.5159963555206
 20
5.346328902251912
 30
0.0
 10
104.5583833844593
 20
5.335858241014079
 30
0.0
 10
104.5685424949224
 20
5.333354308882064
 30
0.0
 10
104.5685424949224
 20
5.333354308882064
 30
0.0
1001
AcDbBlockRepETag
1070
     1
1071
       78
1005
246
  0
SPLINE
  5
247
330
2
100
AcDbEntity
  8
renvoi
100
AcDbSpline
210
0.0
220
0.0
230
1.0
 70
     8
 71
     3
 72
    47
 73
    43
 74
     0
 42
0.0000000001
 43
0.0000000001
 40
-1.000272431355572
 40
-1.000272431355572
 40
-1.000272431355572
 40
-1.000272431355572
 40
-0.5549066477789513
 40
-0.5549066477789513
 40
0.0
 40
0.0
 40
0.0
 40
0.3059823426554415
 40
0.3059823426554415
 40
0.6119646853108831
 40
0.6119646853108831
 40
0.9179470279663245
 40
0.9179470279663245
 40
1.223929370621766
 40
1.223929370621766
 40
1.523888743937891
 40
1.523888743937891
 40
1.823848117254017
 40
1.823848117254017
 40
2.123807490570142
 40
2.123807490570142
 40
2.423766863886267
 40
2.423766863886267
 40
2.723726237202393
 40
2.723726237202393
 40
3.023685610518519
 40
3.023685610518519
 40
3.323644983834645
 40
3.323644983834645
 40
3.623604357150771
 40
3.623604357150771
 40
3.929586699806213
 40
3.929586699806213
 40
4.235569042461654
 40
4.235569042461654
 40
4.541551385117095
 40
4.541551385117095
 40
4.847533727772537
 40
4.847533727772537
 40
5.402440375551494
 40
5.402440375551494
 40
5.847806159128142
 40
5.847806159128142
 40
5.847806159128142
 40
5.847806159128142
 10
83.48167033666959
 20
6.00002097554875
 30
0.0
 10
83.37897892883029
 20
5.969585137240528
 30
0.0
 10
83.28915689448695
 20
5.933864543546462
 30
0.0
 10
83.13727719050802
 20
5.84838665333126
 30
0.0
 10
83.08797231782955
 20
5.797256837552708
 30
0.0
 10
83.07348123157771
 20
5.749597264992587
 30
0.0
 10
83.06549066859497
 20
5.723317191181536
 30
0.0
 10
83.06706167717857
 20
5.696149322868166
 30
0.0
 10
83.09207449526457
 20
5.642143495851939
 30
0.0
 10
83.11550664876449
 20
5.615304585724516
 30
0.0
 10
83.18356554245202
 20
5.563838822311595
 30
0.0
 10
83.22824842458976
 20
5.539169063785095
 30
0.0
 10
83.33533310177427
 20
5.493512532571287
 30
0.0
 10
83.3977456564653
 20
5.472525453441221
 30
0.0
 10
83.53235744619542
 20
5.435677419513694
 30
0.0
 10
83.60861949408718
 20
5.418557482804715
 30
0.0
 10
83.77647573543072
 20
5.388373279462655
 30
0.0
 10
83.86806474205968
 20
5.375305325342083
 30
0.0
 10
84.06045593598538
 20
5.354293393794364
 30
0.0
 10
84.16143627477778
 20
5.346328902251912
 30
0.0
 10
84.36548517073788
 20
5.335858241014079
 30
0.0
 10
84.46855603715084
 20
5.333354308882064
 30
0.0
 10
84.66852895269495
 20
5.333354308882064
 30
0.0
 10
84.77159981910791
 20
5.335858241014079
 30
0.0
 10
84.97564871506801
 20
5.346328902251912
 30
0.0
 10
85.07662905386041
 20
5.354293393794364
 30
0.0
 10
85.2690202477861
 20
5.375305325342026
 30
0.0
 10
85.36060925441416
 20
5.388373279462655
 30
0.0
 10
85.5284654957586
 20
5.418557482804715
 30
0.0
 10
85.60472754365036
 20
5.435677419513694
 30
0.0
 10
85.73933933338048
 20
5.472525453441221
 30
0.0
 10
85.80175188807151
 20
5.493512532571287
 30
0.0
 10
85.90883656525603
 20
5.539169063785095
 30
0.0
 10
85.95351944739286
 20
5.563838822311595
 30
0.0
 10
86.02157834108039
 20
5.615304585724572
 30
0.0
 10
86.04501049458031
 20
5.642143495851883
 30
0.0
 10
86.07002331266631
 20
5.696149322868109
 30
0.0
 10
86.07159432125081
 20
5.723317191181536
 30
0.0
 10
86.04911267201623
 20
5.797256837552652
 30
0.0
 10
85.99980779933776
 20
5.848386653331147
 30
0.0
 10
85.84792809535793
 20
5.933864543546405
 30
0.0
 10
85.75810606101549
 20
5.969585137240528
 30
0.0
 10
85.6554146531762
 20
6.00002097554875
 30
0.0
1001
AcDbBlockRepETag
1070
     1
1071
       79
1005
247
  0
LINE
  5
248
330
2
100
AcDbEntity
  8
renvoi
100
AcDbLine
 10
85.6554146531762
 20
6.00002097554875
 30
0.0
 11
83.48167033666959
 21
6.00002097554875
 31
0.0
1001
AcDbBlockRepETag
1070
     1
1071
       80
1005
248
  0
LINE
  5
249
330
2
100
AcDbEntity
  8
renvoi
100
AcDbLine
 10
102.0347587111391
 20
6.00002097554875
 30
0.0
 11
85.6554146531762
 21
6.00002097554875
 31
0.0
1001
AcDbBlockRepETag
1070
     1
1071
       81
1005
249
  0
LINE
  5
24A
330
2
100
AcDbEntity
  8
renvoi
100
AcDbLine
 10
73.90317799107197
 20
13.99999999999909
 30
0.0
 11
95.23390699877291
 21
13.99999999999909
 31
0.0
1001
AcDbBlockRepETag
1070
     1
1071
       82
1005
24A
  0
LINE
  5
24B
330
2
100
AcDbEntity
  8
renvoi
100
AcDbLine
 10
97.32456789870775
 20
9.49999999999909
 30
0.0
 11
71.81251709113803
 21
9.49999999999909
 31
0.0
1001
AcDbBlockRepETag
1070
     1
1071
       83
1005
24B
  0
LINE
  5
24C
330
2
100
AcDbEntity
  8
renvoi
100
AcDbLine
 10
96.45854249492277
 20
9.99999999999909
 30
0.0
 11
72.67854249492302
 21
9.99999999999909
 31
0.0
1001
AcDbBlockRepETag
1070
     1
1071
       84
1005
24C
  0
LINE
  5
24D
330
2
100
AcDbEntity
  8
renvoi
100
AcDbLine
 10
97.32456789870775
 20
10.49999999999909
 30
0.0
 11
71.81251709113803
 21
10.49999999999909
 31
0.0
1001
AcDbBlockRepETag
1070
     1
1071
       85
1005
24D
  0
LINE
  5
24E
330
2
100
AcDbEntity
  8
renvoi
100
AcDbLine
 10
96.45854249492277
 20
10.99999999999909
 30
0.0
 11
72.67854249492302
 21
10.99999999999909
 31
0.0
1001
AcDbBlockRepETag
1070
     1
1071
       86
1005
24E
  0
LINE
  5
24F
330
2
100
AcDbEntity
  8
renvoi
100
AcDbLine
 10
97.32456789870775
 20
11.49999999999909
 30
0.0
 11
71.81251709113803
 21
11.49999999999909
 31
0.0
1001
AcDbBlockRepETag
1070
     1
1071
       87
1005
24F
  0
LINE
  5
250
330
2
100
AcDbEntity
  8
renvoi
100
AcDbLine
 10
96.45854249492277
 20
11.99999999999954
 30
0.0
 11
72.67854249492211
 21
11.99999999999954
 31
0.0
1001
AcDbBlockRepETag
1070
     1
1071
       88
1005
250
  0
LINE
  5
251
330
2
100
AcDbEntity
  8
renvoi
100
AcDbLine
 10
97.32456789870685
 20
12.49999999999863
 30
0.0
 11
71.81251709113803
 21
12.49999999999863
 31
0.0
1001
AcDbBlockRepETag
1070
     1
1071
       89
1005
251
  0
LINE
  5
252
330
2
100
AcDbEntity
  8
renvoi
100
AcDbLine
 10
96.45854249492277
 20
12.99999999999954
 30
0.0
 11
72.67854249492302
 21
12.99999999999954
 31
0.0
1001
AcDbBlockRepETag
1070
     1
1071
       90
1005
252
  0
LINE
  5
253
330
2
100
AcDbEntity
  8
renvoi
100
AcDbLine
 10
97.32456789870685
 20
13.49999999999909
 30
0.0
 11
71.81251709113803
 21
13.49999999999909
 31
0.0
1001
AcDbBlockRepETag
1070
     1
1071
       91
1005
253
  0
LINE
  5
254
330
2
100
AcDbEntity
  8
renvoi
100
AcDbLine
 10
72.6785424949212
 20
13.99999999999824
 30
0.0
 11
71.81251709113803
 21
13.49999999999926
 31
0.0
1001
AcDbBlockRepETag
1070
     1
1071
       92
1005
254
  0
LINE
  5
255
330
2
100
AcDbEntity
  8
renvoi
100
AcDbLine
 10
72.67854249492302
 20
12.9999999999992
 30
0.0
 11
71.81251709113803
 21
13.49999999999892
 31
0.0
1001
AcDbBlockRepETag
1070
     1
1071
       93
1005
255
  0
LINE
  5
256
330
2
100
AcDbEntity
  8
renvoi
100
AcDbLine
 10
72.67854249492302
 20
12.99999999999949
 30
0.0
 11
71.81251709113803
 21
12.49999999999886
 31
0.0
1001
AcDbBlockRepETag
1070
     1
1071
       94
1005
256
  0
LINE
  5
257
330
2
100
AcDbEntity
  8
renvoi
100
AcDbLine
 10
72.67854249492211
 20
11.99999999999943
 30
0.0
 11
71.81251709113803
 21
12.49999999999875
 31
0.0
1001
AcDbBlockRepETag
1070
     1
1071
       95
1005
257
  0
LINE
  5
258
330
2
100
AcDbEntity
  8
renvoi
100
AcDbLine
 10
72.67854249492302
 20
11.99999999999914
 30
0.0
 11
71.81251709113803
 21
11.49999999999897
 31
0.0
1001
AcDbBlockRepETag
1070
     1
1071
       96
1005
258
  0
LINE
  5
259
330
2
100
AcDbEntity
  8
renvoi
100
AcDbLine
 10
72.67854249492302
 20
10.99999999999903
 30
0.0
 11
71.81251709113803
 21
11.49999999999915
 31
0.0
1001
AcDbBlockRepETag
1070
     1
1071
       97
1005
259
  0
LINE
  5
25A
330
2
100
AcDbEntity
  8
renvoi
100
AcDbLine
 10
72.67854249492302
 20
10.99999999999909
 30
0.0
 11
71.81251709113803
 21
10.49999999999909
 31
0.0
1001
AcDbBlockRepETag
1070
     1
1071
       98
1005
25A
  0
LINE
  5
25B
330
2
100
AcDbEntity
  8
renvoi
100
AcDbLine
 10
72.67854249492302
 20
9.99999999999909
 30
0.0
 11
71.81251709113803
 21
10.49999999999909
 31
0.0
1001
AcDbBlockRepETag
1070
     1
1071
       99
1005
25B
  0
LINE
  5
25C
330
2
100
AcDbEntity
  8
renvoi
100
AcDbLine
 10
72.67854249492302
 20
9.999999999999147
 30
0.0
 11
71.81251709113803
 21
9.499999999999033
 31
0.0
1001
AcDbBlockRepETag
1070
     1
1071
      100
1005
25C
  0
LINE
  5
25D
330
2
100
AcDbEntity
  8
renvoi
100
AcDbLine
 10
73.90317799107197
 20
13.99999999999818
 30
0.0
 11
72.6785424949212
 21
13.99999999999818
 31
0.0
1001
AcDbBlockRepETag
1070
     1
1071
      101
1005
25D
  0
LINE
  5
25E
330
2
100
AcDbEntity
  8
renvoi
100
AcDbLine
 10
96.45854249492458
 20
13.99999999999824
 30
0.0
 11
97.32456789870685
 21
13.49999999999926
 31
0.0
1001
AcDbBlockRepETag
1070
     1
1071
      102
1005
25E
  0
LINE
  5
25F
330
2
100
AcDbEntity
  8
renvoi
100
AcDbLine
 10
96.45854249492277
 20
12.9999999999992
 30
0.0
 11
97.32456789870685
 21
13.49999999999892
 31
0.0
1001
AcDbBlockRepETag
1070
     1
1071
      103
1005
25F
  0
LINE
  5
260
330
2
100
AcDbEntity
  8
renvoi
100
AcDbLine
 10
96.45854249492277
 20
12.99999999999949
 30
0.0
 11
97.32456789870685
 21
12.49999999999886
 31
0.0
1001
AcDbBlockRepETag
1070
     1
1071
      104
1005
260
  0
LINE
  5
261
330
2
100
AcDbEntity
  8
renvoi
100
AcDbLine
 10
96.45854249492277
 20
11.99999999999943
 30
0.0
 11
97.32456789870685
 21
12.49999999999875
 31
0.0
1001
AcDbBlockRepETag
1070
     1
1071
      105
1005
261
  0
LINE
  5
262
330
2
100
AcDbEntity
  8
renvoi
100
AcDbLine
 10
96.45854249492277
 20
11.99999999999914
 30
0.0
 11
97.32456789870775
 21
11.49999999999897
 31
0.0
1001
AcDbBlockRepETag
1070
     1
1071
      106
1005
262
  0
LINE
  5
263
330
2
100
AcDbEntity
  8
renvoi
100
AcDbLine
 10
96.45854249492277
 20
10.99999999999903
 30
0.0
 11
97.32456789870775
 21
11.49999999999915
 31
0.0
1001
AcDbBlockRepETag
1070
     1
1071
      107
1005
263
  0
LINE
  5
264
330
2
100
AcDbEntity
  8
renvoi
100
AcDbLine
 10
96.45854249492277
 20
10.99999999999909
 30
0.0
 11
97.32456789870775
 21
10.49999999999909
 31
0.0
1001
AcDbBlockRepETag
1070
     1
1071
      108
1005
264
  0
LINE
  5
265
330
2
100
AcDbEntity
  8
renvoi
100
AcDbLine
 10
96.45854249492277
 20
9.99999999999909
 30
0.0
 11
97.32456789870775
 21
10.49999999999909
 31
0.0
1001
AcDbBlockRepETag
1070
     1
1071
      109
1005
265
  0
LINE
  5
266
330
2
100
AcDbEntity
  8
renvoi
100
AcDbLine
 10
96.45854249492277
 20
9.999999999999147
 30
0.0
 11
97.32456789870775
 21
9.499999999999033
 31
0.0
1001
AcDbBlockRepETag
1070
     1
1071
      110
1005
266
  0
LINE
  5
267
330
2
100
AcDbEntity
  8
renvoi
100
AcDbLine
 10
96.45854249492458
 20
13.99999999999818
 30
0.0
 11
95.23390699877291
 21
13.99999999999818
 31
0.0
1001
AcDbBlockRepETag
1070
     1
1071
      111
1005
267
  0
LINE
  5
268
330
2
100
AcDbEntity
  8
renvoi
100
AcDbLine
 10
82.06854249492243
 20
26.55662432702468
 30
0.0
 11
84.56854249492243
 21
25.11324865405061
 31
0.0
1001
AcDbBlockRepETag
1070
     1
1071
      112
1005
268
  0
LINE
  5
269
330
2
100
AcDbEntity
  8
renvoi
100
AcDbLine
 10
74.40690242185883
 20
24.68944648775255
 30
0.0
 11
69.17038763273286
 21
29.92596127687858
 31
0.0
1001
AcDbBlockRepETag
1070
     1
1071
      113
1005
269
  0
LINE
  5
26A
330
2
100
AcDbEntity
  8
renvoi
100
AcDbLine
 10
82.06854249492243
 20
29.44337567297288
 30
0.0
 11
82.06854249492243
 21
26.55662432702474
 31
0.0
1001
AcDbBlockRepETag
1070
     1
1071
      114
1005
26A
  0
LINE
  5
26B
330
2
100
AcDbEntity
  8
renvoi
100
AcDbLine
 10
87.06854249492243
 20
26.55662432702474
 30
0.0
 11
87.06854249492243
 21
29.44337567297288
 31
0.0
1001
AcDbBlockRepETag
1070
     1
1071
      115
1005
26B
  0
LINE
  5
26C
330
2
100
AcDbEntity
  8
renvoi
100
AcDbLine
 10
84.56854249492243
 20
25.11324865405061
 30
0.0
 11
87.06854249492243
 21
26.55662432702468
 31
0.0
1001
AcDbBlockRepETag
1070
     1
1071
      116
1005
26C
  0
LINE
  5
26D
330
2
100
AcDbEntity
  8
renvoi
100
AcDbLine
 10
79.76017701160526
 20
48.36471466941913
 30
0.0
 11
92.16994039267774
 21
35.95495128834659
 31
0.0
1001
AcDbBlockRepETag
1070
     1
1071
      117
1005
26D
  0
LINE
  5
26E
330
2
100
AcDbEntity
  8
renvoi
100
AcDbLine
 10
82.64258121804051
 20
43.39815486218753
 30
0.0
 11
88.68300787290809
 21
37.35772820731944
 31
0.0
1001
AcDbBlockRepETag
1070
     1
1071
      118
1005
26E
  0
SPLINE
  5
26F
330
2
100
AcDbEntity
  8
renvoi
100
AcDbSpline
210
0.0
220
0.0
230
1.0
 70
     8
 71
     3
 72
    18
 73
    14
 74
     0
 42
0.0000000001
 43
0.0000000001
 40
54.573195202193
 40
54.573195202193
 40
54.573195202193
 40
54.573195202193
 40
56.78684777806579
 40
56.78684777806579
 40
59.00050035393859
 40
59.00050035393859
 40
61.21415292981139
 40
61.21415292981139
 40
63.42780550568418
 40
63.42780550568418
 40
65.76191919666078
 40
65.76191919666078
 40
66.69470103909829
 40
66.69470103909829
 40
66.69470103909829
 40
66.69470103909829
 10
84.56854249492243
 20
37.99999999999818
 30
0.0
 10
83.83065830296528
 20
37.99999999999818
 30
0.0
 10
83.0787035430958
 20
37.93833524256206
 30
0.0
 10
81.60455599643592
 20
37.69178752955213
 30
0.0
 10
80.88231573738539
 20
37.50702848544643
 30
0.0
 10
79.51633368126477
 20
37.03978626253956
 30
0.0
 10
78.87100128437942
 20
36.75696747933671
 30
0.0
 10
77.69009296946478
 20
36.13538395386877
 30
0.0
 10
77.15441149730577
 20
35.7968099933205
 30
0.0
 10
76.1860243097799
 20
35.09992202976628
 30
0.0
 10
75.72211102885376
 20
34.71321569296015
 30
0.0
 10
75.14663309206117
 20
34.1710179739207
 30
0.0
 10
74.99062241650699
 20
34.01621129285832
 30
0.0
 10
74.84376376666296
 20
33.86368937365842
 30
0.0
1001
AcDbBlockRepETag
1070
     1
1071
      119
1005
26F
  0
ARC
  5
270
330
2
100
AcDbEntity
  8
renvoi
100
AcDbCircle
 10
84.3917657996244
 20
28.17677669529457
 30
0.0
 40
11.00000000000096
100
AcDbArc
 50
38.83988291425737
 51
44.99999999999194
1001
AcDbBlockRepETag
1070
     1
1071
      120
1005
270
  0
SPLINE
  5
271
330
2
100
AcDbEntity
  8
renvoi
100
AcDbSpline
210
0.0
220
0.0
230
1.0
 70
     8
 71
     3
 72
    18
 73
    14
 74
     0
 42
0.0000000001
 43
0.0000000001
 40
42.45168936528723
 40
42.45168936528723
 40
42.45168936528723
 40
42.45168936528723
 40
43.38447120772526
 40
43.38447120772526
 40
45.71858489870192
 40
45.71858489870192
 40
47.93223747457469
 40
47.93223747457469
 40
50.14589005044746
 40
50.14589005044746
 40
52.35954262632024
 40
52.35954262632024
 40
54.573195202193
 40
54.573195202193
 40
54.573195202193
 40
54.573195202193
 10
94.29332122318191
 20
33.86368937365842
 30
0.0
 10
94.14646257333789
 20
34.01621129285877
 30
0.0
 10
93.99045189778371
 20
34.17101797392161
 30
0.0
 10
93.41497396099113
 20
34.71321569296106
 30
0.0
 10
92.95106068006498
 20
35.09992202976628
 30
0.0
 10
91.9826734925391
 20
35.7968099933214
 30
0.0
 10
91.44699202037918
 20
36.13538395386968
 30
0.0
 10
90.26608370546545
 20
36.75696747933671
 30
0.0
 10
89.62075130858011
 20
37.03978626253956
 30
0.0
 10
88.25476925245949
 20
37.50702848544643
 30
0.0
 10
87.53252899340896
 20
37.69178752955213
 30
0.0
 10
86.05838144674908
 20
37.93833524256206
 30
0.0
 10
85.3064266868805
 20
37.99999999999818
 30
0.0
 10
84.56854249492243
 20
37.99999999999818
 30
0.0
1001
AcDbBlockRepETag
1070
     1
1071
      121
1005
271
  0
LINE
  5
272
330
2
100
AcDbEntity
  8
renvoi
100
AcDbLine
 10
81.90647659765636
 20
42.6620502418018
 30
0.0
 11
82.64258121804141
 21
43.39815486218674
 31
0.0
1001
AcDbBlockRepETag
1070
     1
1071
      122
1005
272
  0
LINE
  5
273
330
2
100
AcDbEntity
  8
renvoi
100
AcDbLine
 10
5.333354308882917
 20
64.56854249492249
 30
0.0
 11
4.128852300828839
 21
60.05165996472311
 31
0.0
1001
AcDbBlockRepETag
1070
     1
1071
      123
1005
273
  0
LINE
  5
274
330
2
100
AcDbEntity
  8
renvoi
100
AcDbLine
 10
1.0
 20
60.06854249492249
 30
0.0
 11
0.0
 21
60.06854249492249
 31
0.0
1001
AcDbBlockRepETag
1070
     1
1071
      124
1005
274
  0
LINE
  5
275
330
2
100
AcDbEntity
  8
renvoi
100
AcDbLine
 10
4.128852300829748
 20
60.05165996472311
 30
0.0
 11
3.500020975548977
 21
59.56854249492227
 31
0.0
1001
AcDbBlockRepETag
1070
     1
1071
      125
1005
275
  0
LINE
  5
276
330
2
100
AcDbEntity
  8
renvoi
100
AcDbLine
 10
1.500020975548977
 20
59.56854249492232
 30
0.0
 11
3.500020975548977
 21
59.56854249492232
 31
0.0
1001
AcDbBlockRepETag
1070
     1
1071
      126
1005
276
  0
LINE
  5
277
330
2
100
AcDbEntity
  8
renvoi
100
AcDbLine
 10
1.000020975548977
 20
60.06854249492232
 30
0.0
 11
1.500020975548977
 21
59.56854249492232
 31
0.0
1001
AcDbBlockRepETag
1070
     1
1071
      127
1005
277
  0
LINE
  5
278
330
2
100
AcDbEntity
  8
renvoi
100
AcDbLine
 10
13.99999999999909
 20
72.67854249492086
 30
0.0
 11
13.5
 21
71.8125170911378
 31
0.0
1001
AcDbBlockRepETag
1070
     1
1071
      128
1005
278
  0
LINE
  5
279
330
2
100
AcDbEntity
  8
renvoi
100
AcDbLine
 10
13.0
 20
72.6785424949224
 30
0.0
 11
13.5
 21
71.81251709113775
 31
0.0
1001
AcDbBlockRepETag
1070
     1
1071
      129
1005
279
  0
LINE
  5
27A
330
2
100
AcDbEntity
  8
renvoi
100
AcDbLine
 10
13.0
 20
72.67854249492223
 30
0.0
 11
12.5
 21
71.81251709113809
 31
0.0
1001
AcDbBlockRepETag
1070
     1
1071
      130
1005
27A
  0
LINE
  5
27B
330
2
100
AcDbEntity
  8
renvoi
100
AcDbLine
 10
12.0
 20
72.67854249492245
 30
0.0
 11
12.5
 21
71.81251709113786
 31
0.0
1001
AcDbBlockRepETag
1070
     1
1071
      131
1005
27B
  0
LINE
  5
27C
330
2
100
AcDbEntity
  8
renvoi
100
AcDbLine
 10
12.0
 20
72.67854249492228
 30
0.0
 11
11.5
 21
71.81251709113763
 31
0.0
1001
AcDbBlockRepETag
1070
     1
1071
      132
1005
27C
  0
LINE
  5
27D
330
2
100
AcDbEntity
  8
renvoi
100
AcDbLine
 10
11.0
 20
72.67854249492245
 30
0.0
 11
11.5
 21
71.81251709113758
 31
0.0
1001
AcDbBlockRepETag
1070
     1
1071
      133
1005
27D
  0
LINE
  5
27E
330
2
100
AcDbEntity
  8
renvoi
100
AcDbLine
 10
11.0
 20
72.67854249492245
 30
0.0
 11
10.5
 21
71.81251709113758
 31
0.0
1001
AcDbBlockRepETag
1070
     1
1071
      134
1005
27E
  0
LINE
  5
27F
330
2
100
AcDbEntity
  8
renvoi
100
AcDbLine
 10
10.0
 20
72.67854249492251
 30
0.0
 11
10.5
 21
71.81251709113758
 31
0.0
1001
AcDbBlockRepETag
1070
     1
1071
      135
1005
27F
  0
LINE
  5
280
330
2
100
AcDbEntity
  8
renvoi
100
AcDbLine
 10
10.0
 20
72.67854249492251
 30
0.0
 11
9.5
 21
71.81251709113769
 31
0.0
1001
AcDbBlockRepETag
1070
     1
1071
      136
1005
280
  0
LINE
  5
281
330
2
100
AcDbEntity
  8
renvoi
100
AcDbLine
 10
9.0
 20
72.67854249492234
 30
0.0
 11
9.5
 21
71.81251709113769
 31
0.0
1001
AcDbBlockRepETag
1070
     1
1071
      137
1005
281
  0
LINE
  5
282
330
2
100
AcDbEntity
  8
renvoi
100
AcDbLine
 10
9.0
 20
72.67854249492234
 30
0.0
 11
8.5
 21
71.81251709113758
 31
0.0
1001
AcDbBlockRepETag
1070
     1
1071
      138
1005
282
  0
LINE
  5
283
330
2
100
AcDbEntity
  8
renvoi
100
AcDbLine
 10
8.0
 20
72.67854249492245
 30
0.0
 11
8.5
 21
71.81251709113758
 31
0.0
1001
AcDbBlockRepETag
1070
     1
1071
      139
1005
283
  0
LINE
  5
284
330
2
100
AcDbEntity
  8
renvoi
100
AcDbLine
 10
8.0
 20
72.67854249492251
 30
0.0
 11
7.5
 21
71.81251709113786
 31
0.0
1001
AcDbBlockRepETag
1070
     1
1071
      140
1005
284
  0
LINE
  5
285
330
2
100
AcDbEntity
  8
renvoi
100
AcDbLine
 10
7.0
 20
72.67854249492263
 30
0.0
 11
7.5
 21
71.81251709113798
 31
0.0
1001
AcDbBlockRepETag
1070
     1
1071
      141
1005
285
  0
LINE
  5
286
330
2
100
AcDbEntity
  8
renvoi
100
AcDbLine
 10
7.0
 20
72.67854249492268
 30
0.0
 11
6.5
 21
71.81251709113769
 31
0.0
1001
AcDbBlockRepETag
1070
     1
1071
      142
1005
286
  0
LINE
  5
287
330
2
100
AcDbEntity
  8
renvoi
100
AcDbLine
 10
6.000020975549887
 20
72.67850616420424
 30
0.0
 11
6.5
 21
71.81251709113769
 31
0.0
1001
AcDbBlockRepETag
1070
     1
1071
      143
1005
287
  0
SPLINE
  5
288
330
2
100
AcDbEntity
  8
renvoi
100
AcDbSpline
210
0.0
220
0.0
230
1.0
 70
     8
 71
     3
 72
    27
 73
    23
 74
     0
 42
0.0000000001
 43
0.0000000001
 40
-2.423766863886235
 40
-2.423766863886235
 40
-2.423766863886235
 40
-2.423766863886235
 40
-2.123807490570111
 40
-2.123807490570111
 40
-1.823848117253987
 40
-1.823848117253987
 40
-1.523888743937863
 40
-1.523888743937863
 40
-1.223929370621738
 40
-1.223929370621738
 40
-0.9179470279663046
 40
-0.9179470279663046
 40
-0.6119646853108698
 40
-0.6119646853108698
 40
-0.3059823426554349
 40
-0.3059823426554349
 40
0.0
 40
0.0
 40
0.0
 40
0.5549066477789511
 40
0.5549066477789511
 40
1.000272431355579
 40
1.000272431355579
 40
1.000272431355579
 40
1.000272431355579
 10
5.333354308882917
 20
64.56854249492244
 30
0.0
 10
5.333354308882917
 20
64.56854249492244
 30
0.0
 10
5.335858241014648
 20
64.57870160538579
 30
0.0
 10
5.346328902252935
 20
64.62108863432416
 30
0.0
 10
5.35429339379516
 20
64.6533059882297
 30
0.0
 10
5.375305325343106
 20
64.73798725710128
 30
0.0
 10
5.388373279462939
 20
64.7905284465869
 30
0.0
 10
5.418557482805226
 20
64.91128820492065
 30
0.0
 10
5.435677419514831
 20
64.97951306159848
 30
0.0
 10
5.472525453442358
 20
65.12552004746851
 30
0.0
 10
5.493512532571912
 20
65.20828167279422
 30
0.0
 10
5.539169063786175
 20
65.38702514771319
 30
0.0
 10
5.563838822312391
 20
65.48300047273989
 30
0.0
 10
5.615304585725425
 20
65.68162199606803
 30
0.0
 10
5.642143495852906
 20
65.7844279470845
 30
0.0
 10
5.696149322869132
 20
65.98958564353648
 30
0.0
 10
5.723317191182104
 20
66.0919383156621
 30
0.0
 10
5.749597264993099
 20
66.19016411654405
 30
0.0
 10
5.797256837553504
 20
66.36829906844946
 30
0.0
 10
5.848386653331544
 20
66.55654999289026
 30
0.0
 10
5.933864543547315
 20
66.86653682529419
 30
0.0
 10
5.969585137241665
 20
66.99436131173422
 30
0.0
 10
6.000020975549887
 20
67.1023262787059
 30
0.0
1001
AcDbBlockRepETag
1070
     1
1071
      144
1005
288
  0
LINE
  5
289
330
2
100
AcDbEntity
  8
renvoi
100
AcDbLine
 10
30.30851250667274
 20
70.2600456437122
 30
0.0
 11
29.57240788628587
 21
69.52394102332533
 31
0.0
1001
AcDbBlockRepETag
1070
     1
1071
      145
1005
289
  0
ARC
  5
28A
330
2
100
AcDbEntity
  8
renvoi
100
AcDbCircle
 10
27.82322330470197
 20
84.74531919021705
 30
0.0
 40
11.00000000000142
100
AcDbArc
 50
60.54555227866346
 51
114.0078574308842
1001
AcDbBlockRepETag
1070
     1
1071
      146
1005
28A
  0
LINE
  5
28B
330
2
100
AcDbEntity
  8
renvoi
100
AcDbLine
 10
6.000020975549887
 20
102.034758711139
 30
0.0
 11
6.000020975549887
 21
85.65541465317584
 31
0.0
1001
AcDbBlockRepETag
1070
     1
1071
      147
1005
28B
  0
LINE
  5
28C
330
2
100
AcDbEntity
  8
renvoi
100
AcDbLine
 10
13.99999999999909
 20
96.45854249492401
 30
0.0
 11
13.99999999999909
 21
95.23390699877285
 31
0.0
1001
AcDbBlockRepETag
1070
     1
1071
      148
1005
28C
  0
LINE
  5
28D
330
2
100
AcDbEntity
  8
renvoi
100
AcDbLine
 10
35.6013978977544
 20
92.52349378327016
 30
0.0
 11
48.01116127882597
 21
80.11373040219808
 31
0.0
1001
AcDbBlockRepETag
1070
     1
1071
      149
1005
28D
  0
LINE
  5
28E
330
2
100
AcDbEntity
  8
renvoi
100
AcDbLine
 10
37.35772820732109
 20
88.68300787290639
 30
0.0
 11
43.04460147159534
 21
82.99613460863264
 31
0.0
1001
AcDbBlockRepETag
1070
     1
1071
      150
1005
28E
  0
SPLINE
  5
28F
330
2
100
AcDbEntity
  8
renvoi
100
AcDbSpline
210
0.0
220
0.0
230
1.0
 70
     8
 71
     3
 72
    47
 73
    43
 74
     0
 42
0.0000000001
 43
0.0000000001
 40
-1.000272431355572
 40
-1.000272431355572
 40
-1.000272431355572
 40
-1.000272431355572
 40
-0.5549066477789513
 40
-0.5549066477789513
 40
0.0
 40
0.0
 40
0.0
 40
0.3059823426554415
 40
0.3059823426554415
 40
0.6119646853108831
 40
0.6119646853108831
 40
0.9179470279663245
 40
0.9179470279663245
 40
1.223929370621766
 40
1.223929370621766
 40
1.523888743937891
 40
1.523888743937891
 40
1.823848117254017
 40
1.823848117254017
 40
2.123807490570142
 40
2.123807490570142
 40
2.423766863886267
 40
2.423766863886267
 40
2.723726237202393
 40
2.723726237202393
 40
3.023685610518519
 40
3.023685610518519
 40
3.323644983834645
 40
3.323644983834645
 40
3.623604357150771
 40
3.623604357150771
 40
3.929586699806213
 40
3.929586699806213
 40
4.235569042461654
 40
4.235569042461654
 40
4.541551385117095
 40
4.541551385117095
 40
4.847533727772537
 40
4.847533727772537
 40
5.402440375551494
 40
5.402440375551494
 40
5.847806159128142
 40
5.847806159128142
 40
5.847806159128142
 40
5.847806159128142
 10
6.000020975549887
 20
83.48167033666909
 30
0.0
 10
5.969585137241665
 20
83.37897892883011
 30
0.0
 10
5.933864543547315
 20
83.28915689448718
 30
0.0
 10
5.848386653331544
 20
83.13727719050774
 30
0.0
 10
5.797256837553504
 20
83.08797231782909
 30
0.0
 10
5.749597264993099
 20
83.07348123157771
 30
0.0
 10
5.723317191182104
 20
83.06549066859458
 30
0.0
 10
5.696149322869132
 20
83.06706167717846
 30
0.0
 10
5.642143495852906
 20
83.09207449526462
 30
0.0
 10
5.615304585725425
 20
83.11550664876461
 30
0.0
 10
5.563838822312391
 20
83.18356554245196
 30
0.0
 10
5.539169063786175
 20
83.22824842458913
 30
0.0
 10
5.493512532571912
 20
83.3353331017737
 30
0.0
 10
5.472525453442358
 20
83.39774565646479
 30
0.0
 10
5.435677419514831
 20
83.53235744619524
 30
0.0
 10
5.418557482805226
 20
83.60861949408706
 30
0.0
 10
5.388373279462939
 20
83.77647573543072
 30
0.0
 10
5.375305325343106
 20
83.86806474205906
 30
0.0
 10
5.35429339379516
 20
84.06045593598481
 30
0.0
 10
5.346328902252935
 20
84.16143627477731
 30
0.0
 10
5.335858241014648
 20
84.36548517073736
 30
0.0
 10
5.333354308882917
 20
84.46855603715045
 30
0.0
 10
5.333354308882917
 20
84.66852895269449
 30
0.0
 10
5.335858241014648
 20
84.77159981910757
 30
0.0
 10
5.346328902252935
 20
84.97564871506767
 30
0.0
 10
5.35429339379516
 20
85.07662905386013
 30
0.0
 10
5.375305325343106
 20
85.26902024778587
 30
0.0
 10
5.388373279462939
 20
85.36060925441427
 30
0.0
 10
5.418557482805226
 20
85.52846549575793
 30
0.0
 10
5.435677419514831
 20
85.60472754364974
 30
0.0
 10
5.472525453442358
 20
85.73933933338015
 30
0.0
 10
5.493512532571912
 20
85.8017518880713
 30
0.0
 10
5.539169063786175
 20
85.90883656525585
 30
0.0
 10
5.563838822312391
 20
85.95351944739297
 30
0.0
 10
5.615304585725425
 20
86.02157834108032
 30
0.0
 10
5.642143495852906
 20
86.04501049458036
 30
0.0
 10
5.696149322869132
 20
86.07002331266654
 30
0.0
 10
5.723317191182104
 20
86.07159432125035
 30
0.0
 10
5.797256837553504
 20
86.0491126720159
 30
0.0
 10
5.848386653331544
 20
85.99980779933725
 30
0.0
 10
5.933864543547315
 20
85.84792809535782
 30
0.0
 10
5.969585137241665
 20
85.75810606101487
 30
0.0
 10
6.000020975549887
 20
85.65541465317584
 30
0.0
1001
AcDbBlockRepETag
1070
     1
1071
      151
1005
28F
  0
LINE
  5
290
330
2
100
AcDbEntity
  8
renvoi
100
AcDbLine
 10
6.000020975549887
 20
85.65541465317584
 30
0.0
 11
6.000020975549887
 21
83.48167033666909
 31
0.0
1001
AcDbBlockRepETag
1070
     1
1071
      152
1005
290
  0
LINE
  5
291
330
2
100
AcDbEntity
  8
renvoi
100
AcDbLine
 10
30.88675134594723
 20
84.56854249492204
 30
0.0
 11
29.44337567297316
 21
82.06854249492204
 31
0.0
1001
AcDbBlockRepETag
1070
     1
1071
      153
1005
291
  0
LINE
  5
292
330
2
100
AcDbEntity
  8
renvoi
100
AcDbLine
 10
26.55662432702502
 20
82.06854249492204
 30
0.0
 11
25.11324865405095
 21
84.56854249492204
 31
0.0
1001
AcDbBlockRepETag
1070
     1
1071
      154
1005
292
  0
CIRCLE
  5
293
330
2
100
AcDbEntity
  8
renvoi
100
AcDbCircle
 10
27.99999999999909
 20
84.56854249492204
 30
0.0
 40
6.5
1001
AcDbBlockRepETag
1070
     1
1071
      155
1005
293
  0
LINE
  5
294
330
2
100
AcDbEntity
  8
renvoi
100
AcDbLine
 10
14.0
 20
73.90317799107186
 30
0.0
 11
14.0
 21
95.23390699877301
 31
0.0
1001
AcDbBlockRepETag
1070
     1
1071
      156
1005
294
  0
SPLINE
  5
295
330
2
100
AcDbEntity
  8
renvoi
100
AcDbSpline
210
0.0
220
0.0
230
1.0
 70
     8
 71
     3
 72
    18
 73
    14
 74
     0
 42
0.0000000001
 43
0.0000000001
 40
42.45168936528723
 40
42.45168936528723
 40
42.45168936528723
 40
42.45168936528723
 40
43.38447120772526
 40
43.38447120772526
 40
45.71858489870192
 40
45.71858489870192
 40
47.93223747457469
 40
47.93223747457469
 40
50.14589005044746
 40
50.14589005044746
 40
52.35954262632024
 40
52.35954262632024
 40
54.573195202193
 40
54.573195202193
 40
54.573195202193
 40
54.573195202193
 10
33.86368937365933
 20
94.29332122318191
 30
0.0
 10
34.01621129285923
 20
94.14646257333743
 30
0.0
 10
34.17101797392206
 20
93.99045189778371
 30
0.0
 10
34.71321569296197
 20
93.41497396099066
 30
0.0
 10
35.09992202976718
 20
92.95106068006498
 30
0.0
 10
35.79680999332231
 20
91.9826734925391
 30
0.0
 10
36.13538395387059
 20
91.44699202037918
 30
0.0
 10
36.75696747933762
 20
90.26608370546501
 30
0.0
 10
37.03978626254047
 20
89.62075130857966
 30
0.0
 10
37.50702848544734
 20
88.25476925245903
 30
0.0
 10
37.69178752955304
 20
87.5325289934085
 30
0.0
 10
37.93833524256297
 20
86.05838144674908
 30
0.0
 10
37.99999999999909
 20
85.30642668688006
 30
0.0
 10
37.99999999999909
 20
84.56854249492243
 30
0.0
1001
AcDbBlockRepETag
1070
     1
1071
      157
1005
295
  0
SPLINE
  5
296
330
2
100
AcDbEntity
  8
renvoi
100
AcDbSpline
210
0.0
220
0.0
230
1.0
 70
     8
 71
     3
 72
    18
 73
    14
 74
     0
 42
0.0000000001
 43
0.0000000001
 40
54.573195202193
 40
54.573195202193
 40
54.573195202193
 40
54.573195202193
 40
56.78684777806579
 40
56.78684777806579
 40
59.00050035393859
 40
59.00050035393859
 40
61.21415292981139
 40
61.21415292981139
 40
63.42780550568418
 40
63.42780550568418
 40
65.76191919666078
 40
65.76191919666078
 40
66.69470103909829
 40
66.69470103909829
 40
66.69470103909829
 40
66.69470103909829
 10
37.99999999999909
 20
84.56854249492243
 30
0.0
 10
37.99999999999909
 20
83.83065830296482
 30
0.0
 10
37.93833524256297
 20
83.0787035430958
 30
0.0
 10
37.69178752955304
 20
81.60455599643592
 30
0.0
 10
37.50702848544734
 20
80.88231573738539
 30
0.0
 10
37.03978626254047
 20
79.51633368126477
 30
0.0
 10
36.75696747933762
 20
78.87100128437942
 30
0.0
 10
36.13538395386968
 20
77.69009296946478
 30
0.0
 10
35.7968099933214
 20
77.15441149730532
 30
0.0
 10
35.09992202976718
 20
76.18602430977944
 30
0.0
 10
34.71321569296106
 20
75.72211102885376
 30
0.0
 10
34.17101797392116
 20
75.14663309206071
 30
0.0
 10
34.01621129285923
 20
74.99062241650699
 30
0.0
 10
33.86368937365933
 20
74.84376376666296
 30
0.0
1001
AcDbBlockRepETag
1070
     1
1071
      158
1005
296
  0
SPLINE
  5
297
330
2
100
AcDbEntity
  8
renvoi
100
AcDbSpline
210
0.0
220
0.0
230
1.0
 70
    11
 71
     3
 72
    70
 73
    66
 74
     0
 42
0.0000000001
 43
0.0000000001
 40
0.0
 40
0.0
 40
0.0
 40
0.0
 40
1.332150015172175
 40
1.332150015172175
 40
2.66430003034435
 40
2.66430003034435
 40
3.996450045516525
 40
3.996450045516525
 40
5.3286000606887
 40
5.3286000606887
 40
6.662092894037161
 40
6.662092894037161
 40
7.995585727385623
 40
7.995585727385623
 40
9.329078560734085
 40
9.329078560734085
 40
10.66257139408254
 40
10.66257139408254
 40
11.99606422743101
 40
11.99606422743101
 40
13.32955706077947
 40
13.32955706077947
 40
14.66304989412793
 40
14.66304989412793
 40
15.99654272747639
 40
15.99654272747639
 40
17.32869274264857
 40
17.32869274264857
 40
18.66084275782074
 40
18.66084275782074
 40
19.99299277299292
 40
19.99299277299292
 40
21.32514278816509
 40
21.32514278816509
 40
22.72573459962985
 40
22.72573459962985
 40
24.12632641109461
 40
24.12632641109461
 40
25.52691822255937
 40
25.52691822255937
 40
26.92751003402412
 40
26.92751003402412
 40
28.31375335751618
 40
28.31375335751618
 40
29.69999668100822
 40
29.69999668100822
 40
31.08624000450027
 40
31.08624000450027
 40
32.47248332799232
 40
32.47248332799232
 40
33.8587266514844
 40
33.8587266514844
 40
35.24496997497648
 40
35.24496997497648
 40
36.63121329846857
 40
36.63121329846857
 40
38.01745662196065
 40
38.01745662196065
 40
39.41804843342539
 40
39.41804843342539
 40
40.81864024489013
 40
40.81864024489013
 40
42.21923205635486
 40
42.21923205635486
 40
43.61982386781961
 40
43.61982386781961
 40
43.61982386781961
 40
43.61982386781961
 10
28.17883211678782
 20
77.57082721963389
 30
0.0
 10
28.62249716294718
 20
77.58216542878199
 30
0.0
 10
29.07588910967661
 20
77.63662951745755
 30
0.0
 10
29.96824706968892
 20
77.83541851958398
 30
0.0
 10
30.40726687703864
 20
77.97966111035612
 30
0.0
 10
31.24243653015583
 20
78.348019076338
 30
0.0
 10
31.63949325946305
 20
78.57244701664331
 30
0.0
 10
32.37132152771392
 20
79.08305069419111
 30
0.0
 10
32.70611726658354
 20
79.36932374957814
 30
0.0
 10
33.29899894374739
 20
79.9750266987794
 30
0.0
 10
33.57911481595966
 20
80.31709035228686
 30
0.0
 10
34.07630099661947
 20
81.06426886649932
 30
0.0
 10
34.29340631549894
 20
81.46942198466105
 30
0.0
 10
34.64478580462401
 20
82.31946848153985
 30
0.0
 10
34.77933450143064
 20
82.76520135345618
 30
0.0
 10
34.95697500736151
 20
83.66747962097361
 30
0.0
 10
34.99999999999909
 20
84.12404488380616
 30
0.0
 10
34.99999999999909
 20
85.01304010603872
 30
0.0
 10
34.95697500736151
 20
85.46960536887082
 30
0.0
 10
34.77933450143064
 20
86.3718836363887
 30
0.0
 10
34.64478580462401
 20
86.81761650830457
 30
0.0
 10
34.29340631549894
 20
87.66766300518339
 30
0.0
 10
34.07630099661947
 20
88.07281612334554
 30
0.0
 10
33.57911481595966
 20
88.81999463755802
 30
0.0
 10
33.29899894374739
 20
89.16205829106502
 30
0.0
 10
32.70611726658354
 20
89.76776124026674
 30
0.0
 10
32.37132152771392
 20
90.05403429565332
 30
0.0
 10
31.63949325946305
 20
90.56463797320157
 30
0.0
 10
31.24243653015583
 20
90.78906591350643
 30
0.0
 10
30.40726687703864
 20
91.15742387948831
 30
0.0
 10
29.96824706968892
 20
91.30166647026044
 30
0.0
 10
29.07588910967661
 20
91.50045547238732
 30
0.0
 10
28.62249716294718
 20
91.55491956106288
 30
0.0
 10
27.71237291654143
 20
91.57817850189166
 30
0.0
 10
27.23706539596424
 20
91.543015581075
 30
0.0
 10
26.30243463867737
 20
91.37615705616463
 30
0.0
 10
25.84301869675528
 20
91.24457487006656
 30
0.0
 10
24.96783380650413
 20
90.8953078286304
 30
0.0
 10
24.55119280851523
 20
90.67734652172976
 30
0.0
 10
23.78115870699275
 20
90.17328475940894
 30
0.0
 10
23.42775125678782
 20
89.88706234333632
 30
0.0
 10
22.80324073087923
 20
89.27830777495637
 30
0.0
 10
22.50863769690659
 20
88.93397945024663
 30
0.0
 10
21.98402767440257
 20
88.1768906974371
 30
0.0
 10
21.75398412013783
 20
87.76408833257665
 30
0.0
 10
21.38052063804389
 20
86.8937785025164
 30
0.0
 10
21.236785151812
 20
86.43533965422694
 30
0.0
 10
21.04648667663878
 20
85.50377464807979
 30
0.0
 10
20.99999999999909
 20
85.0306236027527
 30
0.0
 10
20.99999999999909
 20
84.10646138709171
 30
0.0
 10
21.04648667663969
 20
83.63331034176509
 30
0.0
 10
21.236785151812
 20
82.70174533561794
 30
0.0
 10
21.38052063804389
 20
82.24330648732893
 30
0.0
 10
21.75398412013783
 20
81.37299665726823
 30
0.0
 10
21.98402767440257
 20
80.96019429240778
 30
0.0
 10
22.50863769690659
 20
80.20310553959825
 30
0.0
 10
22.80324073087923
 20
79.85877721488851
 30
0.0
 10
23.42775125678782
 20
79.25002264650811
 30
0.0
 10
23.78115870699275
 20
78.96380023043594
 30
0.0
 10
24.55119280851523
 20
78.45973846811467
 30
0.0
 10
24.96783380650413
 20
78.24177716121448
 30
0.0
 10
25.84301869675528
 20
77.89251011977831
 30
0.0
 10
26.30243463867737
 20
77.76092793368025
 30
0.0
 10
27.23706539596424
 20
77.59406940876942
 30
0.0
 10
27.71237291654143
 20
77.55890648795321
 30
0.0
 10
28.17883211678782
 20
77.57082721963389
 30
0.0
1001
AcDbBlockRepETag
1070
     1
1071
      159
1005
297
  0
LINE
  5
298
330
2
100
AcDbEntity
  8
renvoi
100
AcDbLine
 10
29.44337567297316
 20
82.06854249492204
 30
0.0
 11
26.55662432702502
 21
82.06854249492204
 31
0.0
1001
AcDbBlockRepETag
1070
     1
1071
      160
1005
298
  0
SPLINE
  5
299
330
2
100
AcDbEntity
  8
renvoi
100
AcDbSpline
210
0.0
220
0.0
230
1.0
 70
    12
 71
     2
 72
     6
 73
     3
 74
     0
 42
0.0000000001
 43
0.0000000001
 40
0.0
 40
0.0
 40
0.0
 40
19.68807474904354
 40
19.68807474904354
 40
19.68807474904354
 10
13.99999999999909
 20
73.90317799107197
 30
0.0
 41
1.0
 10
24.38999506561777
 20
74.39026847268997
 30
0.0
 41
1.001006788476264
 10
33.86368937365933
 20
74.84376376666296
 30
0.0
 41
1.000363652240566
1001
AcDbBlockRepETag
1070
     1
1071
      161
1005
299
  0
ARC
  5
29A
330
2
100
AcDbEntity
  8
renvoi
100
AcDbCircle
 10
27.82322330470197
 20
84.74531919021705
 30
0.0
 40
11.00000000000142
100
AcDbArc
 50
44.99999999999885
 51
49.78445591120528
1001
AcDbBlockRepETag
1070
     1
1071
      162
1005
29A
  0
LINE
  5
29B
330
2
100
AcDbEntity
  8
renvoi
100
AcDbLine
 10
29.44337567297316
 20
87.06854249492204
 30
0.0
 11
30.88675134594723
 21
84.56854249492204
 31
0.0
1001
AcDbBlockRepETag
1070
     1
1071
      163
1005
29B
  0
LINE
  5
29C
330
2
100
AcDbEntity
  8
renvoi
100
AcDbLine
 10
26.55662432702502
 20
87.06854249492204
 30
0.0
 11
29.44337567297316
 21
87.06854249492204
 31
0.0
1001
AcDbBlockRepETag
1070
     1
1071
      164
1005
29C
  0
LINE
  5
29D
330
2
100
AcDbEntity
  8
renvoi
100
AcDbLine
 10
25.11324865405095
 20
84.56854249492204
 30
0.0
 11
26.55662432702502
 21
87.06854249492204
 31
0.0
1001
AcDbBlockRepETag
1070
     1
1071
      165
1005
29D
  0
SPLINE
  5
29E
330
2
100
AcDbEntity
  8
renvoi
100
AcDbSpline
210
0.0
220
0.0
230
1.0
 70
    12
 71
     2
 72
     6
 73
     3
 74
     0
 42
0.0000000001
 43
0.0000000001
 40
4.339357088853372
 40
4.339357088853372
 40
4.339357088853372
 40
24.02743183789691
 40
24.02743183789691
 40
24.02743183789691
 10
33.86368937365933
 20
94.29332122318191
 30
0.0
 41
1.000363652240566
 10
24.38999506561777
 20
94.7468165171549
 30
0.0
 41
1.001006788476264
 10
13.99999999999909
 20
95.23390699877291
 30
0.0
 41
1.0
1001
AcDbBlockRepETag
1070
     1
1071
      166
1005
29E
  0
LINE
  5
29F
330
2
100
AcDbEntity
  8
renvoi
100
AcDbLine
 10
43.04460147159443
 20
82.99613460863373
 30
0.0
 11
42.30849685120938
 21
82.26002998824872
 31
0.0
1001
AcDbBlockRepETag
1070
     1
1071
      167
1005
29F
  0
LINE
  5
2A0
330
2
100
AcDbEntity
  8
renvoi
100
AcDbLine
 10
5.333354308882917
 20
104.5685424949224
 30
0.0
 11
4.128852300828839
 21
109.0854250251217
 31
0.0
1001
AcDbBlockRepETag
1070
     1
1071
      168
1005
2A0
  0
LINE
  5
2A1
330
2
100
AcDbEntity
  8
renvoi
100
AcDbLine
 10
13.99999999999909
 20
96.45854249492401
 30
0.0
 11
13.5
 21
97.32456789870708
 31
0.0
1001
AcDbBlockRepETag
1070
     1
1071
      169
1005
2A1
  0
LINE
  5
2A2
330
2
100
AcDbEntity
  8
renvoi
100
AcDbLine
 10
13.0
 20
96.45854249492249
 30
0.0
 11
13.5
 21
97.32456789870713
 31
0.0
1001
AcDbBlockRepETag
1070
     1
1071
      170
1005
2A2
  0
LINE
  5
2A3
330
2
100
AcDbEntity
  8
renvoi
100
AcDbLine
 10
13.0
 20
96.45854249492266
 30
0.0
 11
12.5
 21
97.32456789870679
 31
0.0
1001
AcDbBlockRepETag
1070
     1
1071
      171
1005
2A3
  0
LINE
  5
2A4
330
2
100
AcDbEntity
  8
renvoi
100
AcDbLine
 10
12.0
 20
96.45854249492243
 30
0.0
 11
12.5
 21
97.32456789870703
 31
0.0
1001
AcDbBlockRepETag
1070
     1
1071
      172
1005
2A4
  0
LINE
  5
2A5
330
2
100
AcDbEntity
  8
renvoi
100
AcDbLine
 10
12.0
 20
96.45854249492259
 30
0.0
 11
11.5
 21
97.32456789870724
 31
0.0
1001
AcDbBlockRepETag
1070
     1
1071
      173
1005
2A5
  0
LINE
  5
2A6
330
2
100
AcDbEntity
  8
renvoi
100
AcDbLine
 10
11.0
 20
96.45854249492243
 30
0.0
 11
11.5
 21
97.32456789870731
 31
0.0
1001
AcDbBlockRepETag
1070
     1
1071
      174
1005
2A6
  0
LINE
  5
2A7
330
2
100
AcDbEntity
  8
renvoi
100
AcDbLine
 10
11.0
 20
96.45854249492243
 30
0.0
 11
10.5
 21
97.32456789870731
 31
0.0
1001
AcDbBlockRepETag
1070
     1
1071
      175
1005
2A7
  0
LINE
  5
2A8
330
2
100
AcDbEntity
  8
renvoi
100
AcDbLine
 10
10.0
 20
96.45854249492238
 30
0.0
 11
10.5
 21
97.32456789870731
 31
0.0
1001
AcDbBlockRepETag
1070
     1
1071
      176
1005
2A8
  0
LINE
  5
2A9
330
2
100
AcDbEntity
  8
renvoi
100
AcDbLine
 10
10.0
 20
96.45854249492238
 30
0.0
 11
9.5
 21
97.32456789870719
 31
0.0
1001
AcDbBlockRepETag
1070
     1
1071
      177
1005
2A9
  0
LINE
  5
2AA
330
2
100
AcDbEntity
  8
renvoi
100
AcDbLine
 10
9.0
 20
96.45854249492254
 30
0.0
 11
9.5
 21
97.32456789870719
 31
0.0
1001
AcDbBlockRepETag
1070
     1
1071
      178
1005
2AA
  0
LINE
  5
2AB
330
2
100
AcDbEntity
  8
renvoi
100
AcDbLine
 10
9.0
 20
96.45854249492254
 30
0.0
 11
8.5
 21
97.32456789870731
 31
0.0
1001
AcDbBlockRepETag
1070
     1
1071
      179
1005
2AB
  0
LINE
  5
2AC
330
2
100
AcDbEntity
  8
renvoi
100
AcDbLine
 10
8.0
 20
96.45854249492243
 30
0.0
 11
8.5
 21
97.32456789870731
 31
0.0
1001
AcDbBlockRepETag
1070
     1
1071
      180
1005
2AC
  0
LINE
  5
2AD
330
2
100
AcDbEntity
  8
renvoi
100
AcDbLine
 10
8.0
 20
96.45854249492238
 30
0.0
 11
7.5
 21
97.32456789870703
 31
0.0
1001
AcDbBlockRepETag
1070
     1
1071
      181
1005
2AD
  0
LINE
  5
2AE
330
2
100
AcDbEntity
  8
renvoi
100
AcDbLine
 10
7.0
 20
96.45854249492225
 30
0.0
 11
7.5
 21
97.3245678987069
 31
0.0
1001
AcDbBlockRepETag
1070
     1
1071
      182
1005
2AE
  0
LINE
  5
2AF
330
2
100
AcDbEntity
  8
renvoi
100
AcDbLine
 10
7.0
 20
96.4585424949222
 30
0.0
 11
6.5
 21
97.32456789870719
 31
0.0
1001
AcDbBlockRepETag
1070
     1
1071
      183
1005
2AF
  0
LINE
  5
2B0
330
2
100
AcDbEntity
  8
renvoi
100
AcDbLine
 10
6.000020975549887
 20
96.45857882564065
 30
0.0
 11
6.5
 21
97.32456789870719
 31
0.0
1001
AcDbBlockRepETag
1070
     1
1071
      184
1005
2B0
  0
SPLINE
  5
2B1
330
2
100
AcDbEntity
  8
renvoi
100
AcDbSpline
210
0.0
220
0.0
230
1.0
 70
     8
 71
     3
 72
    27
 73
    23
 74
     0
 42
0.0000000001
 43
0.0000000001
 40
-1.000272431355579
 40
-1.000272431355579
 40
-1.000272431355579
 40
-1.000272431355579
 40
-0.554906647778946
 40
-0.554906647778946
 40
0.0
 40
0.0
 40
0.0
 40
0.3059823426554431
 40
0.3059823426554431
 40
0.6119646853108863
 40
0.6119646853108863
 40
0.9179470279663293
 40
0.9179470279663293
 40
1.223929370621772
 40
1.223929370621772
 40
1.523888743937895
 40
1.523888743937895
 40
1.823848117254017
 40
1.823848117254017
 40
2.12380749057014
 40
2.12380749057014
 40
2.423766863886263
 40
2.423766863886263
 40
2.423766863886263
 40
2.423766863886263
 10
6.000020975549887
 20
102.034758711139
 30
0.0
 10
5.969585137241665
 20
102.1427236781106
 30
0.0
 10
5.933864543547315
 20
102.2705481645507
 30
0.0
 10
5.848386653331544
 20
102.5805349969546
 30
0.0
 10
5.797256837553504
 20
102.7687859213954
 30
0.0
 10
5.749597264993099
 20
102.9469208733008
 30
0.0
 10
5.723317191182104
 20
103.0451466741828
 30
0.0
 10
5.696149322869132
 20
103.1474993463084
 30
0.0
 10
5.642143495852906
 20
103.3526570427603
 30
0.0
 10
5.615304585725425
 20
103.4554629937769
 30
0.0
 10
5.563838822312391
 20
103.654084517105
 30
0.0
 10
5.539169063786175
 20
103.7500598421317
 30
0.0
 10
5.493512532571912
 20
103.9288033170506
 30
0.0
 10
5.472525453442358
 20
104.0115649423763
 30
0.0
 10
5.435677419514831
 20
104.1575719282464
 30
0.0
 10
5.418557482805226
 20
104.2257967849242
 30
0.0
 10
5.388373279462939
 20
104.3465565432579
 30
0.0
 10
5.375305325343106
 20
104.3990977327436
 30
0.0
 10
5.35429339379516
 20
104.4837790016152
 30
0.0
 10
5.346328902252935
 20
104.5159963555207
 30
0.0
 10
5.335858241014648
 20
104.5583833844591
 30
0.0
 10
5.333354308882917
 20
104.5685424949224
 30
0.0
 10
5.333354308882917
 20
104.5685424949224
 30
0.0
1001
AcDbBlockRepETag
1070
     1
1071
      185
1005
2B1
  0
LINE
  5
2B2
330
2
100
AcDbEntity
  8
renvoi
100
AcDbLine
 10
1.0
 20
109.0685424949225
 30
0.0
 11
0.0
 21
109.0685424949225
 31
0.0
1001
AcDbBlockRepETag
1070
     1
1071
      186
1005
2B2
  0
LINE
  5
2B3
330
2
100
AcDbEntity
  8
renvoi
100
AcDbLine
 10
4.128852300829748
 20
109.0854250251217
 30
0.0
 11
3.500020975548977
 21
109.5685424949226
 31
0.0
1001
AcDbBlockRepETag
1070
     1
1071
      187
1005
2B3
  0
LINE
  5
2B4
330
2
100
AcDbEntity
  8
renvoi
100
AcDbLine
 10
1.500020975548977
 20
109.5685424949225
 30
0.0
 11
3.500020975548977
 21
109.5685424949225
 31
0.0
1001
AcDbBlockRepETag
1070
     1
1071
      188
1005
2B4
  0
LINE
  5
2B5
330
2
100
AcDbEntity
  8
renvoi
100
AcDbLine
 10
1.000020975548977
 20
109.0685424949225
 30
0.0
 11
1.500020975548977
 21
109.5685424949225
 31
0.0
1001
AcDbBlockRepETag
1070
     1
1071
      189
1005
2B5
  0
CIRCLE
  5
2B6
330
2
100
AcDbEntity
  8
percage
100
AcDbCircle
 10
56.10749455216773
 20
56.46104794276027
 30
0.0
 40
15.0
1001
AcDbBlockRepETag
1070
     1
1071
      190
1005
2B6
  0
ENDSEC
  0
SECTION
  2
OBJECTS
  0
DICTIONARY
  5
9
330
0
100
AcDbDictionary
281
     1
  3
ACAD_COLOR
350
1EF
  3
ACAD_GROUP
350
1EA
  3
ACAD_LAYOUT
350
F
  3
ACAD_MATERIAL
350
B
  3
ACAD_MLINESTYLE
350
1EB
  3
ACAD_PLOTSETTINGS
350
1EC
  3
ACAD_PLOTSTYLENAME
350
8
  3
ACAD_TABLESTYLE
350
1F0
  3
ACAD_VISUALSTYLE
350
1E1
  3
AcDbVariableDictionary
350
2B8
  3
DWGPROPS
350
30C
  0
DICTIONARY
  5
2D6
330
1DE
100
AcDbDictionary
280
     1
281
     1
  0
DICTIONARY
  5
15
330
14
100
AcDbDictionary
280
     1
281
     1
  3
ACAD_LAYERFILTERS
360
16
  0
DICTIONARY
  5
3
330
2
100
AcDbDictionary
280
     1
281
     1
  3
ACAD_SORTENTS
360
4
  0
DICTIONARY
  5
1EF
102
{ACAD_REACTORS
330
9
102
}
330
9
100
AcDbDictionary
281
     1
  0
DICTIONARY
  5
1EA
102
{ACAD_REACTORS
330
9
102
}
330
9
100
AcDbDictionary
281
     1
  0
DICTIONARY
  5
F
102
{ACAD_REACTORS
330
9
102
}
330
9
100
AcDbDictionary
281
     1
  3
Model
350
E
  3
plan du rail
350
13
  0
DICTIONARY
  5
B
102
{ACAD_REACTORS
330
9
102
}
330
9
100
AcDbDictionary
281
     1
  3
ByBlock
350
1EE
  3
ByLayer
350
1ED
  3
Global
350
A
  0
DICTIONARY
  5
1EB
102
{ACAD_REACTORS
330
9
102
}
330
9
100
AcDbDictionary
281
     1
  3
Standard
350
1F2
  0
DICTIONARY
  5
1EC
102
{ACAD_REACTORS
330
9
102
}
330
9
100
AcDbDictionary
281
     1
  0
ACDBDICTIONARYWDFLT
  5
8
102
{ACAD_REACTORS
330
9
102
}
330
9
100
AcDbDictionary
281
     1
  3
Normal
350
7
100
AcDbDictionaryWithDefault
340
7
  0
DICTIONARY
  5
1F0
102
{ACAD_REACTORS
330
9
102
}
330
9
100
AcDbDictionary
281
     1
  3
Standard
350
1F3
  0
DICTIONARY
  5
1E1
102
{ACAD_REACTORS
330
9
102
}
330
9
100
AcDbDictionary
281
     1
  3
2dWireframe
350
1E0
  3
3D Hidden
350
2C0
  3
3dWireframe
350
1F5
  3
Basic
350
2BF
  3
Brighten
350
2C3
  3
ColorChange
350
2C7
  3
Conceptual
350
2C1
  3
Dim
350
2C2
  3
Facepattern
350
2C6
  3
Flat
350
2BB
  3
FlatWithEdges
350
2BC
  3
Gouraud
350
2BD
  3
GouraudWithEdges
350
2BE
  3
Linepattern
350
2C5
  3
Realistic
350
1F4
  3
Thicken
350
2C4
  0
DICTIONARY
  5
2B8
102
{ACAD_REACTORS
330
9
102
}
330
9
100
AcDbDictionary
281
     1
  3
CTABLESTYLE
350
2B9
  3
DIMASSOC
350
2E5
  3
HIDETEXT
350
2E4
  3
INDEXCTL
350
2E3
  3
SORTENTS
350
2E2
  0
XRECORD
  5
30C
102
{ACAD_REACTORS
330
9
102
}
330
9
100
AcDbXrecord
280
     1
  1
DWGPROPS COOKIE
  2

  3

  4

  6

  7

  8
cyril.dagand
  9

300
=
301
=
302
=
303
=
304
=
305
=
306
=
307
=
308
=
309
=
 40
0.2937524652777777
 41
2454468.434413449
 42
2454608.430866493
  1

 90
        0
  0
DICTIONARY
  5
16
102
{ACAD_REACTORS
330
15
102
}
330
15
100
AcDbDictionary
280
     1
281
     1
  3
--jc
360
17
  3
0
360
18
  3
0 existente
360
19
  3
0.13
360
1A
  3
0.15 mm
360
1B
  3
0.20 mm
360
1C
  3
0.25 mm
360
1D
  3
00
360
1E
  3
0000
360
1F
  3
01
360
20
  3
02
360
21
  3
03
360
22
  3
09
360
23
  3
1
360
24
  3
1 Traçado
360
25
  3
10
360
26
  3
1008
360
27
  3
1101
360
28
  3
1105
360
29
  3
1108
360
2A
  3
111
360
2B
  3
1205
360
2C
  3
15
360
2D
  3
1er
360
2E
  3
2
360
2F
  3
2 Drenagem
360
30
  3
25
360
31
  3
252
360
32
  3
2eme
360
33
  3
3
360
34
  3
3 Pavimentação
360
35
  3
30
360
36
  3
3d
360
37
  3
3D-LAYER
360
38
  3
3eme
360
39
  3
4
360
3A
  3
40
360
3B
  3
4eme
360
3C
  3
4r
360
3D
  3
5
360
3E
  3
5 Sinalização
360
3F
  3
50
360
40
  3
5eme
360
41
  3
6
360
42
  3
6 Iluminação Pública
360
43
  3
60
360
44
  3
6eme
360
45
  3
7
360
46
  3
70
360
47
  3
7eme
360
48
  3
8
360
49
  3
80
360
4A
  3
8eme
360
4B
  3
90
360
4C
  3
a
360
4D
  3
A00
360
4E
  3
A10
360
4F
  3
A20
360
50
  3
A30
360
51
  3
A40
360
52
  3
A50
360
53
  3
A60
360
54
  3
A70
360
55
  3
A80
360
56
  3
A90
360
57
  3
A_co
360
58
  3
A_Families
360
59
  3
A_fp_h
360
5A
  3
A_fp_t
360
5B
  3
A_plan
360
5C
  3
A_sol
360
5D
  3
A_sol_
360
5E
  3
a_soli
360
5F
  3
A_Total
360
60
  3
aa
360
61
  3
AAA
360
62
  3
AART
360
63
  3
AART2
360
64
  3
AART3
360
65
  3
ac
360
66
  3
ACAB
360
67
  3
active
360
68
  3
activo
360
69
  3
activos
360
6A
  3
activé
360
6B
  3
ae
360
6C
  3
alle _
360
6D
  3
Alpha
360
6E
  3
alçado 1
360
6F
  3
alçados
360
70
  3
anneau
360
71
  3
Aplats
360
72
  3
arch
360
73
  3
archi
360
74
  3
archi-geler
360
75
  3
are
360
76
  3
AREAS
360
77
  3
ARM-INF-CORPO-A
360
78
  3
ARM-INF-CORPO-C
360
79
  3
ARM-INF-CORPO-E
360
7A
  3
ARM-INF-CORPO-F
360
7B
  3
ARM-INF-CORPO-G
360
7C
  3
ARM-INF-CORPO-I
360
7D
  3
ARM-SUP-CORPO-E
360
7E
  3
ARM-SUP-CORPO-F
360
7F
  3
ARM-SUP-CORPO-I
360
80
  3
ARQ
360
81
  3
ARQ P0
360
82
  3
ARQ P1
360
83
  3
AS
360
84
  3
aux
360
85
  3
bat
360
86
  3
batcont
360
87
  3
batiment
360
88
  3
BAUS
360
89
  3
bet
360
8A
  3
BETOM
360
8B
  3
BETS
360
8C
  3
blanc
360
8D
  3
blocs
360
8E
  3
bur1
360
8F
  3
bur2
360
90
  3
by layer
360
91
  3
c
360
92
  3
cae
360
93
  3
CALPINAGE
360
94
  3
calques vides
360
95
  3
capa reutilizada
360
96
  3
capas activadas
360
97
  3
capas desactivadas
360
98
  3
CAR
360
99
  3
cart
360
9A
  3
Cartografia existente
360
9B
  3
CB
360
9C
  3
CB00
360
9D
  3
CB10
360
9E
  3
CB20
360
9F
  3
CB30
360
A0
  3
CB40
360
A1
  3
CB50
360
A2
  3
CB60
360
A3
  3
CB70
360
A4
  3
CB80
360
A5
  3
CB90
360
A6
  3
CB_Families
360
A7
  3
CB_general
360
A8
  3
CCG
360
A9
  3
cf
360
AA
  3
CFA
360
AB
  3
cfaibles
360
AC
  3
ch
360
AD
  3
chm
360
AE
  3
CIR
360
AF
  3
CIRC
360
B0
  3
clim
360
B1
  3
CLIM extraction
360
B2
  3
CLIM soufflage
360
B3
  3
CLIMATISATION
360
B4
  3
cloison
360
B5
  3
CO2_H
360
B6
  3
CO_A1
360
B7
  3
CO_A2
360
B8
  3
CO_B1
360
B9
  3
CO_B2
360
BA
  3
CO_C1
360
BB
  3
CO_C2
360
BC
  3
co_f1
360
BD
  3
CO_H
360
BE
  3
COA1
360
BF
  3
coa2
360
C0
  3
COA4
360
C1
  3
COCOS
360
C2
  3
COD
360
C3
  3
color21
360
C4
  3
comp
360
C5
  3
CONSTRUCTION
360
C6
  3
cor 1
360
C7
  3
cor 9
360
C8
  3
cor9
360
C9
  3
CORPO E
360
CA
  3
cot
360
CB
  3
cotas
360
CC
  3
cotation
360
CD
  3
cotes
360
CE
  3
coul
360
CF
  3
couleur
360
D0
  3
cour
360
D1
  3
cpa inutilizada
360
D2
  3
crt
360
D3
  3
CTA
360
D4
  3
cuisine
360
D5
  3
CV
360
D6
  3
CV-Variante
360
D7
  3
cvc
360
D8
  3
cyan
360
D9
  3
DD
360
DA
  3
Defpoints
360
DB
  3
DEMOLITION
360
DC
  3
des
360
DD
  3
desact
360
DE
  3
descat
360
DF
  3
desenfumage
360
E0
  3
Deutsch
360
E1
  3
DoOr
360
E2
  3
Désactiver-geler
360
E3
  3
désactivé
360
E4
  3
e
360
E5
  3
ECLAIRAGE
360
E6
  3
efi
360
E7
  3
EIXOS
360
E8
  3
El
360
E9
  3
elev
360
EA
  3
elh
360
EB
  3
elh1
360
EC
  3
elh2
360
ED
  3
elh3
360
EE
  3
elh4
360
EF
  3
elh5
360
F0
  3
elh6
360
F1
  3
elh7
360
F2
  3
elh8
360
F3
  3
elh9
360
F4
  3
Englisch
360
F5
  3
ep_remp
360
F6
  3
ep_trait
360
F7
  3
ESGOTOS
360
F8
  3
est
360
F9
  3
etage
360
FA
  3
ETAN
360
FB
  3
execpilj
360
FC
  3
Existant
360
FD
  3
extr
360
FE
  3
extr01
360
FF
  3
extr02
360
100
  3
extr03
360
101
  3
extr04
360
102
  3
extr05
360
103
  3
extrDIV
360
104
  3
f
360
105
  3
fa4
360
106
  3
FA_A2
360
107
  3
FA_B1
360
108
  3
FAC_1_COU_B
360
109
  3
FAC_A1
360
10A
  3
FAC_A2
360
10B
  3
FAC_A3
360
10C
  3
FAC_A4
360
10D
  3
FAC_B1
360
10E
  3
FAC_B2
360
10F
  3
FAC_C1
360
110
  3
FAC_C2
360
111
  3
FAC_H1_COUR
360
112
  3
FAC_H1_RUE
360
113
  3
faux plaf
360
114
  3
ff
360
115
  3
fin
360
116
  3
FLUIDES
360
117
  3
fo
360
118
  3
FO-AB
360
119
  3
FO-SGS
360
11A
  3
FO-SGX
360
11B
  3
FOLHA
360
11C
  3
FOLHAS
360
11D
  3
FORCE
360
11E
  3
FPT
360
11F
  3
frees
360
120
  3
FREEZE
360
121
  3
G
360
122
  3
gaines verticales
360
123
  3
gele
360
124
  3
geler
360
125
  3
gelé
360
126
  3
geometrie
360
127
  3
gpo
360
128
  3
gril
360
129
  3
gris8
360
12A
  3
gris9
360
12B
  3
GrundrisseA
360
12C
  3
géo
360
12D
  3
H
360
12E
  3
ha
360
12F
  3
HACHURES
360
130
  3
hand
360
131
  3
hat
360
132
  3
hh
360
133
  3
Hilfs
360
134
  3
hilfsk
360
135
  3
hydro
360
136
  3
il
360
137
  3
ILUM
360
138
  3
image
360
139
  3
import
360
13A
  3
INACTIF
360
13B
  3
incendie
360
13C
  3
ind
360
13D
  3
isometrix
360
13E
  3
jaune
360
13F
  3
joint
360
140
  3
Layers do Projecto
360
141
  3
LOCKS
360
142
  3
lolo
360
143
  3
LOOP7
360
144
  3
ls
360
145
  3
LUI
360
146
  3
lumi
360
147
  3
Main
360
148
  3
MODI
360
149
  3
mur
360
14A
  3
MURS_VITR
360
14B
  3
Murs_Vitrs
360
14C
  3
N
360
14D
  3
n-clav
360
14E
  3
Nur sichtbare
360
14F
  3
NV
360
150
  3
o
360
151
  3
Off
360
152
  3
on
360
153
  3
OPERATION
360
154
  3
OPERATION1
360
155
  3
OPERATION2
360
156
  3
OPERATION3
360
157
  3
P
360
158
  3
parte A
360
159
  3
Parte B
360
15A
  3
Parte C
360
15B
  3
Parte D
360
15C
  3
Parte E
360
15D
  3
Parte F
360
15E
  3
parte g
360
15F
  3
parte H
360
160
  3
parte H2
360
161
  3
parte i
360
162
  3
parte J
360
163
  3
pass
360
164
  3
passerelle
360
165
  3
pav
360
166
  3
paysagistes
360
167
  3
PB
360
168
  3
pea
360
169
  3
pea2
360
16A
  3
pea3
360
16B
  3
pena
360
16C
  3
penacon
360
16D
  3
penagelé
360
16E
  3
penamé
360
16F
  3
penasol
360
170
  3
penaT
360
171
  3
PH
360
172
  3
phasage
360
173
  3
phase
360
174
  3
PISO-1
360
175
  3
PISO0
360
176
  3
PISO1
360
177
  3
PL
360
178
  3
Place
360
179
  3
plan03
360
17A
  3
PLAN_MURS
360
17B
  3
planches
360
17C
  3
plr
360
17D
  3
plr_remp
360
17E
  3
points
360
17F
  3
pol
360
180
  3
POLY
360
181
  3
por
360
182
  3
PORTAS
360
183
  3
porte
360
184
  3
poteau
360
185
  3
PROTECTION
360
186
  3
R
360
187
  3
RAST
360
188
  3
rdc
360
189
  3
rdj
360
18A
  3
reb
360
18B
  3
region
360
18C
  3
repart
360
18D
  3
reseaux
360
18E
  3
rn
360
18F
  3
rouge
360
190
  3
rouge 240
360
191
  3
RRR
360
192
  3
s
360
193
  3
SANS XREF
360
194
  3
sh
360
195
  3
si
360
196
  3
site
360
197
  3
sm
360
198
  3
SOL
360
199
  3
solid10
360
19A
  3
solid30
360
19B
  3
SOLIDS
360
19C
  3
souff
360
19D
  3
souff01
360
19E
  3
SOUFF02
360
19F
  3
SOUFF03
360
1A0
  3
SOUFF05
360
1A1
  3
souff06
360
1A2
  3
souff403
360
1A3
  3
soussol
360
1A4
  3
sp
360
1A5
  3
Spanisch
360
1A6
  3
SPECIFIQUE
360
1A7
  3
stef
360
1A8
  3
sty
360
1A9
  3
surete
360
1AA
  3
surf
360
1AB
  3
surfaces
360
1AC
  3
sy
360
1AD
  3
TE
360
1AE
  3
tec
360
1AF
  3
temp
360
1B0
  3
terrasse
360
1B1
  3
Text
360
1B2
  3
TEXTE
360
1B3
  3
Textes
360
1B4
  3
tmp
360
1B5
  3
topo
360
1B6
  3
Total
360
1B7
  3
toto
360
1B8
  3
tr
360
1B9
  3
trace
360
1BA
  3
tracer
360
1BB
  3
TRAME
360
1BC
  3
travail_V7
360
1BD
  3
TRPATRIM
360
1BE
  3
TTE
360
1BF
  3
txt
360
1C0
  3
verriere
360
1C1
  3
vert
360
1C2
  3
vert 90
360
1C3
  3
vide
360
1C4
  3
vo
360
1C5
  3
wall
360
1C6
  3
wilmotte
360
1C7
  3
wilmotte_invisible
360
1C8
  3
wilmotte_visible
360
1C9
  3
work
360
1CA
  3
XFFF
360
1CB
  3
xref
360
1CC
  3
xref-des
360
1CD
  3
z1-des
360
1CE
  3
z2-des
360
1CF
  3
z3-des
360
1D0
  3
za
360
1D1
  3
ZG
360
1D2
  3
zone-vdi
360
1D3
  3
zones
360
1D4
  3
ztt-des
360
1D5
  0
SORTENTSTABLE
  5
4
102
{ACAD_REACTORS
330
3
102
}
330
3
100
AcDbSortentsTable
330
2
  0
LAYOUT
  5
E
102
{ACAD_XDICTIONARY
360
30F
102
}
102
{ACAD_REACTORS
330
F
102
}
330
F
100
AcDbPlotSettings
  1

  2
\\FIERY X2E\Print
  4
A3
  6

 40
3.96875
 41
5.746754646301269
 42
3.96875
 43
6.064239501953125
 44
297.0530090332031
 45
420.1795043945312
 46
0.0
 47
0.0
 48
-7565.828273176605
 49
-7966.926176362663
140
18118.3377520427
141
27443.55800093296
142
1.0
143
88.8370399467904
 70
 11952
 72
     1
 73
     0
 74
     4
  7
monochrome.ctb
 75
     0
147
0.0112565659616637
148
7565.828273176605
149
7966.926176362663
100
AcDbLayout
  1
Model
 70
     1
 71
     0
 10
0.0
 20
0.0
 11
12.0
 21
9.0
 12
0.0
 22
0.0
 32
0.0
 14
0.0
 24
0.0
 34
0.0
 15
0.0
 25
0.0
 35
0.0
146
0.0
 13
0.0
 23
0.0
 33
0.0
 16
1.0
 26
0.0
 36
0.0
 17
0.0
 27
1.0
 37
0.0
 76
     0
330
2
331
1DF
  0
LAYOUT
  5
13
102
{ACAD_XDICTIONARY
360
311
102
}
102
{ACAD_REACTORS
330
F
102
}
330
F
100
AcDbPlotSettings
  1

  2
\\fiery x2e\print
  4
A4
  6

 40
5.746749877929687
 41
3.96875
 42
5.746749877929687
 43
3.96875
 44
209.9309997558594
 45
297.0530090332031
 46
0.89
 47
1.77
 48
6.349260255058197
 49
4.431556330764919
140
203.0
141
290.0
142
1.0
143
1.0
 70
   692
 72
     1
 73
     0
 74
     4
  7
monochrome.ctb
 75
    16
147
1.0
148
-6.349260255058197
149
-4.431556330764919
100
AcDbLayout
  1
plan du rail
 70
     1
 71
     1
 10
-0.2874896228714894
 20
-1.30719366923508
 11
209.6435101329879
 21
295.7458153639681
 12
0.0
 22
0.0
 32
0.0
 14
0.0
 24
0.0
 34
0.0
 15
210.0
 25
297.0
 35
0.0
146
0.0
 13
0.0
 23
0.0
 33
0.0
 16
1.0
 26
0.0
 36
0.0
 17
0.0
 27
1.0
 37
0.0
 76
     0
330
10
  0
MATERIAL
  5
1EE
102
{ACAD_XDICTIONARY
360
315
102
}
102
{ACAD_REACTORS
330
B
102
}
330
B
100
AcDbMaterial
  1
ByBlock
  0
MATERIAL
  5
1ED
102
{ACAD_XDICTIONARY
360
313
102
}
102
{ACAD_REACTORS
330
B
102
}
330
B
100
AcDbMaterial
  1
ByLayer
  0
MATERIAL
  5
A
102
{ACAD_XDICTIONARY
360
30D
102
}
102
{ACAD_REACTORS
330
B
102
}
330
B
100
AcDbMaterial
  1
Global
  0
MLINESTYLE
  5
1F2
102
{ACAD_REACTORS
330
1EB
102
}
330
1EB
100
AcDbMlineStyle
  2
STANDARD
 70
     0
  3

 62
   256
 51
90.0
 52
90.0
 71
     2
 49
0.5
 62
   256
  6
BYLAYER
 49
-0.5
 62
   256
  6
BYLAYER
  0
ACDBPLACEHOLDER
  5
7
102
{ACAD_REACTORS
330
8
102
}
330
8
  0
TABLESTYLE
  5
1F3
102
{ACAD_XDICTIONARY
360
317
102
}
102
{ACAD_REACTORS
330
1F0
102
}
330
1F0
100
AcDbTableStyle
  3
Standard
 70
     0
 71
     0
 40
1.5
 41
1.5
280
     0
281
     0
  7
Standard
140
4.5
170
     2
 62
     0
 63
     7
283
     0
274
    -2
284
     1
 64
     0
275
    -2
285
     1
 65
     0
276
    -2
286
     1
 66
     0
277
    -2
287
     1
 67
     0
278
    -2
288
     1
 68
     0
279
    -2
289
     1
 69
     0
  7
Standard
140
6.0
170
     5
 62
     0
 63
     7
283
     0
274
    -2
284
     1
 64
     0
275
    -2
285
     1
 65
     0
276
    -2
286
     1
 66
     0
277
    -2
287
     1
 67
     0
278
    -2
288
     1
 68
     0
279
    -2
289
     1
 69
     0
  7
Standard
140
4.5
170
     5
 62
     0
 63
     7
283
     0
274
    -2
284
     1
 64
     0
275
    -2
285
     1
 65
     0
276
    -2
286
     1
 66
     0
277
    -2
287
     1
 67
     0
278
    -2
288
     1
 68
     0
279
    -2
289
     1
 69
     0
  0
VISUALSTYLE
  5
1E0
102
{ACAD_REACTORS
330
1E1
102
}
330
1E1
100
AcDbVisualStyle
  2
2dWireframe
 70
     4
 71
     0
 72
     2
 73
     0
 90
        0
 40
-0.6
 41
-30.0
 62
     5
 63
     7
 74
     1
 91
        4
 64
     7
 65
   257
 75
     1
175
     1
 42
1.0
 92
        0
 66
   257
 43
1.0
 76
     1
 77
     6
 78
     2
 67
     7
 79
     5
170
     0
171
     0
290
     0
174
     0
 93
        1
 44
0.0
173
     0
291
     0
 45
0.0
1001
ACAD
1000
AcDbSavedByObjectVersion
1070
     0
  0
VISUALSTYLE
  5
2C0
102
{ACAD_REACTORS
330
1E1
102
}
330
1E1
100
AcDbVisualStyle
  2
3D Hidden
 70
     6
 71
     1
 72
     2
 73
     2
 90
        0
 40
-0.6
 41
-30.0
 62
     5
 63
     7
 74
     2
 91
        2
 64
     7
 65
   257
 75
     2
175
     1
 42
40.0
 92
        0
 66
   257
 43
1.0
 76
     1
 77
     6
 78
     2
 67
     7
 79
     3
170
     0
171
     0
290
     0
174
     0
 93
        1
 44
0.0
173
     0
291
     0
 45
0.0
1001
ACAD
1000
AcDbSavedByObjectVersion
1070
     0
  0
VISUALSTYLE
  5
1F5
102
{ACAD_REACTORS
330
1E1
102
}
330
1E1
100
AcDbVisualStyle
  2
3dWireframe
 70
     5
 71
     0
 72
     2
 73
     0
 90
        0
 40
-0.6
 41
-30.0
 62
     5
 63
     7
 74
     1
 91
        4
 64
     7
 65
   257
 75
     1
175
     1
 42
1.0
 92
        0
 66
   257
 43
1.0
 76
     1
 77
     6
 78
     2
 67
     7
 79
     5
170
     0
171
     0
290
     0
174
     0
 93
        1
 44
0.0
173
     0
291
     0
 45
0.0
1001
ACAD
1000
AcDbSavedByObjectVersion
1070
     0
  0
VISUALSTYLE
  5
2BF
102
{ACAD_REACTORS
330
1E1
102
}
330
1E1
100
AcDbVisualStyle
  2
Basic
 70
     7
 71
     1
 72
     0
 73
     1
 90
        0
 40
-0.6
 41
-30.0
 62
     5
 63
     7
 74
     0
 91
        4
 64
     7
 65
   257
 75
     1
175
     1
 42
1.0
 92
        8
 66
     7
 43
1.0
 76
     1
 77
     6
 78
     2
 67
     7
 79
     5
170
     0
171
     0
290
     0
174
     0
 93
        1
 44
0.0
173
     0
291
     1
 45
0.0
1001
ACAD
1000
AcDbSavedByObjectVersion
1070
     0
  0
VISUALSTYLE
  5
2C3
102
{ACAD_REACTORS
330
1E1
102
}
330
1E1
100
AcDbVisualStyle
  2
Brighten
 70
    12
 71
     2
 72
     2
 73
     0
 90
        0
 40
-0.6
 41
-30.0
 62
     5
 63
     7
 74
     1
 91
        4
 64
     7
 65
   257
 75
     1
175
     1
 42
1.0
 92
        8
 66
     7
 43
1.0
 76
     1
 77
     6
 78
     2
 67
     7
 79
     5
170
     0
171
     0
290
     0
174
     0
 93
        1
 44
50.0
173
     0
291
     1
 45
0.0
1001
ACAD
1000
AcDbSavedByObjectVersion
1070
     0
  0
VISUALSTYLE
  5
2C7
102
{ACAD_REACTORS
330
1E1
102
}
330
1E1
100
AcDbVisualStyle
  2
ColorChange
 70
    16
 71
     2
 72
     2
 73
     3
 90
        0
 40
-0.6
 41
-30.0
 62
     5
 63
     8
 74
     1
 91
        4
 64
     7
 65
   257
 75
     1
175
     1
 42
1.0
 92
        8
 66
     8
 43
1.0
 76
     1
 77
     6
 78
     2
 67
     7
 79
     5
170
     0
171
     0
290
     0
174
     0
 93
        1
 44
0.0
173
     0
291
     1
 45
0.0
1001
ACAD
1000
AcDbSavedByObjectVersion
1070
     0
  0
VISUALSTYLE
  5
2C1
102
{ACAD_REACTORS
330
1E1
102
}
330
1E1
100
AcDbVisualStyle
  2
Conceptual
 70
     9
 71
     3
 72
     2
 73
     0
 90
        0
 40
-0.6
 41
-30.0
 62
     5
 63
     7
 74
     2
 91
        2
 64
     7
 65
   257
 75
     1
175
     1
 42
40.0
 92
        8
 66
     7
 43
1.0
 76
     1
 77
     6
 78
     2
 67
     7
 79
     3
170
     0
171
     0
290
     0
174
     0
 93
        1
 44
0.0
173
     0
291
     0
 45
0.0
1001
ACAD
1000
AcDbSavedByObjectVersion
1070
     0
  0
VISUALSTYLE
  5
2C2
102
{ACAD_REACTORS
330
1E1
102
}
330
1E1
100
AcDbVisualStyle
  2
Dim
 70
    11
 71
     2
 72
     2
 73
     0
 90
        0
 40
-0.6
 41
-30.0
 62
     5
 63
     7
 74
     1
 91
        4
 64
     7
 65
   257
 75
     1
175
     1
 42
1.0
 92
        8
 66
     7
 43
1.0
 76
     1
 77
     6
 78
     2
 67
     7
 79
     5
170
     0
171
     0
290
     0
174
     0
 93
        1
 44
-50.0
173
     0
291
     1
 45
0.0
1001
ACAD
1000
AcDbSavedByObjectVersion
1070
     0
  0
VISUALSTYLE
  5
2C6
102
{ACAD_REACTORS
330
1E1
102
}
330
1E1
100
AcDbVisualStyle
  2
Facepattern
 70
    15
 71
     2
 72
     2
 73
     0
 90
        0
 40
-0.6
 41
-30.0
 62
     5
 63
     7
 74
     1
 91
        4
 64
     7
 65
   257
 75
     1
175
     1
 42
1.0
 92
        8
 66
     7
 43
1.0
 76
     1
 77
     6
 78
     2
 67
     7
 79
     5
170
     0
171
     0
290
     0
174
     0
 93
        1
 44
0.0
173
     0
291
     1
 45
0.0
1001
ACAD
1000
AcDbSavedByObjectVersion
1070
     0
  0
VISUALSTYLE
  5
2BB
102
{ACAD_REACTORS
330
1E1
102
}
330
1E1
100
AcDbVisualStyle
  2
Flat
 70
     0
 71
     2
 72
     1
 73
     1
 90
        2
 40
-0.6
 41
30.0
 62
     5
 63
     7
 74
     0
 91
        4
 64
     7
 65
   257
 75
     1
175
     1
 42
1.0
 92
        8
 66
     7
 43
1.0
 76
     1
 77
     6
 78
     2
 67
     7
 79
     5
170
     0
171
     0
290
     0
174
     0
 93
       13
 44
0.0
173
     0
291
     1
 45
0.0
1001
ACAD
1000
AcDbSavedByObjectVersion
1070
     0
  0
VISUALSTYLE
  5
2BC
102
{ACAD_REACTORS
330
1E1
102
}
330
1E1
100
AcDbVisualStyle
  2
FlatWithEdges
 70
     1
 71
     2
 72
     1
 73
     1
 90
        2
 40
-0.6
 41
30.0
 62
     5
 63
     7
 74
     1
 91
        4
 64
     7
 65
   257
 75
     1
175
     1
 42
1.0
 92
        0
 66
   257
 43
1.0
 76
     1
 77
     6
 78
     2
 67
     7
 79
     5
170
     0
171
     0
290
     0
174
     0
 93
       13
 44
0.0
173
     0
291
     1
 45
0.0
1001
ACAD
1000
AcDbSavedByObjectVersion
1070
     0
  0
VISUALSTYLE
  5
2BD
102
{ACAD_REACTORS
330
1E1
102
}
330
1E1
100
AcDbVisualStyle
  2
Gouraud
 70
     2
 71
     2
 72
     2
 73
     1
 90
        2
 40
-0.6
 41
30.0
 62
     5
 63
     7
 74
     0
 91
        4
 64
     7
 65
   257
 75
     1
175
     1
 42
1.0
 92
        0
 66
     7
 43
1.0
 76
     1
 77
     6
 78
     2
 67
     7
 79
     5
170
     0
171
     0
290
     0
174
     0
 93
       13
 44
0.0
173
     0
291
     1
 45
0.0
1001
ACAD
1000
AcDbSavedByObjectVersion
1070
     0
  0
VISUALSTYLE
  5
2BE
102
{ACAD_REACTORS
330
1E1
102
}
330
1E1
100
AcDbVisualStyle
  2
GouraudWithEdges
 70
     3
 71
     2
 72
     2
 73
     1
 90
        2
 40
-0.6
 41
30.0
 62
     5
 63
     7
 74
     1
 91
        4
 64
     7
 65
   257
 75
     1
175
     1
 42
1.0
 92
        0
 66
   257
 43
1.0
 76
     1
 77
     6
 78
     2
 67
     7
 79
     5
170
     0
171
     0
290
     0
174
     0
 93
       13
 44
0.0
173
     0
291
     1
 45
0.0
1001
ACAD
1000
AcDbSavedByObjectVersion
1070
     0
  0
VISUALSTYLE
  5
2C5
102
{ACAD_REACTORS
330
1E1
102
}
330
1E1
100
AcDbVisualStyle
  2
Linepattern
 70
    14
 71
     2
 72
     2
 73
     0
 90
        0
 40
-0.6
 41
-30.0
 62
     5
 63
     7
 74
     1
 91
        4
 64
     7
 65
   257
 75
     7
175
     7
 42
1.0
 92
        8
 66
     7
 43
1.0
 76
     1
 77
     6
 78
     2
 67
     7
 79
     5
170
     0
171
     0
290
     0
174
     0
 93
        1
 44
0.0
173
     0
291
     1
 45
0.0
1001
ACAD
1000
AcDbSavedByObjectVersion
1070
     0
  0
VISUALSTYLE
  5
1F4
102
{ACAD_REACTORS
330
1E1
102
}
330
1E1
100
AcDbVisualStyle
  2
Realistic
 70
     8
 71
     2
 72
     2
 73
     0
 90
        0
 40
-0.6
 41
-30.0
 62
     5
 63
     7
 74
     1
 91
        0
 64
     7
 65
   257
 75
     1
175
     1
 42
1.0
 92
        8
 66
     8
 43
1.0
 76
     1
 77
     6
 78
     2
 67
     7
 79
     5
170
     0
171
     0
290
     0
174
     0
 93
       13
 44
0.0
173
     0
291
     0
 45
0.0
1001
ACAD
1000
AcDbSavedByObjectVersion
1070
     0
  0
VISUALSTYLE
  5
2C4
102
{ACAD_REACTORS
330
1E1
102
}
330
1E1
100
AcDbVisualStyle
  2
Thicken
 70
    13
 71
     2
 72
     2
 73
     0
 90
        0
 40
-0.6
 41
-30.0
 62
     5
 63
     7
 74
     1
 91
        4
 64
     7
 65
   257
 75
     1
175
     1
 42
1.0
 92
       12
 66
     7
 43
1.0
 76
     1
 77
     6
 78
     2
 67
     7
 79
     5
170
     0
171
     0
290
     0
174
     0
 93
        1
 44
0.0
173
     0
291
     1
 45
0.0
1001
ACAD
1000
AcDbSavedByObjectVersion
1070
     0
  0
DICTIONARYVAR
  5
2B9
102
{ACAD_REACTORS
330
2B8
102
}
330
2B8
100
DictionaryVariables
280
     0
  1
STANDARD
  0
DICTIONARYVAR
  5
2E5
102
{ACAD_REACTORS
330
2B8
102
}
330
2B8
100
DictionaryVariables
280
     0
  1
1
  0
DICTIONARYVAR
  5
2E4
102
{ACAD_REACTORS
330
2B8
102
}
330
2B8
100
DictionaryVariables
280
     0
  1
1
  0
DICTIONARYVAR
  5
2E3
102
{ACAD_REACTORS
330
2B8
102
}
330
2B8
100
DictionaryVariables
280
     0
  1
0
  0
DICTIONARYVAR
  5
2E2
102
{ACAD_REACTORS
330
2B8
102
}
330
2B8
100
DictionaryVariables
280
     0
  1
127
  0
XRECORD
  5
17
102
{ACAD_REACTORS
330
16
102
}
330
16
100
AcDbXrecord
280
     1
  1
--jc
  1
--jc*
  1
*
  1
*
 70
     0
  1
*
  1
*
  0
XRECORD
  5
18
102
{ACAD_REACTORS
330
16
102
}
330
16
100
AcDbXrecord
280
     1
  1
0
  1
0*
  1
*
  1
*
 70
     0
  1
*
  1
*
  0
XRECORD
  5
19
102
{ACAD_REACTORS
330
16
102
}
330
16
100
AcDbXrecord
280
     1
  1
0 existente
  1
0*
  1
*
  1
*
 70
     0
  1
*
  1
*
  0
XRECORD
  5
1A
102
{ACAD_REACTORS
330
16
102
}
330
16
100
AcDbXrecord
280
     1
  1
0.13
  1
*
  1
*
  1
*
 70
     0
  1
0.13 mm
  1
*
  0
XRECORD
  5
1B
102
{ACAD_REACTORS
330
16
102
}
330
16
100
AcDbXrecord
280
     1
  1
0.15 mm
  1
*
  1
*
  1
*
 70
     0
  1
0.15 mm
  1
*
  0
XRECORD
  5
1C
102
{ACAD_REACTORS
330
16
102
}
330
16
100
AcDbXrecord
280
     1
  1
0.20 mm
  1
*
  1
*
  1
*
 70
     0
  1
0.20 mm
  1
*
  0
XRECORD
  5
1D
102
{ACAD_REACTORS
330
16
102
}
330
16
100
AcDbXrecord
280
     1
  1
0.25 mm
  1
*
  1
*
  1
*
 70
     0
  1
0.25 mm
  1
*
  0
XRECORD
  5
1E
102
{ACAD_REACTORS
330
16
102
}
330
16
100
AcDbXrecord
280
     1
  1
00
  1
*00*
  1
*
  1
*
 70
     0
  1
*
  1
*
  0
XRECORD
  5
1F
102
{ACAD_REACTORS
330
16
102
}
330
16
100
AcDbXrecord
280
     1
  1
0000
  1
?p,?n,?z,*_points
  1
*
  1
*
 70
     0
  1
*
  1
*
  0
XRECORD
  5
20
102
{ACAD_REACTORS
330
16
102
}
330
16
100
AcDbXrecord
280
     1
  1
01
  1
*1001*
  1
*
  1
*
 70
     0
  1
*
  1
*
  0
XRECORD
  5
21
102
{ACAD_REACTORS
330
16
102
}
330
16
100
AcDbXrecord
280
     1
  1
02
  1
02*
  1
*
  1
*
 70
     0
  1
*
  1
*
  0
XRECORD
  5
22
102
{ACAD_REACTORS
330
16
102
}
330
16
100
AcDbXrecord
280
     1
  1
03
  1
*03*
  1
*
  1
*
 70
     0
  1
*
  1
*
  0
XRECORD
  5
23
102
{ACAD_REACTORS
330
16
102
}
330
16
100
AcDbXrecord
280
     1
  1
09
  1
*1009*
  1
*
  1
*
 70
     0
  1
*
  1
*
  0
XRECORD
  5
24
102
{ACAD_REACTORS
330
16
102
}
330
16
100
AcDbXrecord
280
     1
  1
1
  1
*
  1
1
  1
*
 70
     0
  1
*
  1
*
  0
XRECORD
  5
25
102
{ACAD_REACTORS
330
16
102
}
330
16
100
AcDbXrecord
280
     1
  1
1 Traçado
  1
1*
  1
*
  1
*
 70
     0
  1
*
  1
*
  0
XRECORD
  5
26
102
{ACAD_REACTORS
330
16
102
}
330
16
100
AcDbXrecord
280
     1
  1
10
  1
CB2*
  1
*
  1
*
 70
     0
  1
*
  1
*
  0
XRECORD
  5
27
102
{ACAD_REACTORS
330
16
102
}
330
16
100
AcDbXrecord
280
     1
  1
1008
  1
1008*
  1
*
  1
*
 70
     0
  1
*
  1
*
  0
XRECORD
  5
28
102
{ACAD_REACTORS
330
16
102
}
330
16
100
AcDbXrecord
280
     1
  1
1101
  1
1101*
  1
*
  1
*
 70
     0
  1
*
  1
*
  0
XRECORD
  5
29
102
{ACAD_REACTORS
330
16
102
}
330
16
100
AcDbXrecord
280
     1
  1
1105
  1
1105*
  1
*
  1
*
 70
     0
  1
*
  1
*
  0
XRECORD
  5
2A
102
{ACAD_REACTORS
330
16
102
}
330
16
100
AcDbXrecord
280
     1
  1
1108
  1
1108*
  1
*
  1
*
 70
     0
  1
*
  1
*
  0
XRECORD
  5
2B
102
{ACAD_REACTORS
330
16
102
}
330
16
100
AcDbXrecord
280
     1
  1
111
  1
*
  1
*
  1
*
 70
     0
  1
0.09
  1
*
  0
XRECORD
  5
2C
102
{ACAD_REACTORS
330
16
102
}
330
16
100
AcDbXrecord
280
     1
  1
1205
  1
1205*
  1
*
  1
*
 70
     0
  1
*
  1
*
  0
XRECORD
  5
2D
102
{ACAD_REACTORS
330
16
102
}
330
16
100
AcDbXrecord
280
     1
  1
15
  1
*15
  1
*
  1
*
 70
     0
  1
*
  1
*
  0
XRECORD
  5
2E
102
{ACAD_REACTORS
330
16
102
}
330
16
100
AcDbXrecord
280
     1
  1
1er
  1
*1er*
  1
*
  1
*
 70
     0
  1
*
  1
*
  0
XRECORD
  5
2F
102
{ACAD_REACTORS
330
16
102
}
330
16
100
AcDbXrecord
280
     1
  1
2
  1
2*
  1
*
  1
*
 70
     0
  1
*
  1
*
  0
XRECORD
  5
30
102
{ACAD_REACTORS
330
16
102
}
330
16
100
AcDbXrecord
280
     1
  1
2 Drenagem
  1
2*
  1
*
  1
*
 70
     0
  1
*
  1
*
  0
XRECORD
  5
31
102
{ACAD_REACTORS
330
16
102
}
330
16
100
AcDbXrecord
280
     1
  1
25
  1
?25
  1
*
  1
*
 70
     0
  1
*
  1
*
  0
XRECORD
  5
32
102
{ACAD_REACTORS
330
16
102
}
330
16
100
AcDbXrecord
280
     1
  1
252
  1
*
  1
252
  1
*
 70
     0
  1
*
  1
*
  0
XRECORD
  5
33
102
{ACAD_REACTORS
330
16
102
}
330
16
100
AcDbXrecord
280
     1
  1
2eme
  1
*2e*
  1
*
  1
*
 70
     0
  1
*
  1
*
  0
XRECORD
  5
34
102
{ACAD_REACTORS
330
16
102
}
330
16
100
AcDbXrecord
280
     1
  1
3
  1
3*
  1
*
  1
*
 70
     0
  1
*
  1
*
  0
XRECORD
  5
35
102
{ACAD_REACTORS
330
16
102
}
330
16
100
AcDbXrecord
280
     1
  1
3 Pavimentação
  1
3*
  1
*
  1
*
 70
     0
  1
*
  1
*
  0
XRECORD
  5
36
102
{ACAD_REACTORS
330
16
102
}
330
16
100
AcDbXrecord
280
     1
  1
30
  1
CB3*
  1
*
  1
*
 70
     0
  1
*
  1
*
  0
XRECORD
  5
37
102
{ACAD_REACTORS
330
16
102
}
330
16
100
AcDbXrecord
280
     1
  1
3d
  1
3d*
  1
*
  1
*
 70
     0
  1
*
  1
*
  0
XRECORD
  5
38
102
{ACAD_REACTORS
330
16
102
}
330
16
100
AcDbXrecord
280
     1
  1
3D-LAYER
  1
*
  1
*
  1
*
 70
     0
  1
*
  1
*
  0
XRECORD
  5
39
102
{ACAD_REACTORS
330
16
102
}
330
16
100
AcDbXrecord
280
     1
  1
3eme
  1
*3e*
  1
*
  1
*
 70
     0
  1
*
  1
*
  0
XRECORD
  5
3A
102
{ACAD_REACTORS
330
16
102
}
330
16
100
AcDbXrecord
280
     1
  1
4
  1
4*
  1
*
  1
*
 70
     0
  1
*
  1
*
  0
XRECORD
  5
3B
102
{ACAD_REACTORS
330
16
102
}
330
16
100
AcDbXrecord
280
     1
  1
40
  1
CB4*
  1
*
  1
*
 70
     0
  1
*
  1
*
  0
XRECORD
  5
3C
102
{ACAD_REACTORS
330
16
102
}
330
16
100
AcDbXrecord
280
     1
  1
4eme
  1
*4e*
  1
*
  1
*
 70
     0
  1
*
  1
*
  0
XRECORD
  5
3D
102
{ACAD_REACTORS
330
16
102
}
330
16
100
AcDbXrecord
280
     1
  1
4r
  1
4r
  1
*
  1
*
 70
     0
  1
*
  1
*
  0
XRECORD
  5
3E
102
{ACAD_REACTORS
330
16
102
}
330
16
100
AcDbXrecord
280
     1
  1
5
  1
5*
  1
*
  1
*
 70
     0
  1
*
  1
*
  0
XRECORD
  5
3F
102
{ACAD_REACTORS
330
16
102
}
330
16
100
AcDbXrecord
280
     1
  1
5 Sinalização
  1
5*
  1
*
  1
*
 70
     0
  1
*
  1
*
  0
XRECORD
  5
40
102
{ACAD_REACTORS
330
16
102
}
330
16
100
AcDbXrecord
280
     1
  1
50
  1
CB5*
  1
*
  1
*
 70
     0
  1
*
  1
*
  0
XRECORD
  5
41
102
{ACAD_REACTORS
330
16
102
}
330
16
100
AcDbXrecord
280
     1
  1
5eme
  1
*5e*
  1
*
  1
*
 70
     0
  1
*
  1
*
  0
XRECORD
  5
42
102
{ACAD_REACTORS
330
16
102
}
330
16
100
AcDbXrecord
280
     1
  1
6
  1
6*
  1
*
  1
*
 70
     0
  1
*
  1
*
  0
XRECORD
  5
43
102
{ACAD_REACTORS
330
16
102
}
330
16
100
AcDbXrecord
280
     1
  1
6 Iluminação Pública
  1
6*
  1
*
  1
*
 70
     0
  1
*
  1
*
  0
XRECORD
  5
44
102
{ACAD_REACTORS
330
16
102
}
330
16
100
AcDbXrecord
280
     1
  1
60
  1
CB6*
  1
*
  1
*
 70
     0
  1
*
  1
*
  0
XRECORD
  5
45
102
{ACAD_REACTORS
330
16
102
}
330
16
100
AcDbXrecord
280
     1
  1
6eme
  1
*6e*
  1
*
  1
*
 70
     0
  1
*
  1
*
  0
XRECORD
  5
46
102
{ACAD_REACTORS
330
16
102
}
330
16
100
AcDbXrecord
280
     1
  1
7
  1
*
  1
7
  1
*
 70
     0
  1
*
  1
*
  0
XRECORD
  5
47
102
{ACAD_REACTORS
330
16
102
}
330
16
100
AcDbXrecord
280
     1
  1
70
  1
CB7*
  1
*
  1
*
 70
     0
  1
*
  1
*
  0
XRECORD
  5
48
102
{ACAD_REACTORS
330
16
102
}
330
16
100
AcDbXrecord
280
     1
  1
7eme
  1
*7e*
  1
*
  1
*
 70
     0
  1
*
  1
*
  0
XRECORD
  5
49
102
{ACAD_REACTORS
330
16
102
}
330
16
100
AcDbXrecord
280
     1
  1
8
  1
8*
  1
*
  1
*
 70
     0
  1
*
  1
*
  0
XRECORD
  5
4A
102
{ACAD_REACTORS
330
16
102
}
330
16
100
AcDbXrecord
280
     1
  1
80
  1
CB8*
  1
*
  1
*
 70
     0
  1
*
  1
*
  0
XRECORD
  5
4B
102
{ACAD_REACTORS
330
16
102
}
330
16
100
AcDbXrecord
280
     1
  1
8eme
  1
*8e*
  1
*
  1
*
 70
     0
  1
*
  1
*
  0
XRECORD
  5
4C
102
{ACAD_REACTORS
330
16
102
}
330
16
100
AcDbXrecord
280
     1
  1
90
  1
CB9*
  1
*
  1
*
 70
     0
  1
*
  1
*
  0
XRECORD
  5
4D
102
{ACAD_REACTORS
330
16
102
}
330
16
100
AcDbXrecord
280
     1
  1
a
  1
a*
  1
*
  1
*
 70
     0
  1
*
  1
*
  0
XRECORD
  5
4E
102
{ACAD_REACTORS
330
16
102
}
330
16
100
AcDbXrecord
280
     1
  1
A00
  1
A0?*
  1
*
  1
*
 70
     0
  1
*
  1
*
  0
XRECORD
  5
4F
102
{ACAD_REACTORS
330
16
102
}
330
16
100
AcDbXrecord
280
     1
  1
A10
  1
A1?*
  1
*
  1
*
 70
     0
  1
*
  1
*
  0
XRECORD
  5
50
102
{ACAD_REACTORS
330
16
102
}
330
16
100
AcDbXrecord
280
     1
  1
A20
  1
A2?*
  1
*
  1
*
 70
     0
  1
*
  1
*
  0
XRECORD
  5
51
102
{ACAD_REACTORS
330
16
102
}
330
16
100
AcDbXrecord
280
     1
  1
A30
  1
A3?*
  1
*
  1
*
 70
     0
  1
*
  1
*
  0
XRECORD
  5
52
102
{ACAD_REACTORS
330
16
102
}
330
16
100
AcDbXrecord
280
     1
  1
A40
  1
A4?*
  1
*
  1
*
 70
     0
  1
*
  1
*
  0
XRECORD
  5
53
102
{ACAD_REACTORS
330
16
102
}
330
16
100
AcDbXrecord
280
     1
  1
A50
  1
A5?*
  1
*
  1
*
 70
     0
  1
*
  1
*
  0
XRECORD
  5
54
102
{ACAD_REACTORS
330
16
102
}
330
16
100
AcDbXrecord
280
     1
  1
A60
  1
A6?*
  1
*
  1
*
 70
     0
  1
*
  1
*
  0
XRECORD
  5
55
102
{ACAD_REACTORS
330
16
102
}
330
16
100
AcDbXrecord
280
     1
  1
A70
  1
A7?*
  1
*
  1
*
 70
     0
  1
*
  1
*
  0
XRECORD
  5
56
102
{ACAD_REACTORS
330
16
102
}
330
16
100
AcDbXrecord
280
     1
  1
A80
  1
A8?*
  1
*
  1
*
 70
     0
  1
*
  1
*
  0
XRECORD
  5
57
102
{ACAD_REACTORS
330
16
102
}
330
16
100
AcDbXrecord
280
     1
  1
A90
  1
A9?*
  1
*
  1
*
 70
     0
  1
*
  1
*
  0
XRECORD
  5
58
102
{ACAD_REACTORS
330
16
102
}
330
16
100
AcDbXrecord
280
     1
  1
A_co
  1
A_co*
  1
*
  1
*
 70
     0
  1
*
  1
*
  0
XRECORD
  5
59
102
{ACAD_REACTORS
330
16
102
}
330
16
100
AcDbXrecord
280
     1
  1
A_Families
  1
A?0_*
  1
*
  1
*
 70
     0
  1
*
  1
*
  0
XRECORD
  5
5A
102
{ACAD_REACTORS
330
16
102
}
330
16
100
AcDbXrecord
280
     1
  1
A_fp_h
  1
*A_fp_h*
  1
*
  1
*
 70
     0
  1
*
  1
*
  0
XRECORD
  5
5B
102
{ACAD_REACTORS
330
16
102
}
330
16
100
AcDbXrecord
280
     1
  1
A_fp_t
  1
*A_fp_t*
  1
*
  1
*
 70
     0
  1
*
  1
*
  0
XRECORD
  5
5C
102
{ACAD_REACTORS
330
16
102
}
330
16
100
AcDbXrecord
280
     1
  1
A_plan
  1
A_plan*
  1
*
  1
*
 70
     0
  1
*
  1
*
  0
XRECORD
  5
5D
102
{ACAD_REACTORS
330
16
102
}
330
16
100
AcDbXrecord
280
     1
  1
A_sol
  1
*a_sol*
  1
*
  1
*
 70
     0
  1
*
  1
*
  0
XRECORD
  5
5E
102
{ACAD_REACTORS
330
16
102
}
330
16
100
AcDbXrecord
280
     1
  1
A_sol_
  1
*a_sol*
  1
*
  1
*
 70
     0
  1
*
  1
*
  0
XRECORD
  5
5F
102
{ACAD_REACTORS
330
16
102
}
330
16
100
AcDbXrecord
280
     1
  1
a_soli
  1
a_soli_*
  1
*
  1
*
 70
     0
  1
*
  1
*
  0
XRECORD
  5
60
102
{ACAD_REACTORS
330
16
102
}
330
16
100
AcDbXrecord
280
     1
  1
A_Total
  1
A??_*
  1
*
  1
*
 70
     0
  1
*
  1
*
  0
XRECORD
  5
61
102
{ACAD_REACTORS
330
16
102
}
330
16
100
AcDbXrecord
280
     1
  1
aa
  1
*text*
  1
*
  1
*
 70
     0
  1
*
  1
*
  0
XRECORD
  5
62
102
{ACAD_REACTORS
330
16
102
}
330
16
100
AcDbXrecord
280
     1
  1
AAA
  1
PlanGen15Pont*
  1
*
  1
*
 70
     0
  1
*
  1
*
  0
XRECORD
  5
63
102
{ACAD_REACTORS
330
16
102
}
330
16
100
AcDbXrecord
280
     1
  1
AART
  1
pead*
  1
*
  1
*
 70
   260
  1
*
  1
*
  0
XRECORD
  5
64
102
{ACAD_REACTORS
330
16
102
}
330
16
100
AcDbXrecord
280
     1
  1
AART2
  1
pead*
  1
*
  1
*
 70
   772
  1
*
  1
*
  0
XRECORD
  5
65
102
{ACAD_REACTORS
330
16
102
}
330
16
100
AcDbXrecord
280
     1
  1
AART3
  1
pead*
  1
*
  1
*
 70
   256
  1
*
  1
*
  0
XRECORD
  5
66
102
{ACAD_REACTORS
330
16
102
}
330
16
100
AcDbXrecord
280
     1
  1
ac
  1
*ac*
  1
*
  1
*
 70
     0
  1
*
  1
*
  0
XRECORD
  5
67
102
{ACAD_REACTORS
330
16
102
}
330
16
100
AcDbXrecord
280
     1
  1
ACAB
  1
*ACAB*
  1
*
  1
*
 70
     0
  1
*
  1
*
  0
XRECORD
  5
68
102
{ACAD_REACTORS
330
16
102
}
330
16
100
AcDbXrecord
280
     1
  1
active
  1
*
  1
*
  1
*
 70
     1
  1
*
  1
*
  0
XRECORD
  5
69
102
{ACAD_REACTORS
330
16
102
}
330
16
100
AcDbXrecord
280
     1
  1
activo
  1
*
  1
*
  1
*
 70
    48
  1
*
  1
*
  0
XRECORD
  5
6A
102
{ACAD_REACTORS
330
16
102
}
330
16
100
AcDbXrecord
280
     1
  1
activos
  1
*
  1
*
  1
*
 70
    48
  1
*
  1
*
  0
XRECORD
  5
6B
102
{ACAD_REACTORS
330
16
102
}
330
16
100
AcDbXrecord
280
     1
  1
activé
  1
*
  1
*
  1
*
 70
     1
  1
*
  1
*
  0
XRECORD
  5
6C
102
{ACAD_REACTORS
330
16
102
}
330
16
100
AcDbXrecord
280
     1
  1
ae
  1
a*e*
  1
*
  1
*
 70
     0
  1
*
  1
*
  0
XRECORD
  5
6D
102
{ACAD_REACTORS
330
16
102
}
330
16
100
AcDbXrecord
280
     1
  1
alle _
  1
_*,H__*
  1
*
  1
*
 70
     0
  1
*
  1
*
  0
XRECORD
  5
6E
102
{ACAD_REACTORS
330
16
102
}
330
16
100
AcDbXrecord
280
     1
  1
Alpha
  1
*
  1
*
  1
*
 70
     0
  1
*
  1
*
  0
XRECORD
  5
6F
102
{ACAD_REACTORS
330
16
102
}
330
16
100
AcDbXrecord
280
     1
  1
alçado 1
  1
1201*,00*
  1
*
  1
*
 70
     0
  1
*
  1
*
  0
XRECORD
  5
70
102
{ACAD_REACTORS
330
16
102
}
330
16
100
AcDbXrecord
280
     1
  1
alçados
  1
12*,00*,*|12*,*|00*
  1
*
  1
*
 70
     0
  1
*
  1
*
  0
XRECORD
  5
71
102
{ACAD_REACTORS
330
16
102
}
330
16
100
AcDbXrecord
280
     1
  1
anneau
  1
*ext_ann*
  1
*
  1
*
 70
     0
  1
*
  1
*
  0
XRECORD
  5
72
102
{ACAD_REACTORS
330
16
102
}
330
16
100
AcDbXrecord
280
     1
  1
Aplats
  1
A_*
  1
*
  1
*
 70
     0
  1
*
  1
*
  0
XRECORD
  5
73
102
{ACAD_REACTORS
330
16
102
}
330
16
100
AcDbXrecord
280
     1
  1
arch
  1
arch*
  1
*
  1
*
 70
     0
  1
*
  1
*
  0
XRECORD
  5
74
102
{ACAD_REACTORS
330
16
102
}
330
16
100
AcDbXrecord
280
     1
  1
archi
  1
a*
  1
*
  1
*
 70
     0
  1
*
  1
*
  0
XRECORD
  5
75
102
{ACAD_REACTORS
330
16
102
}
330
16
100
AcDbXrecord
280
     1
  1
archi-geler
  1
ar*
  1
*
  1
*
 70
     3
  1
*
  1
*
  0
XRECORD
  5
76
102
{ACAD_REACTORS
330
16
102
}
330
16
100
AcDbXrecord
280
     1
  1
are
  1
*are*
  1
*
  1
*
 70
     0
  1
*
  1
*
  0
XRECORD
  5
77
102
{ACAD_REACTORS
330
16
102
}
330
16
100
AcDbXrecord
280
     1
  1
AREAS
  1
*AREAS
  1
*
  1
*
 70
     0
  1
*
  1
*
  0
XRECORD
  5
78
102
{ACAD_REACTORS
330
16
102
}
330
16
100
AcDbXrecord
280
     1
  1
ARM-INF-CORPO-A
  1
*ZA*
  1
*
  1
*
 70
     0
  1
*
  1
*
  0
XRECORD
  5
79
102
{ACAD_REACTORS
330
16
102
}
330
16
100
AcDbXrecord
280
     1
  1
ARM-INF-CORPO-C
  1
*ZC*
  1
*
  1
*
 70
     0
  1
*
  1
*
  0
XRECORD
  5
7A
102
{ACAD_REACTORS
330
16
102
}
330
16
100
AcDbXrecord
280
     1
  1
ARM-INF-CORPO-E
  1
*ZE*
  1
*
  1
*
 70
     0
  1
*
  1
*
  0
XRECORD
  5
7B
102
{ACAD_REACTORS
330
16
102
}
330
16
100
AcDbXrecord
280
     1
  1
ARM-INF-CORPO-F
  1
*ZF*
  1
*
  1
*
 70
     0
  1
*
  1
*
  0
XRECORD
  5
7C
102
{ACAD_REACTORS
330
16
102
}
330
16
100
AcDbXrecord
280
     1
  1
ARM-INF-CORPO-G
  1
*ZG*
  1
*
  1
*
 70
     0
  1
*
  1
*
  0
XRECORD
  5
7D
102
{ACAD_REACTORS
330
16
102
}
330
16
100
AcDbXrecord
280
     1
  1
ARM-INF-CORPO-I
  1
*ZI*
  1
*
  1
*
 70
     0
  1
*
  1
*
  0
XRECORD
  5
7E
102
{ACAD_REACTORS
330
16
102
}
330
16
100
AcDbXrecord
280
     1
  1
ARM-SUP-CORPO-E
  1
*ZE*
  1
*
  1
*
 70
     0
  1
*
  1
*
  0
XRECORD
  5
7F
102
{ACAD_REACTORS
330
16
102
}
330
16
100
AcDbXrecord
280
     1
  1
ARM-SUP-CORPO-F
  1
*zf*
  1
*
  1
*
 70
     0
  1
*
  1
*
  0
XRECORD
  5
80
102
{ACAD_REACTORS
330
16
102
}
330
16
100
AcDbXrecord
280
     1
  1
ARM-SUP-CORPO-I
  1
*ZI*,0
  1
*
  1
*
 70
     0
  1
*
  1
*
  0
XRECORD
  5
81
102
{ACAD_REACTORS
330
16
102
}
330
16
100
AcDbXrecord
280
     1
  1
ARQ
  1
*ARQ*
  1
*
  1
*
 70
     0
  1
*
  1
*
  0
XRECORD
  5
82
102
{ACAD_REACTORS
330
16
102
}
330
16
100
AcDbXrecord
280
     1
  1
ARQ P0
  1
*P0*
  1
*
  1
*
 70
     0
  1
*
  1
*
  0
XRECORD
  5
83
102
{ACAD_REACTORS
330
16
102
}
330
16
100
AcDbXrecord
280
     1
  1
ARQ P1
  1
*P1*
  1
*
  1
*
 70
     0
  1
*
  1
*
  0
XRECORD
  5
84
102
{ACAD_REACTORS
330
16
102
}
330
16
100
AcDbXrecord
280
     1
  1
AS
  1
*
  1
*
  1
*
 70
     1
  1
*
  1
*
  0
XRECORD
  5
85
102
{ACAD_REACTORS
330
16
102
}
330
16
100
AcDbXrecord
280
     1
  1
aux
  1
*aux*
  1
*
  1
*
 70
     0
  1
*
  1
*
  0
XRECORD
  5
86
102
{ACAD_REACTORS
330
16
102
}
330
16
100
AcDbXrecord
280
     1
  1
bat
  1
*bat_cont*
  1
*
  1
*
 70
     0
  1
*
  1
*
  0
XRECORD
  5
87
102
{ACAD_REACTORS
330
16
102
}
330
16
100
AcDbXrecord
280
     1
  1
batcont
  1
*bat_cont*
  1
*
  1
*
 70
     0
  1
*
  1
*
  0
XRECORD
  5
88
102
{ACAD_REACTORS
330
16
102
}
330
16
100
AcDbXrecord
280
     1
  1
batiment
  1
4*
  1
*
  1
*
 70
     0
  1
*
  1
*
  0
XRECORD
  5
89
102
{ACAD_REACTORS
330
16
102
}
330
16
100
AcDbXrecord
280
     1
  1
BAUS
  1
*BAU*
  1
*
  1
*
 70
     0
  1
*
  1
*
  0
XRECORD
  5
8A
102
{ACAD_REACTORS
330
16
102
}
330
16
100
AcDbXrecord
280
     1
  1
bet
  1
*bet*
  1
*
  1
*
 70
     0
  1
*
  1
*
  0
XRECORD
  5
8B
102
{ACAD_REACTORS
330
16
102
}
330
16
100
AcDbXrecord
280
     1
  1
BETOM
  1
P1*
  1
*
  1
*
 70
     0
  1
*
  1
*
  0
XRECORD
  5
8C
102
{ACAD_REACTORS
330
16
102
}
330
16
100
AcDbXrecord
280
     1
  1
BETS
  1
*BET*
  1
*
  1
*
 70
     0
  1
*
  1
*
  0
XRECORD
  5
8D
102
{ACAD_REACTORS
330
16
102
}
330
16
100
AcDbXrecord
280
     1
  1
blanc
  1
*
  1
white
  1
*
 70
     0
  1
*
  1
*
  0
XRECORD
  5
8E
102
{ACAD_REACTORS
330
16
102
}
330
16
100
AcDbXrecord
280
     1
  1
blocs
  1
*bl*
  1
*
  1
*
 70
     0
  1
*
  1
*
  0
XRECORD
  5
8F
102
{ACAD_REACTORS
330
16
102
}
330
16
100
AcDbXrecord
280
     1
  1
bur1
  1
*bur1
  1
*
  1
*
 70
     0
  1
*
  1
*
  0
XRECORD
  5
90
102
{ACAD_REACTORS
330
16
102
}
330
16
100
AcDbXrecord
280
     1
  1
bur2
  1
*bur2
  1
*
  1
*
 70
     0
  1
*
  1
*
  0
XRECORD
  5
91
102
{ACAD_REACTORS
330
16
102
}
330
16
100
AcDbXrecord
280
     1
  1
by layer
  1
05 HATCH
  1
*
  1
*
 70
     0
  1
*
  1
*
  0
XRECORD
  5
92
102
{ACAD_REACTORS
330
16
102
}
330
16
100
AcDbXrecord
280
     1
  1
c
  1
c*
  1
*
  1
*
 70
     0
  1
*
  1
*
  0
XRECORD
  5
93
102
{ACAD_REACTORS
330
16
102
}
330
16
100
AcDbXrecord
280
     1
  1
cae
  1
*cae
  1
*
  1
*
 70
     0
  1
*
  1
*
  0
XRECORD
  5
94
102
{ACAD_REACTORS
330
16
102
}
330
16
100
AcDbXrecord
280
     1
  1
CALPINAGE
  1
*CALP*
  1
*
  1
*
 70
     0
  1
*
  1
*
  0
XRECORD
  5
95
102
{ACAD_REACTORS
330
16
102
}
330
16
100
AcDbXrecord
280
     1
  1
calques vides
  1
--jcVide*
  1
*
  1
*
 70
     0
  1
*
  1
*
  0
XRECORD
  5
96
102
{ACAD_REACTORS
330
16
102
}
330
16
100
AcDbXrecord
280
     1
  1
capa reutilizada
  1
*
  1
*
  1
*
 70
    12
  1
*
  1
*
  0
XRECORD
  5
97
102
{ACAD_REACTORS
330
16
102
}
330
16
100
AcDbXrecord
280
     1
  1
capas activadas
  1
*
  1
*
  1
*
 70
     1
  1
*
  1
*
  0
XRECORD
  5
98
102
{ACAD_REACTORS
330
16
102
}
330
16
100
AcDbXrecord
280
     1
  1
capas desactivadas
  1
*
  1
*
  1
*
 70
     3
  1
*
  1
*
  0
XRECORD
  5
99
102
{ACAD_REACTORS
330
16
102
}
330
16
100
AcDbXrecord
280
     1
  1
CAR
  1
*CAR*
  1
*
  1
*
 70
     0
  1
*
  1
*
  0
XRECORD
  5
9A
102
{ACAD_REACTORS
330
16
102
}
330
16
100
AcDbXrecord
280
     1
  1
cart
  1
tacart*
  1
*
  1
*
 70
     0
  1
*
  1
*
  0
XRECORD
  5
9B
102
{ACAD_REACTORS
330
16
102
}
330
16
100
AcDbXrecord
280
     1
  1
Cartografia existente
  1
_*
  1
*
  1
*
 70
     0
  1
*
  1
*
  0
XRECORD
  5
9C
102
{ACAD_REACTORS
330
16
102
}
330
16
100
AcDbXrecord
280
     1
  1
CB
  1
CB*
  1
*
  1
*
 70
     0
  1
*
  1
*
  0
XRECORD
  5
9D
102
{ACAD_REACTORS
330
16
102
}
330
16
100
AcDbXrecord
280
     1
  1
CB00
  1
CB0*
  1
*
  1
*
 70
     0
  1
*
  1
*
  0
XRECORD
  5
9E
102
{ACAD_REACTORS
330
16
102
}
330
16
100
AcDbXrecord
280
     1
  1
CB10
  1
CB2*
  1
*
  1
*
 70
     0
  1
*
  1
*
  0
XRECORD
  5
9F
102
{ACAD_REACTORS
330
16
102
}
330
16
100
AcDbXrecord
280
     1
  1
CB20
  1
CB2*
  1
*
  1
*
 70
     0
  1
*
  1
*
  0
XRECORD
  5
A0
102
{ACAD_REACTORS
330
16
102
}
330
16
100
AcDbXrecord
280
     1
  1
CB30
  1
CB3*
  1
*
  1
*
 70
     0
  1
*
  1
*
  0
XRECORD
  5
A1
102
{ACAD_REACTORS
330
16
102
}
330
16
100
AcDbXrecord
280
     1
  1
CB40
  1
CB4*
  1
*
  1
*
 70
     0
  1
*
  1
*
  0
XRECORD
  5
A2
102
{ACAD_REACTORS
330
16
102
}
330
16
100
AcDbXrecord
280
     1
  1
CB50
  1
CB5*
  1
*
  1
*
 70
     0
  1
*
  1
*
  0
XRECORD
  5
A3
102
{ACAD_REACTORS
330
16
102
}
330
16
100
AcDbXrecord
280
     1
  1
CB60
  1
CB6*
  1
*
  1
*
 70
     0
  1
*
  1
*
  0
XRECORD
  5
A4
102
{ACAD_REACTORS
330
16
102
}
330
16
100
AcDbXrecord
280
     1
  1
CB70
  1
CB7*
  1
*
  1
*
 70
     0
  1
*
  1
*
  0
XRECORD
  5
A5
102
{ACAD_REACTORS
330
16
102
}
330
16
100
AcDbXrecord
280
     1
  1
CB80
  1
CB8*
  1
*
  1
*
 70
     0
  1
*
  1
*
  0
XRECORD
  5
A6
102
{ACAD_REACTORS
330
16
102
}
330
16
100
AcDbXrecord
280
     1
  1
CB90
  1
CB9*
  1
*
  1
*
 70
     0
  1
*
  1
*
  0
XRECORD
  5
A7
102
{ACAD_REACTORS
330
16
102
}
330
16
100
AcDbXrecord
280
     1
  1
CB_Families
  1
CB?0*
  1
*
  1
*
 70
     0
  1
*
  1
*
  0
XRECORD
  5
A8
102
{ACAD_REACTORS
330
16
102
}
330
16
100
AcDbXrecord
280
     1
  1
CB_general
  1
CB*
  1
*
  1
*
 70
     0
  1
*
  1
*
  0
XRECORD
  5
A9
102
{ACAD_REACTORS
330
16
102
}
330
16
100
AcDbXrecord
280
     1
  1
CCG
  1
*ZG-*
  1
*
  1
*
 70
     0
  1
*
  1
*
  0
XRECORD
  5
AA
102
{ACAD_REACTORS
330
16
102
}
330
16
100
AcDbXrecord
280
     1
  1
cf
  1
cf*
  1
*
  1
*
 70
     0
  1
*
  1
*
  0
XRECORD
  5
AB
102
{ACAD_REACTORS
330
16
102
}
330
16
100
AcDbXrecord
280
     1
  1
CFA
  1
CF*
  1
*
  1
*
 70
     0
  1
*
  1
*
  0
XRECORD
  5
AC
102
{ACAD_REACTORS
330
16
102
}
330
16
100
AcDbXrecord
280
     1
  1
cfaibles
  1
cf*
  1
*
  1
*
 70
     0
  1
*
  1
*
  0
XRECORD
  5
AD
102
{ACAD_REACTORS
330
16
102
}
330
16
100
AcDbXrecord
280
     1
  1
ch
  1
*chh
  1
*
  1
*
 70
     0
  1
*
  1
*
  0
XRECORD
  5
AE
102
{ACAD_REACTORS
330
16
102
}
330
16
100
AcDbXrecord
280
     1
  1
chm
  1
chm*
  1
*
  1
*
 70
     0
  1
*
  1
*
  0
XRECORD
  5
AF
102
{ACAD_REACTORS
330
16
102
}
330
16
100
AcDbXrecord
280
     1
  1
CIR
  1
*CIR
  1
*
  1
*
 70
     0
  1
*
  1
*
  0
XRECORD
  5
B0
102
{ACAD_REACTORS
330
16
102
}
330
16
100
AcDbXrecord
280
     1
  1
CIRC
  1
*CIR*
  1
*
  1
*
 70
     0
  1
*
  1
*
  0
XRECORD
  5
B1
102
{ACAD_REACTORS
330
16
102
}
330
16
100
AcDbXrecord
280
     1
  1
clim
  1
T_CL*
  1
*
  1
*
 70
     0
  1
*
  1
*
  0
XRECORD
  5
B2
102
{ACAD_REACTORS
330
16
102
}
330
16
100
AcDbXrecord
280
     1
  1
CLIM extraction
  1
*T_cle*
  1
*
  1
*
 70
     0
  1
*
  1
*
  0
XRECORD
  5
B3
102
{ACAD_REACTORS
330
16
102
}
330
16
100
AcDbXrecord
280
     1
  1
CLIM soufflage
  1
*T_cls*
  1
*
  1
*
 70
     0
  1
*
  1
*
  0
XRECORD
  5
B4
102
{ACAD_REACTORS
330
16
102
}
330
16
100
AcDbXrecord
280
     1
  1
CLIMATISATION
  1
*T_cl*
  1
*
  1
*
 70
     0
  1
*
  1
*
  0
XRECORD
  5
B5
102
{ACAD_REACTORS
330
16
102
}
330
16
100
AcDbXrecord
280
     1
  1
cloison
  1
*clois*
  1
*
  1
*
 70
     0
  1
*
  1
*
  0
XRECORD
  5
B6
102
{ACAD_REACTORS
330
16
102
}
330
16
100
AcDbXrecord
280
     1
  1
CO2_H
  1
co2_h*
  1
*
  1
*
 70
     0
  1
*
  1
*
  0
XRECORD
  5
B7
102
{ACAD_REACTORS
330
16
102
}
330
16
100
AcDbXrecord
280
     1
  1
CO_A1
  1
coa1*
  1
*
  1
*
 70
     0
  1
*
  1
*
  0
XRECORD
  5
B8
102
{ACAD_REACTORS
330
16
102
}
330
16
100
AcDbXrecord
280
     1
  1
CO_A2
  1
co_a2*
  1
*
  1
*
 70
     0
  1
*
  1
*
  0
XRECORD
  5
B9
102
{ACAD_REACTORS
330
16
102
}
330
16
100
AcDbXrecord
280
     1
  1
CO_B1
  1
co_b1*
  1
*
  1
*
 70
     0
  1
*
  1
*
  0
XRECORD
  5
BA
102
{ACAD_REACTORS
330
16
102
}
330
16
100
AcDbXrecord
280
     1
  1
CO_B2
  1
co_b2*
  1
*
  1
*
 70
     0
  1
*
  1
*
  0
XRECORD
  5
BB
102
{ACAD_REACTORS
330
16
102
}
330
16
100
AcDbXrecord
280
     1
  1
CO_C1
  1
co_c1*
  1
*
  1
*
 70
     0
  1
*
  1
*
  0
XRECORD
  5
BC
102
{ACAD_REACTORS
330
16
102
}
330
16
100
AcDbXrecord
280
     1
  1
CO_C2
  1
co_c2*
  1
*
  1
*
 70
     0
  1
*
  1
*
  0
XRECORD
  5
BD
102
{ACAD_REACTORS
330
16
102
}
330
16
100
AcDbXrecord
280
     1
  1
co_f1
  1
co_fac1*
  1
*
  1
*
 70
     0
  1
*
  1
*
  0
XRECORD
  5
BE
102
{ACAD_REACTORS
330
16
102
}
330
16
100
AcDbXrecord
280
     1
  1
CO_H
  1
co_h*
  1
*
  1
*
 70
     0
  1
*
  1
*
  0
XRECORD
  5
BF
102
{ACAD_REACTORS
330
16
102
}
330
16
100
AcDbXrecord
280
     1
  1
COA1
  1
coa1*
  1
*
  1
*
 70
     0
  1
*
  1
*
  0
XRECORD
  5
C0
102
{ACAD_REACTORS
330
16
102
}
330
16
100
AcDbXrecord
280
     1
  1
coa2
  1
co_a2*
  1
*
  1
*
 70
     0
  1
*
  1
*
  0
XRECORD
  5
C1
102
{ACAD_REACTORS
330
16
102
}
330
16
100
AcDbXrecord
280
     1
  1
COA4
  1
co_a4*
  1
*
  1
*
 70
     0
  1
*
  1
*
  0
XRECORD
  5
C2
102
{ACAD_REACTORS
330
16
102
}
330
16
100
AcDbXrecord
280
     1
  1
COCOS
  1
*COCOS
  1
*
  1
*
 70
     0
  1
*
  1
*
  0
XRECORD
  5
C3
102
{ACAD_REACTORS
330
16
102
}
330
16
100
AcDbXrecord
280
     1
  1
COD
  1
*COD*
  1
*
  1
*
 70
     0
  1
*
  1
*
  0
XRECORD
  5
C4
102
{ACAD_REACTORS
330
16
102
}
330
16
100
AcDbXrecord
280
     1
  1
color21
  1
*
  1
21
  1
*
 70
     0
  1
*
  1
*
  0
XRECORD
  5
C5
102
{ACAD_REACTORS
330
16
102
}
330
16
100
AcDbXrecord
280
     1
  1
comp
  1
*comp*
  1
*
  1
*
 70
     0
  1
*
  1
*
  0
XRECORD
  5
C6
102
{ACAD_REACTORS
330
16
102
}
330
16
100
AcDbXrecord
280
     1
  1
CONSTRUCTION
  1
CONST*
  1
*
  1
*
 70
     0
  1
*
  1
*
  0
XRECORD
  5
C7
102
{ACAD_REACTORS
330
16
102
}
330
16
100
AcDbXrecord
280
     1
  1
cor 1
  1
*
  1
*
  1
*
 70
     0
  1
0.09 mm
  1
*
  0
XRECORD
  5
C8
102
{ACAD_REACTORS
330
16
102
}
330
16
100
AcDbXrecord
280
     1
  1
cor 9
  1
*
  1
9
  1
*
 70
     0
  1
*
  1
*
  0
XRECORD
  5
C9
102
{ACAD_REACTORS
330
16
102
}
330
16
100
AcDbXrecord
280
     1
  1
cor9
  1
*
  1
8,9
  1
*
 70
     0
  1
*
  1
*
  0
XRECORD
  5
CA
102
{ACAD_REACTORS
330
16
102
}
330
16
100
AcDbXrecord
280
     1
  1
CORPO E
  1
ZE*
  1
*
  1
*
 70
     0
  1
*
  1
*
  0
XRECORD
  5
CB
102
{ACAD_REACTORS
330
16
102
}
330
16
100
AcDbXrecord
280
     1
  1
cot
  1
*cot*
  1
*
  1
*
 70
     0
  1
*
  1
*
  0
XRECORD
  5
CC
102
{ACAD_REACTORS
330
16
102
}
330
16
100
AcDbXrecord
280
     1
  1
cotas
  1
*cot*
  1
*
  1
*
 70
     0
  1
*
  1
*
  0
XRECORD
  5
CD
102
{ACAD_REACTORS
330
16
102
}
330
16
100
AcDbXrecord
280
     1
  1
cotation
  1
5*
  1
*
  1
*
 70
     0
  1
*
  1
*
  0
XRECORD
  5
CE
102
{ACAD_REACTORS
330
16
102
}
330
16
100
AcDbXrecord
280
     1
  1
cotes
  1
*cot*
  1
*
  1
*
 70
     0
  1
*
  1
*
  0
XRECORD
  5
CF
102
{ACAD_REACTORS
330
16
102
}
330
16
100
AcDbXrecord
280
     1
  1
coul
  1
*coul
  1
*
  1
*
 70
     0
  1
*
  1
*
  0
XRECORD
  5
D0
102
{ACAD_REACTORS
330
16
102
}
330
16
100
AcDbXrecord
280
     1
  1
couleur
  1
coul*
  1
*
  1
*
 70
     0
  1
*
  1
*
  0
XRECORD
  5
D1
102
{ACAD_REACTORS
330
16
102
}
330
16
100
AcDbXrecord
280
     1
  1
cour
  1
cour_*
  1
*
  1
*
 70
     0
  1
*
  1
*
  0
XRECORD
  5
D2
102
{ACAD_REACTORS
330
16
102
}
330
16
100
AcDbXrecord
280
     1
  1
cpa inutilizada
  1
*
  1
*
  1
*
 70
     4
  1
*
  1
*
  0
XRECORD
  5
D3
102
{ACAD_REACTORS
330
16
102
}
330
16
100
AcDbXrecord
280
     1
  1
crt
  1
*crt*
  1
*
  1
*
 70
     0
  1
*
  1
*
  0
XRECORD
  5
D4
102
{ACAD_REACTORS
330
16
102
}
330
16
100
AcDbXrecord
280
     1
  1
CTA
  1
*CTA*
  1
*
  1
*
 70
     0
  1
*
  1
*
  0
XRECORD
  5
D5
102
{ACAD_REACTORS
330
16
102
}
330
16
100
AcDbXrecord
280
     1
  1
cuisine
  1
cu*
  1
*
  1
*
 70
     0
  1
*
  1
*
  0
XRECORD
  5
D6
102
{ACAD_REACTORS
330
16
102
}
330
16
100
AcDbXrecord
280
     1
  1
CV
  1
chv*,CV*
  1
*
  1
*
 70
     0
  1
*
  1
*
  0
XRECORD
  5
D7
102
{ACAD_REACTORS
330
16
102
}
330
16
100
AcDbXrecord
280
     1
  1
CV-Variante
  1
chvariante*
  1
*
  1
*
 70
     0
  1
*
  1
*
  0
XRECORD
  5
D8
102
{ACAD_REACTORS
330
16
102
}
330
16
100
AcDbXrecord
280
     1
  1
cvc
  1
cvc*
  1
*
  1
*
 70
     0
  1
*
  1
*
  0
XRECORD
  5
D9
102
{ACAD_REACTORS
330
16
102
}
330
16
100
AcDbXrecord
280
     1
  1
cyan
  1
*
  1
cyan
  1
*
 70
     0
  1
*
  1
*
  0
XRECORD
  5
DA
102
{ACAD_REACTORS
330
16
102
}
330
16
100
AcDbXrecord
280
     1
  1
DD
  1
*
  1
9
  1
*
 70
     0
  1
*
  1
*
  0
XRECORD
  5
DB
102
{ACAD_REACTORS
330
16
102
}
330
16
100
AcDbXrecord
280
     1
  1
Defpoints
  1
*defpoints*
  1
*
  1
*
 70
     0
  1
*
  1
*
  0
XRECORD
  5
DC
102
{ACAD_REACTORS
330
16
102
}
330
16
100
AcDbXrecord
280
     1
  1
DEMOLITION
  1
DEM*
  1
*
  1
*
 70
     0
  1
*
  1
*
  0
XRECORD
  5
DD
102
{ACAD_REACTORS
330
16
102
}
330
16
100
AcDbXrecord
280
     1
  1
des
  1
procvr??rb|ocd*
  1
*
  1
*
 70
     0
  1
*
  1
*
  0
XRECORD
  5
DE
102
{ACAD_REACTORS
330
16
102
}
330
16
100
AcDbXrecord
280
     1
  1
desact
  1
*
  1
*
  1
*
 70
     3
  1
*
  1
*
  0
XRECORD
  5
DF
102
{ACAD_REACTORS
330
16
102
}
330
16
100
AcDbXrecord
280
     1
  1
descat
  1
*
  1
*
  1
*
 70
     3
  1
*
  1
*
  0
XRECORD
  5
E0
102
{ACAD_REACTORS
330
16
102
}
330
16
100
AcDbXrecord
280
     1
  1
desenfumage
  1
des*
  1
*
  1
*
 70
     0
  1
*
  1
*
  0
XRECORD
  5
E1
102
{ACAD_REACTORS
330
16
102
}
330
16
100
AcDbXrecord
280
     1
  1
Deutsch
  1
*deutsch*
  1
*
  1
*
 70
     0
  1
*
  1
*
  0
XRECORD
  5
E2
102
{ACAD_REACTORS
330
16
102
}
330
16
100
AcDbXrecord
280
     1
  1
DoOr
  1
*door*
  1
*
  1
*
 70
     0
  1
*
  1
*
  0
XRECORD
  5
E3
102
{ACAD_REACTORS
330
16
102
}
330
16
100
AcDbXrecord
280
     1
  1
Désactiver-geler
  1
*
  1
*
  1
*
 70
     7
  1
*
  1
*
  0
XRECORD
  5
E4
102
{ACAD_REACTORS
330
16
102
}
330
16
100
AcDbXrecord
280
     1
  1
désactivé
  1
*
  1
*
  1
*
 70
     3
  1
*
  1
*
  0
XRECORD
  5
E5
102
{ACAD_REACTORS
330
16
102
}
330
16
100
AcDbXrecord
280
     1
  1
e
  1
e*
  1
*
  1
*
 70
     0
  1
*
  1
*
  0
XRECORD
  5
E6
102
{ACAD_REACTORS
330
16
102
}
330
16
100
AcDbXrecord
280
     1
  1
ECLAIRAGE
  1
*ECL*
  1
*
  1
*
 70
     0
  1
*
  1
*
  0
XRECORD
  5
E7
102
{ACAD_REACTORS
330
16
102
}
330
16
100
AcDbXrecord
280
     1
  1
efi
  1
*efi*
  1
*
  1
*
 70
     0
  1
*
  1
*
  0
XRECORD
  5
E8
102
{ACAD_REACTORS
330
16
102
}
330
16
100
AcDbXrecord
280
     1
  1
EIXOS
  1
*EIXOS
  1
*
  1
*
 70
     0
  1
*
  1
*
  0
XRECORD
  5
E9
102
{ACAD_REACTORS
330
16
102
}
330
16
100
AcDbXrecord
280
     1
  1
El
  1
El*
  1
*
  1
*
 70
     0
  1
*
  1
*
  0
XRECORD
  5
EA
102
{ACAD_REACTORS
330
16
102
}
330
16
100
AcDbXrecord
280
     1
  1
elev
  1
*ele*
  1
*
  1
*
 70
     0
  1
*
  1
*
  0
XRECORD
  5
EB
102
{ACAD_REACTORS
330
16
102
}
330
16
100
AcDbXrecord
280
     1
  1
elh
  1
elh?18,elh?25,elh?15
  1
*
  1
*
 70
     0
  1
*
  1
*
  0
XRECORD
  5
EC
102
{ACAD_REACTORS
330
16
102
}
330
16
100
AcDbXrecord
280
     1
  1
elh1
  1
elh1*
  1
*
  1
*
 70
     0
  1
*
  1
*
  0
XRECORD
  5
ED
102
{ACAD_REACTORS
330
16
102
}
330
16
100
AcDbXrecord
280
     1
  1
elh2
  1
elh2*
  1
*
  1
*
 70
     0
  1
*
  1
*
  0
XRECORD
  5
EE
102
{ACAD_REACTORS
330
16
102
}
330
16
100
AcDbXrecord
280
     1
  1
elh3
  1
elh3*
  1
*
  1
*
 70
     0
  1
*
  1
*
  0
XRECORD
  5
EF
102
{ACAD_REACTORS
330
16
102
}
330
16
100
AcDbXrecord
280
     1
  1
elh4
  1
elh4*
  1
*
  1
*
 70
     0
  1
*
  1
*
  0
XRECORD
  5
F0
102
{ACAD_REACTORS
330
16
102
}
330
16
100
AcDbXrecord
280
     1
  1
elh5
  1
elh5*
  1
*
  1
*
 70
     0
  1
*
  1
*
  0
XRECORD
  5
F1
102
{ACAD_REACTORS
330
16
102
}
330
16
100
AcDbXrecord
280
     1
  1
elh6
  1
elh6*
  1
*
  1
*
 70
     0
  1
*
  1
*
  0
XRECORD
  5
F2
102
{ACAD_REACTORS
330
16
102
}
330
16
100
AcDbXrecord
280
     1
  1
elh7
  1
elh7*
  1
*
  1
*
 70
     0
  1
*
  1
*
  0
XRECORD
  5
F3
102
{ACAD_REACTORS
330
16
102
}
330
16
100
AcDbXrecord
280
     1
  1
elh8
  1
elh8*
  1
*
  1
*
 70
     0
  1
*
  1
*
  0
XRECORD
  5
F4
102
{ACAD_REACTORS
330
16
102
}
330
16
100
AcDbXrecord
280
     1
  1
elh9
  1
EL_H9*
  1
*
  1
*
 70
     0
  1
*
  1
*
  0
XRECORD
  5
F5
102
{ACAD_REACTORS
330
16
102
}
330
16
100
AcDbXrecord
280
     1
  1
Englisch
  1
*englisch*
  1
*
  1
*
 70
     0
  1
*
  1
*
  0
XRECORD
  5
F6
102
{ACAD_REACTORS
330
16
102
}
330
16
100
AcDbXrecord
280
     1
  1
ep_remp
  1
*remp_ep*
  1
*
  1
*
 70
     0
  1
*
  1
*
  0
XRECORD
  5
F7
102
{ACAD_REACTORS
330
16
102
}
330
16
100
AcDbXrecord
280
     1
  1
ep_trait
  1
*epaisseur
  1
*
  1
*
 70
     0
  1
*
  1
*
  0
XRECORD
  5
F8
102
{ACAD_REACTORS
330
16
102
}
330
16
100
AcDbXrecord
280
     1
  1
ESGOTOS
  1
ESG*
  1
*
  1
*
 70
     0
  1
*
  1
*
  0
XRECORD
  5
F9
102
{ACAD_REACTORS
330
16
102
}
330
16
100
AcDbXrecord
280
     1
  1
est
  1
*est
  1
*
  1
*
 70
     0
  1
*
  1
*
  0
XRECORD
  5
FA
102
{ACAD_REACTORS
330
16
102
}
330
16
100
AcDbXrecord
280
     1
  1
etage
  1
*coes*
  1
*
  1
*
 70
     0
  1
*
  1
*
  0
XRECORD
  5
FB
102
{ACAD_REACTORS
330
16
102
}
330
16
100
AcDbXrecord
280
     1
  1
ETAN
  1
*ETAN*
  1
*
  1
*
 70
     0
  1
*
  1
*
  0
XRECORD
  5
FC
102
{ACAD_REACTORS
330
16
102
}
330
16
100
AcDbXrecord
280
     1
  1
execpilj
  1
*ZJ*
  1
*
  1
*
 70
     0
  1
*
  1
*
  0
XRECORD
  5
FD
102
{ACAD_REACTORS
330
16
102
}
330
16
100
AcDbXrecord
280
     1
  1
Existant
  1
*_EX
  1
*
  1
*
 70
     0
  1
*
  1
*
  0
XRECORD
  5
FE
102
{ACAD_REACTORS
330
16
102
}
330
16
100
AcDbXrecord
280
     1
  1
extr
  1
T_cle*
  1
*
  1
*
 70
     0
  1
*
  1
*
  0
XRECORD
  5
FF
102
{ACAD_REACTORS
330
16
102
}
330
16
100
AcDbXrecord
280
     1
  1
extr01
  1
T_cle1*
  1
*
  1
*
 70
     0
  1
*
  1
*
  0
XRECORD
  5
100
102
{ACAD_REACTORS
330
16
102
}
330
16
100
AcDbXrecord
280
     1
  1
extr02
  1
T_cle2*
  1
*
  1
*
 70
     0
  1
*
  1
*
  0
XRECORD
  5
101
102
{ACAD_REACTORS
330
16
102
}
330
16
100
AcDbXrecord
280
     1
  1
extr03
  1
T_cle3*
  1
*
  1
*
 70
     0
  1
*
  1
*
  0
XRECORD
  5
102
102
{ACAD_REACTORS
330
16
102
}
330
16
100
AcDbXrecord
280
     1
  1
extr04
  1
T_cle4*
  1
*
  1
*
 70
     0
  1
*
  1
*
  0
XRECORD
  5
103
102
{ACAD_REACTORS
330
16
102
}
330
16
100
AcDbXrecord
280
     1
  1
extr05
  1
*T_cle5*
  1
*
  1
*
 70
     0
  1
*
  1
*
  0
XRECORD
  5
104
102
{ACAD_REACTORS
330
16
102
}
330
16
100
AcDbXrecord
280
     1
  1
extrDIV
  1
T_cleDIV*
  1
*
  1
*
 70
     0
  1
*
  1
*
  0
XRECORD
  5
105
102
{ACAD_REACTORS
330
16
102
}
330
16
100
AcDbXrecord
280
     1
  1
f
  1
*
  1
*
  1
*
 70
     5
  1
*
  1
*
  0
XRECORD
  5
106
102
{ACAD_REACTORS
330
16
102
}
330
16
100
AcDbXrecord
280
     1
  1
fa4
  1
fa4*
  1
*
  1
*
 70
     0
  1
*
  1
*
  0
XRECORD
  5
107
102
{ACAD_REACTORS
330
16
102
}
330
16
100
AcDbXrecord
280
     1
  1
FA_A2
  1
FA_A2*
  1
*
  1
*
 70
     0
  1
*
  1
*
  0
XRECORD
  5
108
102
{ACAD_REACTORS
330
16
102
}
330
16
100
AcDbXrecord
280
     1
  1
FA_B1
  1
fa_b1*
  1
*
  1
*
 70
     0
  1
*
  1
*
  0
XRECORD
  5
109
102
{ACAD_REACTORS
330
16
102
}
330
16
100
AcDbXrecord
280
     1
  1
FAC_1_COU_B
  1
fac_1_cou*
  1
*
  1
*
 70
     0
  1
*
  1
*
  0
XRECORD
  5
10A
102
{ACAD_REACTORS
330
16
102
}
330
16
100
AcDbXrecord
280
     1
  1
FAC_A1
  1
fac_a1*,FAC_A2*
  1
*
  1
*
 70
     0
  1
*
  1
*
  0
XRECORD
  5
10B
102
{ACAD_REACTORS
330
16
102
}
330
16
100
AcDbXrecord
280
     1
  1
FAC_A2
  1
fac_a2*
  1
*
  1
*
 70
     0
  1
*
  1
*
  0
XRECORD
  5
10C
102
{ACAD_REACTORS
330
16
102
}
330
16
100
AcDbXrecord
280
     1
  1
FAC_A3
  1
FAC_A3*
  1
*
  1
*
 70
     0
  1
*
  1
*
  0
XRECORD
  5
10D
102
{ACAD_REACTORS
330
16
102
}
330
16
100
AcDbXrecord
280
     1
  1
FAC_A4
  1
fac_a4*
  1
*
  1
*
 70
     0
  1
*
  1
*
  0
XRECORD
  5
10E
102
{ACAD_REACTORS
330
16
102
}
330
16
100
AcDbXrecord
280
     1
  1
FAC_B1
  1
faC_b1*
  1
*
  1
*
 70
     0
  1
*
  1
*
  0
XRECORD
  5
10F
102
{ACAD_REACTORS
330
16
102
}
330
16
100
AcDbXrecord
280
     1
  1
FAC_B2
  1
FAC_B2*
  1
*
  1
*
 70
     0
  1
*
  1
*
  0
XRECORD
  5
110
102
{ACAD_REACTORS
330
16
102
}
330
16
100
AcDbXrecord
280
     1
  1
FAC_C1
  1
FAC_C1*
  1
*
  1
*
 70
     0
  1
*
  1
*
  0
XRECORD
  5
111
102
{ACAD_REACTORS
330
16
102
}
330
16
100
AcDbXrecord
280
     1
  1
FAC_C2
  1
FAC_C2*
  1
*
  1
*
 70
     0
  1
*
  1
*
  0
XRECORD
  5
112
102
{ACAD_REACTORS
330
16
102
}
330
16
100
AcDbXrecord
280
     1
  1
FAC_H1_COUR
  1
FAC_H1_COU*
  1
*
  1
*
 70
     0
  1
*
  1
*
  0
XRECORD
  5
113
102
{ACAD_REACTORS
330
16
102
}
330
16
100
AcDbXrecord
280
     1
  1
FAC_H1_RUE
  1
FAC_H1_RU*
  1
*
  1
*
 70
     0
  1
*
  1
*
  0
XRECORD
  5
114
102
{ACAD_REACTORS
330
16
102
}
330
16
100
AcDbXrecord
280
     1
  1
faux plaf
  1
*a_fp*
  1
*
  1
*
 70
     0
  1
*
  1
*
  0
XRECORD
  5
115
102
{ACAD_REACTORS
330
16
102
}
330
16
100
AcDbXrecord
280
     1
  1
ff
  1
07_*
  1
*
  1
*
 70
     0
  1
*
  1
*
  0
XRECORD
  5
116
102
{ACAD_REACTORS
330
16
102
}
330
16
100
AcDbXrecord
280
     1
  1
fin
  1
*fin*
  1
*
  1
*
 70
     0
  1
*
  1
*
  0
XRECORD
  5
117
102
{ACAD_REACTORS
330
16
102
}
330
16
100
AcDbXrecord
280
     1
  1
FLUIDES
  1
gaz
  1
*
  1
*
 70
     0
  1
*
  1
*
  0
XRECORD
  5
118
102
{ACAD_REACTORS
330
16
102
}
330
16
100
AcDbXrecord
280
     1
  1
fo
  1
fo*
  1
*
  1
*
 70
     0
  1
*
  1
*
  0
XRECORD
  5
119
102
{ACAD_REACTORS
330
16
102
}
330
16
100
AcDbXrecord
280
     1
  1
FO-AB
  1
FO-AB*
  1
*
  1
*
 70
     0
  1
*
  1
*
  0
XRECORD
  5
11A
102
{ACAD_REACTORS
330
16
102
}
330
16
100
AcDbXrecord
280
     1
  1
FO-SGS
  1
*SGS*
  1
*
  1
*
 70
     0
  1
*
  1
*
  0
XRECORD
  5
11B
102
{ACAD_REACTORS
330
16
102
}
330
16
100
AcDbXrecord
280
     1
  1
FO-SGX
  1
*SGX*
  1
*
  1
*
 70
     0
  1
*
  1
*
  0
XRECORD
  5
11C
102
{ACAD_REACTORS
330
16
102
}
330
16
100
AcDbXrecord
280
     1
  1
FOLHA
  1
L*
  1
*
  1
*
 70
     0
  1
*
  1
*
  0
XRECORD
  5
11D
102
{ACAD_REACTORS
330
16
102
}
330
16
100
AcDbXrecord
280
     1
  1
FOLHAS
  1
*FOLHA*
  1
*
  1
*
 70
     0
  1
*
  1
*
  0
XRECORD
  5
11E
102
{ACAD_REACTORS
330
16
102
}
330
16
100
AcDbXrecord
280
     1
  1
FORCE
  1
*FOR*
  1
*
  1
*
 70
     0
  1
*
  1
*
  0
XRECORD
  5
11F
102
{ACAD_REACTORS
330
16
102
}
330
16
100
AcDbXrecord
280
     1
  1
FPT
  1
*FPT*
  1
*
  1
*
 70
     0
  1
*
  1
*
  0
XRECORD
  5
120
102
{ACAD_REACTORS
330
16
102
}
330
16
100
AcDbXrecord
280
     1
  1
frees
  1
*
  1
*
  1
*
 70
     4
  1
*
  1
*
  0
XRECORD
  5
121
102
{ACAD_REACTORS
330
16
102
}
330
16
100
AcDbXrecord
280
     1
  1
FREEZE
  1
*
  1
*
  1
*
 70
     4
  1
*
  1
*
  0
XRECORD
  5
122
102
{ACAD_REACTORS
330
16
102
}
330
16
100
AcDbXrecord
280
     1
  1
G
  1
*G*
  1
*
  1
*
 70
     0
  1
*
  1
*
  0
XRECORD
  5
123
102
{ACAD_REACTORS
330
16
102
}
330
16
100
AcDbXrecord
280
     1
  1
gaines verticales
  1
T_CL*_vert
  1
*
  1
*
 70
     0
  1
*
  1
*
  0
XRECORD
  5
124
102
{ACAD_REACTORS
330
16
102
}
330
16
100
AcDbXrecord
280
     1
  1
gele
  1
*
  1
*
  1
*
 70
     4
  1
*
  1
*
  0
XRECORD
  5
125
102
{ACAD_REACTORS
330
16
102
}
330
16
100
AcDbXrecord
280
     1
  1
geler
  1
*
  1
*
  1
*
 70
     4
  1
*
  1
*
  0
XRECORD
  5
126
102
{ACAD_REACTORS
330
16
102
}
330
16
100
AcDbXrecord
280
     1
  1
gelé
  1
z*
  1
*
  1
*
 70
     0
  1
*
  1
*
  0
XRECORD
  5
127
102
{ACAD_REACTORS
330
16
102
}
330
16
100
AcDbXrecord
280
     1
  1
geometrie
  1
*geo*
  1
*
  1
*
 70
     0
  1
*
  1
*
  0
XRECORD
  5
128
102
{ACAD_REACTORS
330
16
102
}
330
16
100
AcDbXrecord
280
     1
  1
gpo
  1
gp0*
  1
*
  1
*
 70
     0
  1
*
  1
*
  0
XRECORD
  5
129
102
{ACAD_REACTORS
330
16
102
}
330
16
100
AcDbXrecord
280
     1
  1
gril
  1
1*
  1
*
  1
*
 70
     0
  1
*
  1
*
  0
XRECORD
  5
12A
102
{ACAD_REACTORS
330
16
102
}
330
16
100
AcDbXrecord
280
     1
  1
gris8
  1
*
  1
8
  1
*
 70
     0
  1
*
  1
*
  0
XRECORD
  5
12B
102
{ACAD_REACTORS
330
16
102
}
330
16
100
AcDbXrecord
280
     1
  1
gris9
  1
*
  1
9
  1
*
 70
     0
  1
*
  1
*
  0
XRECORD
  5
12C
102
{ACAD_REACTORS
330
16
102
}
330
16
100
AcDbXrecord
280
     1
  1
GrundrisseA
  1
*Gru_*
  1
*
  1
*
 70
     0
  1
*
  1
*
  0
XRECORD
  5
12D
102
{ACAD_REACTORS
330
16
102
}
330
16
100
AcDbXrecord
280
     1
  1
géo
  1
*
  1
7
  1
*
 70
     0
  1
*
  1
*
  0
XRECORD
  5
12E
102
{ACAD_REACTORS
330
16
102
}
330
16
100
AcDbXrecord
280
     1
  1
H
  1
*h
  1
*
  1
*
 70
     0
  1
*
  1
*
  0
XRECORD
  5
12F
102
{ACAD_REACTORS
330
16
102
}
330
16
100
AcDbXrecord
280
     1
  1
ha
  1
*ha*
  1
*
  1
*
 70
     0
  1
*
  1
*
  0
XRECORD
  5
130
102
{ACAD_REACTORS
330
16
102
}
330
16
100
AcDbXrecord
280
     1
  1
HACHURES
  1
*HAC*
  1
*
  1
*
 70
     0
  1
*
  1
*
  0
XRECORD
  5
131
102
{ACAD_REACTORS
330
16
102
}
330
16
100
AcDbXrecord
280
     1
  1
hand
  1
*pl_hand*
  1
*
  1
*
 70
     0
  1
*
  1
*
  0
XRECORD
  5
132
102
{ACAD_REACTORS
330
16
102
}
330
16
100
AcDbXrecord
280
     1
  1
hat
  1
*hat*
  1
*
  1
*
 70
     0
  1
*
  1
*
  0
XRECORD
  5
133
102
{ACAD_REACTORS
330
16
102
}
330
16
100
AcDbXrecord
280
     1
  1
hh
  1
*
  1
*
  1
*
 70
     0
  1
*
  1
*
  0
XRECORD
  5
134
102
{ACAD_REACTORS
330
16
102
}
330
16
100
AcDbXrecord
280
     1
  1
Hilfs
  1
*hilfs*
  1
*
  1
*
 70
     0
  1
*
  1
*
  0
XRECORD
  5
135
102
{ACAD_REACTORS
330
16
102
}
330
16
100
AcDbXrecord
280
     1
  1
hilfsk
  1
*hilfsk*
  1
*
  1
*
 70
     0
  1
*
  1
*
  0
XRECORD
  5
136
102
{ACAD_REACTORS
330
16
102
}
330
16
100
AcDbXrecord
280
     1
  1
hydro
  1
och*
  1
*
  1
*
 70
     0
  1
*
  1
*
  0
XRECORD
  5
137
102
{ACAD_REACTORS
330
16
102
}
330
16
100
AcDbXrecord
280
     1
  1
il
  1
*il*
  1
*
  1
*
 70
     0
  1
*
  1
*
  0
XRECORD
  5
138
102
{ACAD_REACTORS
330
16
102
}
330
16
100
AcDbXrecord
280
     1
  1
ILUM
  1
*ILUM*
  1
*
  1
*
 70
     0
  1
*
  1
*
  0
XRECORD
  5
139
102
{ACAD_REACTORS
330
16
102
}
330
16
100
AcDbXrecord
280
     1
  1
image
  1
im*
  1
*
  1
*
 70
     0
  1
*
  1
*
  0
XRECORD
  5
13A
102
{ACAD_REACTORS
330
16
102
}
330
16
100
AcDbXrecord
280
     1
  1
import
  1
e1*
  1
*
  1
*
 70
     0
  1
*
  1
*
  0
XRECORD
  5
13B
102
{ACAD_REACTORS
330
16
102
}
330
16
100
AcDbXrecord
280
     1
  1
INACTIF
  1
*
  1
*
  1
*
 70
     3
  1
*
  1
*
  0
XRECORD
  5
13C
102
{ACAD_REACTORS
330
16
102
}
330
16
100
AcDbXrecord
280
     1
  1
incendie
  1
si*
  1
*
  1
*
 70
     0
  1
*
  1
*
  0
XRECORD
  5
13D
102
{ACAD_REACTORS
330
16
102
}
330
16
100
AcDbXrecord
280
     1
  1
ind
  1
*
  1
*
  1
*
 70
     0
  1
*
  1
*
  0
XRECORD
  5
13E
102
{ACAD_REACTORS
330
16
102
}
330
16
100
AcDbXrecord
280
     1
  1
isometrix
  1
iso*
  1
*
  1
*
 70
     0
  1
*
  1
*
  0
XRECORD
  5
13F
102
{ACAD_REACTORS
330
16
102
}
330
16
100
AcDbXrecord
280
     1
  1
jaune
  1
*
  1
yellow
  1
*
 70
     0
  1
*
  1
*
  0
XRECORD
  5
140
102
{ACAD_REACTORS
330
16
102
}
330
16
100
AcDbXrecord
280
     1
  1
joint
  1
*jd*
  1
*
  1
*
 70
     0
  1
*
  1
*
  0
XRECORD
  5
141
102
{ACAD_REACTORS
330
16
102
}
330
16
100
AcDbXrecord
280
     1
  1
Layers do Projecto
  1
_*
  1
*
  1
*
 70
     0
  1
*
  1
*
  0
XRECORD
  5
142
102
{ACAD_REACTORS
330
16
102
}
330
16
100
AcDbXrecord
280
     1
  1
LOCKS
  1
*
  1
*
  1
*
 70
   256
  1
*
  1
*
  0
XRECORD
  5
143
102
{ACAD_REACTORS
330
16
102
}
330
16
100
AcDbXrecord
280
     1
  1
lolo
  1
*a_chas_ncl
  1
*
  1
*
 70
     0
  1
*
  1
*
  0
XRECORD
  5
144
102
{ACAD_REACTORS
330
16
102
}
330
16
100
AcDbXrecord
280
     1
  1
LOOP7
  1
7*
  1
*
  1
*
 70
     0
  1
*
  1
*
  0
XRECORD
  5
145
102
{ACAD_REACTORS
330
16
102
}
330
16
100
AcDbXrecord
280
     1
  1
ls
  1
*lsd
  1
*
  1
*
 70
     0
  1
*
  1
*
  0
XRECORD
  5
146
102
{ACAD_REACTORS
330
16
102
}
330
16
100
AcDbXrecord
280
     1
  1
LUI
  1
*
  1
*
  1
*
 70
     0
  1
0.09mm
  1
*
  0
XRECORD
  5
147
102
{ACAD_REACTORS
330
16
102
}
330
16
100
AcDbXrecord
280
     1
  1
lumi
  1
luminaire
  1
*
  1
*
 70
     0
  1
*
  1
*
  0
XRECORD
  5
148
102
{ACAD_REACTORS
330
16
102
}
330
16
100
AcDbXrecord
280
     1
  1
Main
  1
CB?0*
  1
*
  1
*
 70
     0
  1
*
  1
*
  0
XRECORD
  5
149
102
{ACAD_REACTORS
330
16
102
}
330
16
100
AcDbXrecord
280
     1
  1
MODI
  1
*modi
  1
*
  1
*
 70
     0
  1
*
  1
*
  0
XRECORD
  5
14A
102
{ACAD_REACTORS
330
16
102
}
330
16
100
AcDbXrecord
280
     1
  1
mur
  1
mur*
  1
*
  1
*
 70
     0
  1
*
  1
*
  0
XRECORD
  5
14B
102
{ACAD_REACTORS
330
16
102
}
330
16
100
AcDbXrecord
280
     1
  1
MURS_VITR
  1
A_MURS_VITR*
  1
*
  1
*
 70
     0
  1
*
  1
*
  0
XRECORD
  5
14C
102
{ACAD_REACTORS
330
16
102
}
330
16
100
AcDbXrecord
280
     1
  1
Murs_Vitrs
  1
A_MURS_VI*
  1
*
  1
*
 70
     0
  1
*
  1
*
  0
XRECORD
  5
14D
102
{ACAD_REACTORS
330
16
102
}
330
16
100
AcDbXrecord
280
     1
  1
N
  1
n*
  1
*
  1
*
 70
     0
  1
*
  1
*
  0
XRECORD
  5
14E
102
{ACAD_REACTORS
330
16
102
}
330
16
100
AcDbXrecord
280
     1
  1
n-clav
  1
*n-clav*
  1
*
  1
*
 70
     0
  1
*
  1
*
  0
XRECORD
  5
14F
102
{ACAD_REACTORS
330
16
102
}
330
16
100
AcDbXrecord
280
     1
  1
Nur sichtbare
  1
*
  1
*
  1
*
 70
    13
  1
*
  1
*
  0
XRECORD
  5
150
102
{ACAD_REACTORS
330
16
102
}
330
16
100
AcDbXrecord
280
     1
  1
NV
  1
??-NV
  1
*
  1
*
 70
     0
  1
*
  1
*
  0
XRECORD
  5
151
102
{ACAD_REACTORS
330
16
102
}
330
16
100
AcDbXrecord
280
     1
  1
o
  1
o*
  1
*
  1
*
 70
     0
  1
*
  1
*
  0
XRECORD
  5
152
102
{ACAD_REACTORS
330
16
102
}
330
16
100
AcDbXrecord
280
     1
  1
Off
  1
*
  1
*
  1
*
 70
     3
  1
*
  1
*
  0
XRECORD
  5
153
102
{ACAD_REACTORS
330
16
102
}
330
16
100
AcDbXrecord
280
     1
  1
on
  1
*
  1
*
  1
*
 70
     1
  1
*
  1
*
  0
XRECORD
  5
154
102
{ACAD_REACTORS
330
16
102
}
330
16
100
AcDbXrecord
280
     1
  1
OPERATION
  1
OP3*
  1
*
  1
*
 70
     0
  1
*
  1
*
  0
XRECORD
  5
155
102
{ACAD_REACTORS
330
16
102
}
330
16
100
AcDbXrecord
280
     1
  1
OPERATION1
  1
OP1*
  1
*
  1
*
 70
     0
  1
*
  1
*
  0
XRECORD
  5
156
102
{ACAD_REACTORS
330
16
102
}
330
16
100
AcDbXrecord
280
     1
  1
OPERATION2
  1
OP2*
  1
*
  1
*
 70
     0
  1
*
  1
*
  0
XRECORD
  5
157
102
{ACAD_REACTORS
330
16
102
}
330
16
100
AcDbXrecord
280
     1
  1
OPERATION3
  1
OP3*
  1
*
  1
*
 70
     0
  1
*
  1
*
  0
XRECORD
  5
158
102
{ACAD_REACTORS
330
16
102
}
330
16
100
AcDbXrecord
280
     1
  1
P
  1
?P
  1
*
  1
*
 70
     0
  1
*
  1
*
  0
XRECORD
  5
159
102
{ACAD_REACTORS
330
16
102
}
330
16
100
AcDbXrecord
280
     1
  1
parte A
  1
za*,0
  1
*
  1
*
 70
     0
  1
*
  1
*
  0
XRECORD
  5
15A
102
{ACAD_REACTORS
330
16
102
}
330
16
100
AcDbXrecord
280
     1
  1
Parte B
  1
*zb*
  1
*
  1
*
 70
     0
  1
*
  1
*
  0
XRECORD
  5
15B
102
{ACAD_REACTORS
330
16
102
}
330
16
100
AcDbXrecord
280
     1
  1
Parte C
  1
zc*
  1
*
  1
*
 70
     0
  1
*
  1
*
  0
XRECORD
  5
15C
102
{ACAD_REACTORS
330
16
102
}
330
16
100
AcDbXrecord
280
     1
  1
Parte D
  1
*zd*,0
  1
*
  1
*
 70
     0
  1
*
  1
*
  0
XRECORD
  5
15D
102
{ACAD_REACTORS
330
16
102
}
330
16
100
AcDbXrecord
280
     1
  1
Parte E
  1
*ZE*,0,L-
  1
*
  1
*
 70
     0
  1
*
  1
*
  0
XRECORD
  5
15E
102
{ACAD_REACTORS
330
16
102
}
330
16
100
AcDbXrecord
280
     1
  1
Parte F
  1
*ZF*,0,L-
  1
*
  1
*
 70
     0
  1
*
  1
*
  0
XRECORD
  5
15F
102
{ACAD_REACTORS
330
16
102
}
330
16
100
AcDbXrecord
280
     1
  1
parte g
  1
zg*,0
  1
*
  1
*
 70
     0
  1
*
  1
*
  0
XRECORD
  5
160
102
{ACAD_REACTORS
330
16
102
}
330
16
100
AcDbXrecord
280
     1
  1
parte H
  1
ZH*
  1
*
  1
*
 70
     0
  1
*
  1
*
  0
XRECORD
  5
161
102
{ACAD_REACTORS
330
16
102
}
330
16
100
AcDbXrecord
280
     1
  1
parte H2
  1
*ZH2-*
  1
*
  1
*
 70
     0
  1
*
  1
*
  0
XRECORD
  5
162
102
{ACAD_REACTORS
330
16
102
}
330
16
100
AcDbXrecord
280
     1
  1
parte i
  1
zi*,0
  1
*
  1
*
 70
     0
  1
*
  1
*
  0
XRECORD
  5
163
102
{ACAD_REACTORS
330
16
102
}
330
16
100
AcDbXrecord
280
     1
  1
parte J
  1
zj*,0
  1
*
  1
*
 70
     0
  1
*
  1
*
  0
XRECORD
  5
164
102
{ACAD_REACTORS
330
16
102
}
330
16
100
AcDbXrecord
280
     1
  1
pass
  1
*pass*
  1
*
  1
*
 70
     0
  1
*
  1
*
  0
XRECORD
  5
165
102
{ACAD_REACTORS
330
16
102
}
330
16
100
AcDbXrecord
280
     1
  1
passerelle
  1
2*
  1
*
  1
*
 70
     0
  1
*
  1
*
  0
XRECORD
  5
166
102
{ACAD_REACTORS
330
16
102
}
330
16
100
AcDbXrecord
280
     1
  1
pav
  1
*pav*
  1
*
  1
*
 70
     0
  1
*
  1
*
  0
XRECORD
  5
167
102
{ACAD_REACTORS
330
16
102
}
330
16
100
AcDbXrecord
280
     1
  1
paysagistes
  1
P*
  1
*
  1
*
 70
     0
  1
*
  1
*
  0
XRECORD
  5
168
102
{ACAD_REACTORS
330
16
102
}
330
16
100
AcDbXrecord
280
     1
  1
PB
  1
*PB*
  1
*
  1
*
 70
     0
  1
*
  1
*
  0
XRECORD
  5
169
102
{ACAD_REACTORS
330
16
102
}
330
16
100
AcDbXrecord
280
     1
  1
pea
  1
pea*
  1
*
  1
*
 70
     4
  1
*
  1
*
  0
XRECORD
  5
16A
102
{ACAD_REACTORS
330
16
102
}
330
16
100
AcDbXrecord
280
     1
  1
pea2
  1
pea*
  1
*
  1
*
 70
  3072
  1
*
  1
*
  0
XRECORD
  5
16B
102
{ACAD_REACTORS
330
16
102
}
330
16
100
AcDbXrecord
280
     1
  1
pea3
  1
pea
  1
*
  1
*
 70
     4
  1
*
  1
*
  0
XRECORD
  5
16C
102
{ACAD_REACTORS
330
16
102
}
330
16
100
AcDbXrecord
280
     1
  1
pena
  1
PENA*
  1
*
  1
*
 70
     0
  1
*
  1
*
  0
XRECORD
  5
16D
102
{ACAD_REACTORS
330
16
102
}
330
16
100
AcDbXrecord
280
     1
  1
penacon
  1
PENAcon*
  1
*
  1
*
 70
     0
  1
*
  1
*
  0
XRECORD
  5
16E
102
{ACAD_REACTORS
330
16
102
}
330
16
100
AcDbXrecord
280
     1
  1
penagelé
  1
zPENA*
  1
*
  1
*
 70
     0
  1
*
  1
*
  0
XRECORD
  5
16F
102
{ACAD_REACTORS
330
16
102
}
330
16
100
AcDbXrecord
280
     1
  1
penamé
  1
PENAmé*
  1
*
  1
*
 70
     0
  1
*
  1
*
  0
XRECORD
  5
170
102
{ACAD_REACTORS
330
16
102
}
330
16
100
AcDbXrecord
280
     1
  1
penasol
  1
PENAs*
  1
*
  1
*
 70
     0
  1
*
  1
*
  0
XRECORD
  5
171
102
{ACAD_REACTORS
330
16
102
}
330
16
100
AcDbXrecord
280
     1
  1
penaT
  1
PENAT*
  1
*
  1
*
 70
     0
  1
*
  1
*
  0
XRECORD
  5
172
102
{ACAD_REACTORS
330
16
102
}
330
16
100
AcDbXrecord
280
     1
  1
PH
  1
*PH*
  1
*
  1
*
 70
     0
  1
*
  1
*
  0
XRECORD
  5
173
102
{ACAD_REACTORS
330
16
102
}
330
16
100
AcDbXrecord
280
     1
  1
phasage
  1
01-*
  1
*
  1
*
 70
     0
  1
*
  1
*
  0
XRECORD
  5
174
102
{ACAD_REACTORS
330
16
102
}
330
16
100
AcDbXrecord
280
     1
  1
phase
  1
phas*
  1
*
  1
*
 70
     0
  1
*
  1
*
  0
XRECORD
  5
175
102
{ACAD_REACTORS
330
16
102
}
330
16
100
AcDbXrecord
280
     1
  1
PISO-1
  1
P-1*
  1
*
  1
*
 70
     0
  1
*
  1
*
  0
XRECORD
  5
176
102
{ACAD_REACTORS
330
16
102
}
330
16
100
AcDbXrecord
280
     1
  1
PISO0
  1
P0*
  1
*
  1
*
 70
     0
  1
*
  1
*
  0
XRECORD
  5
177
102
{ACAD_REACTORS
330
16
102
}
330
16
100
AcDbXrecord
280
     1
  1
PISO1
  1
P1*
  1
*
  1
*
 70
     0
  1
*
  1
*
  0
XRECORD
  5
178
102
{ACAD_REACTORS
330
16
102
}
330
16
100
AcDbXrecord
280
     1
  1
PL
  1
PL*
  1
*
  1
*
 70
     0
  1
*
  1
*
  0
XRECORD
  5
179
102
{ACAD_REACTORS
330
16
102
}
330
16
100
AcDbXrecord
280
     1
  1
Place
  1
Place*
  1
*
  1
*
 70
     0
  1
*
  1
*
  0
XRECORD
  5
17A
102
{ACAD_REACTORS
330
16
102
}
330
16
100
AcDbXrecord
280
     1
  1
plan03
  1
PENA03*
  1
*
  1
*
 70
     0
  1
*
  1
*
  0
XRECORD
  5
17B
102
{ACAD_REACTORS
330
16
102
}
330
16
100
AcDbXrecord
280
     1
  1
PLAN_MURS
  1
*murs
  1
*
  1
*
 70
     0
  1
*
  1
*
  0
XRECORD
  5
17C
102
{ACAD_REACTORS
330
16
102
}
330
16
100
AcDbXrecord
280
     1
  1
planches
  1
*pl*
  1
*
  1
*
 70
     0
  1
*
  1
*
  0
XRECORD
  5
17D
102
{ACAD_REACTORS
330
16
102
}
330
16
100
AcDbXrecord
280
     1
  1
plr
  1
*pl*
  1
*
  1
*
 70
     0
  1
*
  1
*
  0
XRECORD
  5
17E
102
{ACAD_REACTORS
330
16
102
}
330
16
100
AcDbXrecord
280
     1
  1
plr_remp
  1
*plr_remp*
  1
*
  1
*
 70
     0
  1
*
  1
*
  0
XRECORD
  5
17F
102
{ACAD_REACTORS
330
16
102
}
330
16
100
AcDbXrecord
280
     1
  1
points
  1
*poin*.*
  1
*
  1
*
 70
     0
  1
*
  1
*
  0
XRECORD
  5
180
102
{ACAD_REACTORS
330
16
102
}
330
16
100
AcDbXrecord
280
     1
  1
pol
  1
*pol*
  1
*
  1
*
 70
     0
  1
*
  1
*
  0
XRECORD
  5
181
102
{ACAD_REACTORS
330
16
102
}
330
16
100
AcDbXrecord
280
     1
  1
POLY
  1
*PL_*
  1
*
  1
*
 70
     0
  1
*
  1
*
  0
XRECORD
  5
182
102
{ACAD_REACTORS
330
16
102
}
330
16
100
AcDbXrecord
280
     1
  1
por
  1
*por*
  1
*
  1
*
 70
     0
  1
*
  1
*
  0
XRECORD
  5
183
102
{ACAD_REACTORS
330
16
102
}
330
16
100
AcDbXrecord
280
     1
  1
PORTAS
  1
*POR*
  1
*
  1
*
 70
     0
  1
*
  1
*
  0
XRECORD
  5
184
102
{ACAD_REACTORS
330
16
102
}
330
16
100
AcDbXrecord
280
     1
  1
porte
  1
*port*
  1
*
  1
*
 70
     0
  1
*
  1
*
  0
XRECORD
  5
185
102
{ACAD_REACTORS
330
16
102
}
330
16
100
AcDbXrecord
280
     1
  1
poteau
  1
*murs_pot
  1
*
  1
*
 70
     0
  1
*
  1
*
  0
XRECORD
  5
186
102
{ACAD_REACTORS
330
16
102
}
330
16
100
AcDbXrecord
280
     1
  1
PROTECTION
  1
*a_protec*
  1
*
  1
*
 70
     0
  1
*
  1
*
  0
XRECORD
  5
187
102
{ACAD_REACTORS
330
16
102
}
330
16
100
AcDbXrecord
280
     1
  1
R
  1
r*
  1
*
  1
*
 70
     0
  1
*
  1
*
  0
XRECORD
  5
188
102
{ACAD_REACTORS
330
16
102
}
330
16
100
AcDbXrecord
280
     1
  1
RAST
  1
*RAST*
  1
*
  1
*
 70
     0
  1
*
  1
*
  0
XRECORD
  5
189
102
{ACAD_REACTORS
330
16
102
}
330
16
100
AcDbXrecord
280
     1
  1
rdc
  1
*rdc*
  1
*
  1
*
 70
     0
  1
*
  1
*
  0
XRECORD
  5
18A
102
{ACAD_REACTORS
330
16
102
}
330
16
100
AcDbXrecord
280
     1
  1
rdj
  1
*rdj*
  1
*
  1
*
 70
     0
  1
*
  1
*
  0
XRECORD
  5
18B
102
{ACAD_REACTORS
330
16
102
}
330
16
100
AcDbXrecord
280
     1
  1
reb
  1
*reb*
  1
*
  1
*
 70
     0
  1
*
  1
*
  0
XRECORD
  5
18C
102
{ACAD_REACTORS
330
16
102
}
330
16
100
AcDbXrecord
280
     1
  1
region
  1
*reg*
  1
*
  1
*
 70
     0
  1
*
  1
*
  0
XRECORD
  5
18D
102
{ACAD_REACTORS
330
16
102
}
330
16
100
AcDbXrecord
280
     1
  1
repart
  1
1*
  1
*
  1
*
 70
     0
  1
*
  1
*
  0
XRECORD
  5
18E
102
{ACAD_REACTORS
330
16
102
}
330
16
100
AcDbXrecord
280
     1
  1
reseaux
  1
y*
  1
*
  1
*
 70
     0
  1
*
  1
*
  0
XRECORD
  5
18F
102
{ACAD_REACTORS
330
16
102
}
330
16
100
AcDbXrecord
280
     1
  1
rn
  1
??-rn
  1
*
  1
*
 70
     0
  1
*
  1
*
  0
XRECORD
  5
190
102
{ACAD_REACTORS
330
16
102
}
330
16
100
AcDbXrecord
280
     1
  1
rouge
  1
*
  1
1
  1
*
 70
     0
  1
*
  1
*
  0
XRECORD
  5
191
102
{ACAD_REACTORS
330
16
102
}
330
16
100
AcDbXrecord
280
     1
  1
rouge 240
  1
*
  1
240
  1
*
 70
     0
  1
*
  1
*
  0
XRECORD
  5
192
102
{ACAD_REACTORS
330
16
102
}
330
16
100
AcDbXrecord
280
     1
  1
RRR
  1
*
  1
253
  1
*
 70
     0
  1
*
  1
*
  0
XRECORD
  5
193
102
{ACAD_REACTORS
330
16
102
}
330
16
100
AcDbXrecord
280
     1
  1
s
  1
*s_voiles
  1
*
  1
*
 70
     0
  1
*
  1
*
  0
XRECORD
  5
194
102
{ACAD_REACTORS
330
16
102
}
330
16
100
AcDbXrecord
280
     1
  1
SANS XREF
  1
B*
  1
*
  1
*
 70
     0
  1
*
  1
*
  0
XRECORD
  5
195
102
{ACAD_REACTORS
330
16
102
}
330
16
100
AcDbXrecord
280
     1
  1
sh
  1
*hand
  1
*
  1
*
 70
     0
  1
*
  1
*
  0
XRECORD
  5
196
102
{ACAD_REACTORS
330
16
102
}
330
16
100
AcDbXrecord
280
     1
  1
si
  1
si*
  1
*
  1
*
 70
     0
  1
*
  1
*
  0
XRECORD
  5
197
102
{ACAD_REACTORS
330
16
102
}
330
16
100
AcDbXrecord
280
     1
  1
site
  1
*
  1
251
  1
*
 70
     0
  1
*
  1
*
  0
XRECORD
  5
198
102
{ACAD_REACTORS
330
16
102
}
330
16
100
AcDbXrecord
280
     1
  1
sm
  1
sm*
  1
*
  1
*
 70
     0
  1
*
  1
*
  0
XRECORD
  5
199
102
{ACAD_REACTORS
330
16
102
}
330
16
100
AcDbXrecord
280
     1
  1
SOL
  1
*SOL*
  1
*
  1
*
 70
     0
  1
*
  1
*
  0
XRECORD
  5
19A
102
{ACAD_REACTORS
330
16
102
}
330
16
100
AcDbXrecord
280
     1
  1
solid10
  1
*solid*10*
  1
*
  1
*
 70
     0
  1
*
  1
*
  0
XRECORD
  5
19B
102
{ACAD_REACTORS
330
16
102
}
330
16
100
AcDbXrecord
280
     1
  1
solid30
  1
*solid*30*
  1
*
  1
*
 70
     0
  1
*
  1
*
  0
XRECORD
  5
19C
102
{ACAD_REACTORS
330
16
102
}
330
16
100
AcDbXrecord
280
     1
  1
SOLIDS
  1
_SOLID*
  1
*
  1
*
 70
     0
  1
*
  1
*
  0
XRECORD
  5
19D
102
{ACAD_REACTORS
330
16
102
}
330
16
100
AcDbXrecord
280
     1
  1
souff
  1
T_cls*
  1
*
  1
*
 70
     0
  1
*
  1
*
  0
XRECORD
  5
19E
102
{ACAD_REACTORS
330
16
102
}
330
16
100
AcDbXrecord
280
     1
  1
souff01
  1
T_cls1*
  1
*
  1
*
 70
     0
  1
*
  1
*
  0
XRECORD
  5
19F
102
{ACAD_REACTORS
330
16
102
}
330
16
100
AcDbXrecord
280
     1
  1
SOUFF02
  1
T_clS2*
  1
*
  1
*
 70
     0
  1
*
  1
*
  0
XRECORD
  5
1A0
102
{ACAD_REACTORS
330
16
102
}
330
16
100
AcDbXrecord
280
     1
  1
SOUFF03
  1
T_clS3*
  1
*
  1
*
 70
     0
  1
*
  1
*
  0
XRECORD
  5
1A1
102
{ACAD_REACTORS
330
16
102
}
330
16
100
AcDbXrecord
280
     1
  1
SOUFF05
  1
T_clS5*
  1
*
  1
*
 70
     0
  1
*
  1
*
  0
XRECORD
  5
1A2
102
{ACAD_REACTORS
330
16
102
}
330
16
100
AcDbXrecord
280
     1
  1
souff06
  1
*T_cls6*
  1
*
  1
*
 70
     0
  1
*
  1
*
  0
XRECORD
  5
1A3
102
{ACAD_REACTORS
330
16
102
}
330
16
100
AcDbXrecord
280
     1
  1
souff403
  1
T_cls4*
  1
*
  1
*
 70
     0
  1
*
  1
*
  0
XRECORD
  5
1A4
102
{ACAD_REACTORS
330
16
102
}
330
16
100
AcDbXrecord
280
     1
  1
soussol
  1
*ss*
  1
*
  1
*
 70
     0
  1
*
  1
*
  0
XRECORD
  5
1A5
102
{ACAD_REACTORS
330
16
102
}
330
16
100
AcDbXrecord
280
     1
  1
sp
  1
*s_potea
  1
*
  1
*
 70
     0
  1
*
  1
*
  0
XRECORD
  5
1A6
102
{ACAD_REACTORS
330
16
102
}
330
16
100
AcDbXrecord
280
     1
  1
Spanisch
  1
*spanisch*
  1
*
  1
*
 70
     0
  1
*
  1
*
  0
XRECORD
  5
1A7
102
{ACAD_REACTORS
330
16
102
}
330
16
100
AcDbXrecord
280
     1
  1
SPECIFIQUE
  1
OCA??2*
  1
*
  1
*
 70
     0
  1
*
  1
*
  0
XRECORD
  5
1A8
102
{ACAD_REACTORS
330
16
102
}
330
16
100
AcDbXrecord
280
     1
  1
stef
  1
procvr??rb|stef*
  1
*
  1
*
 70
     0
  1
*
  1
*
  0
XRECORD
  5
1A9
102
{ACAD_REACTORS
330
16
102
}
330
16
100
AcDbXrecord
280
     1
  1
sty
  1
sty*
  1
*
  1
*
 70
     0
  1
*
  1
*
  0
XRECORD
  5
1AA
102
{ACAD_REACTORS
330
16
102
}
330
16
100
AcDbXrecord
280
     1
  1
surete
  1
su*
  1
*
  1
*
 70
     0
  1
*
  1
*
  0
XRECORD
  5
1AB
102
{ACAD_REACTORS
330
16
102
}
330
16
100
AcDbXrecord
280
     1
  1
surf
  1
*hach
  1
*
  1
*
 70
     0
  1
*
  1
*
  0
XRECORD
  5
1AC
102
{ACAD_REACTORS
330
16
102
}
330
16
100
AcDbXrecord
280
     1
  1
surfaces
  1
*su*
  1
*
  1
*
 70
     0
  1
*
  1
*
  0
XRECORD
  5
1AD
102
{ACAD_REACTORS
330
16
102
}
330
16
100
AcDbXrecord
280
     1
  1
sy
  1
sy*
  1
*
  1
*
 70
     0
  1
*
  1
*
  0
XRECORD
  5
1AE
102
{ACAD_REACTORS
330
16
102
}
330
16
100
AcDbXrecord
280
     1
  1
TE
  1
??-TE*
  1
*
  1
*
 70
     0
  1
*
  1
*
  0
XRECORD
  5
1AF
102
{ACAD_REACTORS
330
16
102
}
330
16
100
AcDbXrecord
280
     1
  1
tec
  1
*tec
  1
*
  1
*
 70
     0
  1
*
  1
*
  0
XRECORD
  5
1B0
102
{ACAD_REACTORS
330
16
102
}
330
16
100
AcDbXrecord
280
     1
  1
temp
  1
?.san*
  1
*
  1
*
 70
     0
  1
*
  1
*
  0
XRECORD
  5
1B1
102
{ACAD_REACTORS
330
16
102
}
330
16
100
AcDbXrecord
280
     1
  1
terrasse
  1
*ter*
  1
*
  1
*
 70
     0
  1
*
  1
*
  0
XRECORD
  5
1B2
102
{ACAD_REACTORS
330
16
102
}
330
16
100
AcDbXrecord
280
     1
  1
Text
  1
*text*
  1
*
  1
*
 70
     0
  1
*
  1
*
  0
XRECORD
  5
1B3
102
{ACAD_REACTORS
330
16
102
}
330
16
100
AcDbXrecord
280
     1
  1
TEXTE
  1
*TEXT*
  1
*
  1
*
 70
     0
  1
*
  1
*
  0
XRECORD
  5
1B4
102
{ACAD_REACTORS
330
16
102
}
330
16
100
AcDbXrecord
280
     1
  1
Textes
  1
*txt*
  1
*
  1
*
 70
     0
  1
*
  1
*
  0
XRECORD
  5
1B5
102
{ACAD_REACTORS
330
16
102
}
330
16
100
AcDbXrecord
280
     1
  1
tmp
  1
*tmp
  1
*
  1
*
 70
     0
  1
*
  1
*
  0
XRECORD
  5
1B6
102
{ACAD_REACTORS
330
16
102
}
330
16
100
AcDbXrecord
280
     1
  1
topo
  1
*
  1
*
  1
*
 70
     0
  1
*
  1
*
  0
XRECORD
  5
1B7
102
{ACAD_REACTORS
330
16
102
}
330
16
100
AcDbXrecord
280
     1
  1
Total
  1
*
  1
*
  1
*
 70
     0
  1
*
  1
*
  0
XRECORD
  5
1B8
102
{ACAD_REACTORS
330
16
102
}
330
16
100
AcDbXrecord
280
     1
  1
toto
  1
?p,?n,?z
  1
*
  1
*
 70
     0
  1
*
  1
*
  0
XRECORD
  5
1B9
102
{ACAD_REACTORS
330
16
102
}
330
16
100
AcDbXrecord
280
     1
  1
tr
  1
*tr
  1
*
  1
*
 70
     0
  1
*
  1
*
  0
XRECORD
  5
1BA
102
{ACAD_REACTORS
330
16
102
}
330
16
100
AcDbXrecord
280
     1
  1
trace
  1
*
  1
*
  1
*
 70
  1024
  1
*
  1
*
  0
XRECORD
  5
1BB
102
{ACAD_REACTORS
330
16
102
}
330
16
100
AcDbXrecord
280
     1
  1
tracer
  1
*
  1
*
  1
*
 70
  1024
  1
*
  1
*
  0
XRECORD
  5
1BC
102
{ACAD_REACTORS
330
16
102
}
330
16
100
AcDbXrecord
280
     1
  1
TRAME
  1
*TRAM*
  1
*
  1
*
 70
     0
  1
*
  1
*
  0
XRECORD
  5
1BD
102
{ACAD_REACTORS
330
16
102
}
330
16
100
AcDbXrecord
280
     1
  1
travail_V7
  1
_*
  1
*
  1
*
 70
     0
  1
*
  1
*
  0
XRECORD
  5
1BE
102
{ACAD_REACTORS
330
16
102
}
330
16
100
AcDbXrecord
280
     1
  1
TRPATRIM
  1
tp_*
  1
*
  1
*
 70
     0
  1
*
  1
*
  0
XRECORD
  5
1BF
102
{ACAD_REACTORS
330
16
102
}
330
16
100
AcDbXrecord
280
     1
  1
TTE
  1
*TTE*
  1
*
  1
*
 70
     0
  1
*
  1
*
  0
XRECORD
  5
1C0
102
{ACAD_REACTORS
330
16
102
}
330
16
100
AcDbXrecord
280
     1
  1
txt
  1
*txt
  1
*
  1
*
 70
     0
  1
*
  1
*
  0
XRECORD
  5
1C1
102
{ACAD_REACTORS
330
16
102
}
330
16
100
AcDbXrecord
280
     1
  1
verriere
  1
*verriere*
  1
*
  1
*
 70
     0
  1
*
  1
*
  0
XRECORD
  5
1C2
102
{ACAD_REACTORS
330
16
102
}
330
16
100
AcDbXrecord
280
     1
  1
vert
  1
*
  1
green
  1
*
 70
     0
  1
*
  1
*
  0
XRECORD
  5
1C3
102
{ACAD_REACTORS
330
16
102
}
330
16
100
AcDbXrecord
280
     1
  1
vert 90
  1
*
  1
90
  1
*
 70
     0
  1
*
  1
*
  0
XRECORD
  5
1C4
102
{ACAD_REACTORS
330
16
102
}
330
16
100
AcDbXrecord
280
     1
  1
vide
  1
--jc-Vide
  1
*
  1
*
 70
     0
  1
*
  1
*
  0
XRECORD
  5
1C5
102
{ACAD_REACTORS
330
16
102
}
330
16
100
AcDbXrecord
280
     1
  1
vo
  1
??-VO
  1
*
  1
*
 70
     0
  1
*
  1
*
  0
XRECORD
  5
1C6
102
{ACAD_REACTORS
330
16
102
}
330
16
100
AcDbXrecord
280
     1
  1
wall
  1
*wall*
  1
*
  1
*
 70
     0
  1
*
  1
*
  0
XRECORD
  5
1C7
102
{ACAD_REACTORS
330
16
102
}
330
16
100
AcDbXrecord
280
     1
  1
wilmotte
  1
W*
  1
*
  1
*
 70
     0
  1
*
  1
*
  0
XRECORD
  5
1C8
102
{ACAD_REACTORS
330
16
102
}
330
16
100
AcDbXrecord
280
     1
  1
wilmotte_invisible
  1
W*
  1
*
  1
*
 70
     3
  1
*
  1
*
  0
XRECORD
  5
1C9
102
{ACAD_REACTORS
330
16
102
}
330
16
100
AcDbXrecord
280
     1
  1
wilmotte_visible
  1
W*
  1
*
  1
*
 70
    13
  1
*
  1
*
  0
XRECORD
  5
1CA
102
{ACAD_REACTORS
330
16
102
}
330
16
100
AcDbXrecord
280
     1
  1
work
  1
*
  1
*
  1
*
 70
     0
  1
*
  1
*
  0
XRECORD
  5
1CB
102
{ACAD_REACTORS
330
16
102
}
330
16
100
AcDbXrecord
280
     1
  1
XFFF
  1
XFFF*
  1
*
  1
*
 70
     0
  1
*
  1
*
  0
XRECORD
  5
1CC
102
{ACAD_REACTORS
330
16
102
}
330
16
100
AcDbXrecord
280
     1
  1
xref
  1
-*
  1
*
  1
*
 70
     0
  1
*
  1
*
  0
XRECORD
  5
1CD
102
{ACAD_REACTORS
330
16
102
}
330
16
100
AcDbXrecord
280
     1
  1
xref-des
  1
procvr0?n3|ocd*
  1
*
  1
*
 70
     0
  1
*
  1
*
  0
XRECORD
  5
1CE
102
{ACAD_REACTORS
330
16
102
}
330
16
100
AcDbXrecord
280
     1
  1
z1-des
  1
procvr01ss|ocd*
  1
*
  1
*
 70
     0
  1
*
  1
*
  0
XRECORD
  5
1CF
102
{ACAD_REACTORS
330
16
102
}
330
16
100
AcDbXrecord
280
     1
  1
z2-des
  1
procvr02ss|ocd*
  1
*
  1
*
 70
     0
  1
*
  1
*
  0
XRECORD
  5
1D0
102
{ACAD_REACTORS
330
16
102
}
330
16
100
AcDbXrecord
280
     1
  1
z3-des
  1
procvr03ss|ocd*
  1
*
  1
*
 70
     0
  1
*
  1
*
  0
XRECORD
  5
1D1
102
{ACAD_REACTORS
330
16
102
}
330
16
100
AcDbXrecord
280
     1
  1
za
  1
*za
  1
*
  1
*
 70
     0
  1
*
  1
*
  0
XRECORD
  5
1D2
102
{ACAD_REACTORS
330
16
102
}
330
16
100
AcDbXrecord
280
     1
  1
ZG
  1
*Z-G*
  1
*
  1
*
 70
     0
  1
*
  1
*
  0
XRECORD
  5
1D3
102
{ACAD_REACTORS
330
16
102
}
330
16
100
AcDbXrecord
280
     1
  1
zone-vdi
  1
zo*
  1
*
  1
*
 70
     0
  1
*
  1
*
  0
XRECORD
  5
1D4
102
{ACAD_REACTORS
330
16
102
}
330
16
100
AcDbXrecord
280
     1
  1
zones
  1
z*
  1
*
  1
*
 70
     0
  1
*
  1
*
  0
XRECORD
  5
1D5
102
{ACAD_REACTORS
330
16
102
}
330
16
100
AcDbXrecord
280
     1
  1
ztt-des
  1
procvr??ss|ocd*
  1
*
  1
*
 70
     0
  1
*
  1
*
  0
DICTIONARY
  5
30F
330
E
100
AcDbDictionary
280
     1
281
     1
  3
ACAD_XREC_ROUNDTRIP
360
310
  0
DICTIONARY
  5
311
330
13
100
AcDbDictionary
280
     1
281
     1
  3
ACAD_XREC_ROUNDTRIP
360
312
  0
DICTIONARY
  5
315
330
1EE
100
AcDbDictionary
280
     1
281
     1
  3
ACAD_XREC_ROUNDTRIP
360
316
  0
DICTIONARY
  5
313
330
1ED
100
AcDbDictionary
280
     1
281
     1
  3
ACAD_XREC_ROUNDTRIP
360
314
  0
DICTIONARY
  5
30D
330
A
100
AcDbDictionary
280
     1
281
     1
  3
ACAD_XREC_ROUNDTRIP
360
30E
  0
DICTIONARY
  5
317
330
1F3
100
AcDbDictionary
280
     1
281
     1
  3
ACAD_XREC_ROUNDTRIP
360
318
  0
XRECORD
  5
310
102
{ACAD_REACTORS
330
30F
102
}
330
30F
100
AcDbXrecord
280
     1
102
SHADEPLOT
 70
     0
102
SHADEPLOTRESLEVEL
 70
     2
102
SHADEPLOTCUSTOMDPI
 70
   300
  0
XRECORD
  5
312
102
{ACAD_REACTORS
330
311
102
}
330
311
100
AcDbXrecord
280
     1
102
SHADEPLOT
 70
     0
102
SHADEPLOTRESLEVEL
 70
     2
102
SHADEPLOTCUSTOMDPI
 70
   300
  0
XRECORD
  5
316
102
{ACAD_REACTORS
330
315
102
}
330
315
100
AcDbXrecord
280
     1
102
MATERIAL
148
0.0
149
0.0
149
0.0
 93
        0
 94
       63
282
     0
 72
     1
 77
     1
171
     1
175
     1
179
     1
273
     0
  0
XRECORD
  5
314
102
{ACAD_REACTORS
330
313
102
}
330
313
100
AcDbXrecord
280
     1
102
MATERIAL
148
0.0
149
0.0
149
0.0
 93
        0
 94
       63
282
     0
 72
     1
 77
     1
171
     1
175
     1
179
     1
273
     0
  0
XRECORD
  5
30E
102
{ACAD_REACTORS
330
30D
102
}
330
30D
100
AcDbXrecord
280
     1
102
MATERIAL
148
0.0
149
0.0
149
0.0
 93
        0
 94
       63
282
     0
 72
     1
 77
     1
171
     1
175
     1
179
     1
273
     0
  0
XRECORD
  5
318
102
{ACAD_REACTORS
330
317
102
}
330
317
100
AcDbXrecord
280
     1
102
ACAD_ROUNDTRIP_PRE2007_TABLESTYLE
 90
      512
 91
        0
  1

 92
      512
 93
        0
  2

 94
      512
 95
        0
  3

  0
ENDSEC
  0
EOF
