  0
SECTION
  2
HEADER
  9
$ACADVER
  1
AC1015
  9
$ACADMAINTVER
 70
    20
  9
$DWGCODEPAGE
  3
ANSI_1252
  9
$INSBASE
 10
-22709.93132445171
 20
38609.90184509387
 30
0.0
  9
$EXTMIN
 10
-22709.9342048494
 20
38504.90184914804
 30
-2248.877733849115
  9
$EXTMAX
 10
-22637.9342048494
 20
38609.90184914804
 30
-2248.877733849115
  9
$LIMMIN
 10
0.0
 20
0.0
  9
$LIMMAX
 10
420.0
 20
297.0
  9
$ORTHOMODE
 70
     1
  9
$REGENMODE
 70
     1
  9
$FILLMODE
 70
     1
  9
$QTEXTMODE
 70
     0
  9
$MIRRTEXT
 70
     1
  9
$LTSCALE
 40
16.0
  9
$ATTMODE
 70
     1
  9
$TEXTSIZE
 40
53.96816269751105
  9
$TRACEWID
 40
1.0
  9
$TEXTSTYLE
  7
ISOCP
  9
$CLAYER
  8
0
  9
$CELTYPE
  6
ByLayer
  9
$CECOLOR
 62
   256
  9
$CELTSCALE
 40
1.0
  9
$DISPSILH
 70
     1
  9
$DIMSCALE
 40
5.0
  9
$DIMASZ
 40
3.0
  9
$DIMEXO
 40
1.0
  9
$DIMDLI
 40
7.0
  9
$DIMRND
 40
0.0
  9
$DIMDLE
 40
0.0
  9
$DIMEXE
 40
2.0
  9
$DIMTP
 40
0.0
  9
$DIMTM
 40
0.0
  9
$DIMTXT
 40
2.0
  9
$DIMCEN
 40
2.5
  9
$DIMTSZ
 40
0.0
  9
$DIMTOL
 70
     0
  9
$DIMLIM
 70
     0
  9
$DIMTIH
 70
     0
  9
$DIMTOH
 70
     0
  9
$DIMSE1
 70
     0
  9
$DIMSE2
 70
     0
  9
$DIMTAD
 70
     1
  9
$DIMZIN
 70
     8
  9
$DIMBLK
  1

  9
$DIMASO
 70
     1
  9
$DIMSHO
 70
     1
  9
$DIMPOST
  1

  9
$DIMAPOST
  1

  9
$DIMALT
 70
     0
  9
$DIMALTD
 70
     3
  9
$DIMALTF
 40
0.03937007874016
  9
$DIMLFAC
 40
1.0
  9
$DIMTOFL
 70
     1
  9
$DIMTVP
 40
0.0
  9
$DIMTIX
 70
     0
  9
$DIMSOXD
 70
     0
  9
$DIMSAH
 70
     0
  9
$DIMBLK1
  1

  9
$DIMBLK2
  1

  9
$DIMSTYLE
  2
sadev_1-5
  9
$DIMCLRD
 70
   256
  9
$DIMCLRE
 70
   256
  9
$DIMCLRT
 70
    10
  9
$DIMTFAC
 40
1.0
  9
$DIMGAP
 40
0.5
  9
$DIMJUST
 70
     0
  9
$DIMSD1
 70
     0
  9
$DIMSD2
 70
     0
  9
$DIMTOLJ
 70
     0
  9
$DIMTZIN
 70
     8
  9
$DIMALTZ
 70
     0
  9
$DIMALTTZ
 70
     0
  9
$DIMUPT
 70
     0
  9
$DIMDEC
 70
     2
  9
$DIMTDEC
 70
     2
  9
$DIMALTU
 70
     2
  9
$DIMALTTD
 70
     3
  9
$DIMTXSTY
  7
cotation
  9
$DIMAUNIT
 70
     0
  9
$DIMADEC
 70
     0
  9
$DIMALTRND
 40
0.0
  9
$DIMAZIN
 70
     0
  9
$DIMDSEP
 70
    44
  9
$DIMATFIT
 70
     3
  9
$DIMFRAC
 70
     0
  9
$DIMLDRBLK
  1

  9
$DIMLUNIT
 70
     2
  9
$DIMLWD
 70
    -1
  9
$DIMLWE
 70
    -1
  9
$DIMTMOVE
 70
     0
  9
$LUNITS
 70
     2
  9
$LUPREC
 70
     4
  9
$SKETCHINC
 40
1.0
  9
$FILLETRAD
 40
10.0
  9
$AUNITS
 70
     0
  9
$AUPREC
 70
     0
  9
$MENU
  1
.
  9
$ELEVATION
 40
0.0
  9
$PELEVATION
 40
0.0
  9
$THICKNESS
 40
0.0
  9
$LIMCHECK
 70
     0
  9
$CHAMFERA
 40
10.0
  9
$CHAMFERB
 40
10.0
  9
$CHAMFERC
 40
20.0
  9
$CHAMFERD
 40
0.0
  9
$SKPOLY
 70
     0
  9
$TDCREATE
 40
2454468.434413449
  9
$TDUCREATE
 40
2454468.351080116
  9
$TDUPDATE
 40
2454608.430627130
  9
$TDUUPDATE
 40
2454608.347293797
  9
$TDINDWG
 40
0.2800572569
  9
$TDUSRTIMER
 40
0.2800563657
  9
$USRTIMER
 70
     1
  9
$ANGBASE
 50
0.0
  9
$ANGDIR
 70
     0
  9
$PDMODE
 70
     0
  9
$PDSIZE
 40
0.0
  9
$PLINEWID
 40
0.0
  9
$SPLFRAME
 70
     0
  9
$SPLINETYPE
 70
     6
  9
$SPLINESEGS
 70
     8
  9
$HANDSEED
  5
2F7
  9
$SURFTAB1
 70
     6
  9
$SURFTAB2
 70
     6
  9
$SURFTYPE
 70
     6
  9
$SURFU
 70
     6
  9
$SURFV
 70
     6
  9
$UCSBASE
  2

  9
$UCSNAME
  2

  9
$UCSORG
 10
0.0
 20
0.0
 30
0.0
  9
$UCSXDIR
 10
1.0
 20
0.0
 30
0.0
  9
$UCSYDIR
 10
0.0
 20
1.0
 30
0.0
  9
$UCSORTHOREF
  2

  9
$UCSORTHOVIEW
 70
     0
  9
$UCSORGTOP
 10
0.0
 20
0.0
 30
0.0
  9
$UCSORGBOTTOM
 10
0.0
 20
0.0
 30
0.0
  9
$UCSORGLEFT
 10
0.0
 20
0.0
 30
0.0
  9
$UCSORGRIGHT
 10
0.0
 20
0.0
 30
0.0
  9
$UCSORGFRONT
 10
0.0
 20
0.0
 30
0.0
  9
$UCSORGBACK
 10
0.0
 20
0.0
 30
0.0
  9
$PUCSBASE
  2

  9
$PUCSNAME
  2

  9
$PUCSORG
 10
0.0
 20
0.0
 30
0.0
  9
$PUCSXDIR
 10
1.0
 20
0.0
 30
0.0
  9
$PUCSYDIR
 10
0.0
 20
1.0
 30
0.0
  9
$PUCSORTHOREF
  2

  9
$PUCSORTHOVIEW
 70
     0
  9
$PUCSORGTOP
 10
0.0
 20
0.0
 30
0.0
  9
$PUCSORGBOTTOM
 10
0.0
 20
0.0
 30
0.0
  9
$PUCSORGLEFT
 10
0.0
 20
0.0
 30
0.0
  9
$PUCSORGRIGHT
 10
0.0
 20
0.0
 30
0.0
  9
$PUCSORGFRONT
 10
0.0
 20
0.0
 30
0.0
  9
$PUCSORGBACK
 10
0.0
 20
0.0
 30
0.0
  9
$USERI1
 70
     0
  9
$USERI2
 70
     0
  9
$USERI3
 70
     0
  9
$USERI4
 70
     0
  9
$USERI5
 70
     0
  9
$USERR1
 40
0.0
  9
$USERR2
 40
0.0
  9
$USERR3
 40
0.0
  9
$USERR4
 40
0.0
  9
$USERR5
 40
0.0
  9
$WORLDVIEW
 70
     1
  9
$SHADEDGE
 70
     3
  9
$SHADEDIF
 70
    70
  9
$TILEMODE
 70
     1
  9
$MAXACTVP
 70
    64
  9
$PINSBASE
 10
0.0
 20
0.0
 30
0.0
  9
$PLIMCHECK
 70
     0
  9
$PEXTMIN
 10
0.0
 20
0.0
 30
0.0
  9
$PEXTMAX
 10
210.0
 20
297.0
 30
0.0
  9
$PLIMMIN
 10
-0.2874896228714894
 20
-1.30719366923508
  9
$PLIMMAX
 10
209.6435101329879
 20
295.7458153639681
  9
$UNITMODE
 70
     0
  9
$VISRETAIN
 70
     1
  9
$PLINEGEN
 70
     0
  9
$PSLTSCALE
 70
     1
  9
$TREEDEPTH
 70
  3020
  9
$CMLSTYLE
  2
Standard
  9
$CMLJUST
 70
     0
  9
$CMLSCALE
 40
20.0
  9
$PROXYGRAPHICS
 70
     1
  9
$MEASUREMENT
 70
     1
  9
$CELWEIGHT
370
    -1
  9
$ENDCAPS
280
     0
  9
$JOINSTYLE
280
     0
  9
$LWDISPLAY
290
     0
  9
$INSUNITS
 70
     4
  9
$HYPERLINKBASE
  1

  9
$STYLESHEET
  1

  9
$XEDIT
290
     1
  9
$CEPSNTYPE
380
     0
  9
$PSTYLEMODE
290
     1
  9
$FINGERPRINTGUID
  2
{D39DA2BF-BD70-418D-8F2B-D71CA628F2E6}
  9
$VERSIONGUID
  2
{119B9752-09CE-4FE0-99F9-C28699F4B484}
  9
$EXTNAMES
290
     1
  9
$PSVPSCALE
 40
0.0
  9
$OLESTARTUP
290
     0
  0
ENDSEC
  0
SECTION
  2
CLASSES
  0
CLASS
  1
ACDBDICTIONARYWDFLT
  2
AcDbDictionaryWithDefault
  3
ObjectDBX Classes
 90
        0
280
     0
281
     0
  0
CLASS
  1
ACDBPLACEHOLDER
  2
AcDbPlaceHolder
  3
ObjectDBX Classes
 90
        0
280
     0
281
     0
  0
CLASS
  1
LAYOUT
  2
AcDbLayout
  3
ObjectDBX Classes
 90
        0
280
     0
281
     0
  0
CLASS
  1
DICTIONARYVAR
  2
AcDbDictionaryVar
  3
ObjectDBX Classes
 90
        0
280
     0
281
     0
  0
CLASS
  1
MATERIAL
  2
AcDbMaterial
  3
ObjectDBX Classes
 90
     1024
280
     0
281
     0
  0
CLASS
  1
VISUALSTYLE
  2
AcDbVisualStyle
  3
ObjectDBX Classes
 90
     4095
280
     0
281
     0
  0
CLASS
  1
TABLESTYLE
  2
AcDbTableStyle
  3
ObjectDBX Classes
 90
     4095
280
     0
281
     0
  0
CLASS
  1
ACAD_EVALUATION_GRAPH
  2
AcDbEvalGraph
  3
ObjectDBX Classes
 90
    33921
280
     0
281
     0
  0
CLASS
  1
ACAECUSTOBJ
  2
AcAeEditorObj
  3
AcAeEditorObj
 90
    33792
280
     0
281
     0
  0
CLASS
  1
ACDB_DYNAMICBLOCKPURGEPREVENTER_VERSION
  2
AcDbDynamicBlockPurgePreventer
  3
ObjectDBX Classes
 90
    33921
280
     0
281
     0
  0
CLASS
  1
BLOCKBASEPOINTPARAMETER
  2
AcDbBlockBasepointParameter
  3
ObjectDBX Classes
 90
    33921
280
     0
281
     0
  0
CLASS
  1
BASEPOINTPARAMETERENTITY
  2
AcDbBlockBasepointParameterEntity
  3
ObjectDBX Classes
 90
    33793
280
     0
281
     1
  0
CLASS
  1
ACAEEEMGROBJ
  2
AcAeEEMgrObj
  3
AcAeEEMgrObj
 90
    33792
280
     0
281
     0
  0
CLASS
  1
SOLID_BACKGROUND
  2
AcDbSolidBackground
  3
SCENEOE
 90
    36863
280
     0
281
     0
  0
CLASS
  1
NPOCOLLECTION
  2
AcDbImpNonPersistentObjectsCollection
  3
ObjectDBX Classes
 90
    33921
280
     0
281
     0
  0
CLASS
  1
SORTENTSTABLE
  2
AcDbSortentsTable
  3
ObjectDBX Classes
 90
        0
280
     0
281
     0
  0
ENDSEC
  0
SECTION
  2
TABLES
  0
TABLE
  2
VPORT
  5
1DE
102
{ACAD_XDICTIONARY
360
2B8
102
}
330
0
100
AcDbSymbolTable
 70
     1
  0
VPORT
  5
1DF
330
1DE
100
AcDbSymbolTableRecord
100
AcDbViewportTableRecord
  2
*Active
 70
     0
 10
0.0
 20
0.0
 11
1.0
 21
1.0
 12
-22673.93420484939
 22
38557.40184914804
 13
0.0
 23
0.0
 14
10.0
 24
10.0
 15
10.0
 25
10.0
 16
0.0
 26
0.0
 36
1.0
 17
0.0
 27
0.0
 37
0.0
 40
105.8665749656065
 41
1.575757575757575
 42
50.0
 43
0.0
 44
0.0
 50
0.0
 51
0.0
 71
     0
 72
   100
 73
     1
 74
     1
 75
     0
 76
     0
 77
     0
 78
     0
281
     0
 65
     1
110
0.0
120
0.0
130
0.0
111
1.0
121
0.0
131
0.0
112
0.0
122
1.0
132
0.0
 79
     0
146
0.0
  0
ENDTAB
  0
TABLE
  2
LTYPE
  5
1D9
330
0
100
AcDbSymbolTable
 70
     1
  0
LTYPE
  5
1DA
330
1D9
100
AcDbSymbolTableRecord
100
AcDbLinetypeTableRecord
  2
ByBlock
 70
     0
  3

 72
    65
 73
     0
 40
0.0
  0
LTYPE
  5
1DB
330
1D9
100
AcDbSymbolTableRecord
100
AcDbLinetypeTableRecord
  2
ByLayer
 70
     0
  3

 72
    65
 73
     0
 40
0.0
  0
LTYPE
  5
C
330
1D9
100
AcDbSymbolTableRecord
100
AcDbLinetypeTableRecord
  2
Continuous
 70
     0
  3
Solid line
 72
    65
 73
     0
 40
0.0
  0
ENDTAB
  0
TABLE
  2
LAYER
  5
14
102
{ACAD_XDICTIONARY
360
15
102
}
330
0
100
AcDbSymbolTable
 70
     2
  0
LAYER
  5
6
330
14
100
AcDbSymbolTableRecord
100
AcDbLayerTableRecord
  2
0
 70
     0
 62
     7
  6
Continuous
370
    -3
390
7
  0
LAYER
  5
1F7
330
14
100
AcDbSymbolTableRecord
100
AcDbLayerTableRecord
  2
renvoi
 70
     0
 62
     7
  6
Continuous
370
    -3
390
7
  0
ENDTAB
  0
TABLE
  2
STYLE
  5
1D6
330
0
100
AcDbSymbolTable
 70
     3
  0
STYLE
  5
1D7
330
1D6
100
AcDbSymbolTableRecord
100
AcDbTextStyleTableRecord
  2
Standard
 70
     0
 40
0.0
 41
1.0
 50
0.0
 71
     0
 42
2.5
  3
txt
  4

  0
STYLE
  5
1F1
330
1D6
100
AcDbSymbolTableRecord
100
AcDbTextStyleTableRecord
  2
ISOCP
 70
     0
 40
0.0
 41
1.0
 50
0.0
 71
     0
 42
53.96816269751105
  3
isocp
  4

  0
STYLE
  5
1E6
330
1D6
100
AcDbSymbolTableRecord
100
AcDbTextStyleTableRecord
  2
cotation
 70
     0
 40
0.0
 41
1.0
 50
10.0
 71
     0
 42
2.5
  3
romans.shx
  4

  0
ENDTAB
  0
TABLE
  2
VIEW
  5
1DC
330
0
100
AcDbSymbolTable
 70
     0
  0
ENDTAB
  0
TABLE
  2
UCS
  5
1DD
330
0
100
AcDbSymbolTable
 70
     0
  0
ENDTAB
  0
TABLE
  2
APPID
  5
1E2
330
0
100
AcDbSymbolTable
 70
     1
  0
APPID
  5
1E3
330
1E2
100
AcDbSymbolTableRecord
100
AcDbRegAppTableRecord
  2
ACAD
 70
     0
  0
ENDTAB
  0
TABLE
  2
DIMSTYLE
  5
1E4
330
0
100
AcDbSymbolTable
 70
     3
100
AcDbDimStyleTable
 71
     1
340
1E5
  0
DIMSTYLE
105
1E5
330
1E4
100
AcDbSymbolTableRecord
100
AcDbDimStyleTableRecord
  2
sadev_1-5
 70
     0
 40
5.0
 41
3.0
 42
1.0
 43
7.0
 44
2.0
 73
     0
 74
     0
 77
     1
 78
     8
140
2.0
141
2.5
143
0.03937007874016
147
0.5
171
     3
172
     1
176
   256
177
   256
178
    10
271
     2
272
     2
274
     3
278
    44
283
     0
284
     8
340
1E6
371
    -1
372
    -1
  0
ENDTAB
  0
TABLE
  2
BLOCK_RECORD
  5
1
330
0
100
AcDbSymbolTable
 70
     0
  0
BLOCK_RECORD
  5
2
102
{ACAD_XDICTIONARY
360
3
102
}
330
1
100
AcDbSymbolTableRecord
100
AcDbBlockTableRecord
  2
*Model_Space
340
E
  0
BLOCK_RECORD
  5
10
330
1
100
AcDbSymbolTableRecord
100
AcDbBlockTableRecord
  2
*Paper_Space
340
13
  0
ENDTAB
  0
ENDSEC
  0
SECTION
  2
BLOCKS
  0
BLOCK
  5
5
330
2
100
AcDbEntity
  8
0
100
AcDbBlockBegin
  2
*Model_Space
 70
     0
 10
0.0
 20
0.0
 30
0.0
  3
*Model_Space
  1

  0
ENDBLK
  5
D
330
2
100
AcDbEntity
  8
0
100
AcDbBlockEnd
  0
BLOCK
  5
11
330
10
100
AcDbEntity
 67
     1
  8
0
100
AcDbBlockBegin
  2
*Paper_Space
 70
     0
 10
0.0
 20
0.0
 30
0.0
  3
*Paper_Space
  1

  0
ENDBLK
  5
12
330
10
100
AcDbEntity
 67
     1
  8
0
100
AcDbBlockEnd
  0
ENDSEC
  0
SECTION
  2
ENTITIES
  0
LINE
  5
1F6
330
2
100
AcDbEntity
  8
renvoi
 62
     1
100
AcDbLine
 10
-22647.9342048494
 20
38608.40184914804
 30
-2248.877733849115
 11
-22641.9342048494
 21
38608.40184914804
 31
-2248.877733849115
  0
LINE
  5
1F8
330
2
100
AcDbEntity
  8
renvoi
 62
     1
100
AcDbLine
 10
-22677.9342048494
 20
38608.40184914804
 30
-2248.877733849115
 11
-22683.9342048494
 21
38608.40184914804
 31
-2248.877733849115
  0
LINE
  5
1F9
330
2
100
AcDbEntity
  8
renvoi
 62
     1
100
AcDbLine
 10
-22683.9342048494
 20
38608.40184914804
 30
-2248.877733849115
 11
-22687.4342048494
 21
38604.90184914804
 31
-2248.877733849115
  0
LINE
  5
1FA
330
2
100
AcDbEntity
  8
renvoi
 62
     1
100
AcDbLine
 10
-22677.9342048494
 20
38608.40184914804
 30
-2248.877733849115
 11
-22674.4342048494
 21
38604.90184914804
 31
-2248.877733849115
  0
LINE
  5
1FB
330
2
100
AcDbEntity
  8
renvoi
 62
     1
100
AcDbLine
 10
-22683.9342048494
 20
38609.90184914804
 30
-2248.877733849115
 11
-22683.9342048494
 21
38608.40184914804
 31
-2248.877733849115
  0
LINE
  5
1FC
330
2
100
AcDbEntity
  8
renvoi
 62
     1
100
AcDbLine
 10
-22677.9342048494
 20
38609.90184914804
 30
-2248.877733849115
 11
-22677.9342048494
 21
38608.40184914804
 31
-2248.877733849115
  0
LINE
  5
1FD
330
2
100
AcDbEntity
  8
renvoi
 62
     1
100
AcDbLine
 10
-22647.9342048494
 20
38608.40184914804
 30
-2248.877733849115
 11
-22651.4342048494
 21
38604.90184914804
 31
-2248.877733849115
  0
LINE
  5
1FE
330
2
100
AcDbEntity
  8
renvoi
 62
     1
100
AcDbLine
 10
-22641.9342048494
 20
38608.40184914804
 30
-2248.877733849115
 11
-22638.4342048494
 21
38604.90184914804
 31
-2248.877733849115
  0
LINE
  5
1FF
330
2
100
AcDbEntity
  8
renvoi
 62
     1
100
AcDbLine
 10
-22641.9342048494
 20
38608.40184914804
 30
-2248.877733849115
 11
-22641.9342048494
 21
38609.90184914804
 31
-2248.877733849115
  0
LINE
  5
200
330
2
100
AcDbEntity
  8
renvoi
 62
     1
100
AcDbLine
 10
-22647.9342048494
 20
38608.40184914804
 30
-2248.877733849115
 11
-22647.9342048494
 21
38609.90184914804
 31
-2248.877733849115
  0
LINE
  5
201
330
2
100
AcDbEntity
  8
renvoi
100
AcDbLine
 10
-22687.9342048494
 20
38609.90184914804
 30
-2248.877733849115
 11
-22637.9342048494
 21
38609.90184914804
 31
-2248.877733849115
  0
LINE
  5
202
330
2
100
AcDbEntity
  8
renvoi
100
AcDbLine
 10
-22687.9342048494
 20
38604.90184914804
 30
-2248.877733849115
 11
-22637.9342048494
 21
38604.90184914804
 31
-2248.877733849115
  0
LINE
  5
203
330
2
100
AcDbEntity
  8
renvoi
100
AcDbLine
 10
-22638.4173223192
 20
38601.77299684721
 30
-2248.877733849115
 11
-22687.45108737959
 21
38601.77299684721
 31
-2248.877733849115
  0
LINE
  5
204
330
2
100
AcDbEntity
  8
renvoi
100
AcDbLine
 10
-22637.9342048494
 20
38602.40182817248
 30
-2248.877733849115
 11
-22687.9342048494
 21
38602.40182817248
 31
-2248.877733849115
  0
LINE
  5
205
330
2
100
AcDbEntity
  8
renvoi
100
AcDbLine
 10
-22637.9342048494
 20
38604.40182817248
 30
-2248.877733849115
 11
-22687.9342048494
 21
38604.40182817248
 31
-2248.877733849115
  0
LINE
  5
206
330
2
100
AcDbEntity
  8
renvoi
100
AcDbLine
 10
-22638.4342048494
 20
38604.90182817249
 30
-2248.877733849115
 11
-22687.4342048494
 21
38604.90182817249
 31
-2248.877733849115
  0
LINE
  5
207
330
2
100
AcDbEntity
  8
renvoi
100
AcDbLine
 10
-22664.02107700765
 20
38599.90182817249
 30
-2248.877733849115
 11
-22680.40042106561
 21
38599.90182817249
 31
-2248.877733849115
  0
LINE
  5
208
330
2
100
AcDbEntity
  8
renvoi
100
AcDbLine
 10
-22645.46798863318
 20
38599.90182817249
 30
-2248.877733849115
 11
-22661.84733269115
 21
38599.90182817249
 31
-2248.877733849115
  0
LINE
  5
209
330
2
100
AcDbEntity
  8
renvoi
100
AcDbLine
 10
-22661.84733269115
 20
38599.90182817249
 30
-2248.877733849115
 11
-22664.02107700765
 21
38599.90182817249
 31
-2248.877733849115
  0
SPLINE
  5
20A
330
2
100
AcDbEntity
  8
renvoi
100
AcDbSpline
210
0.0
220
0.0
230
1.0
 70
     8
 71
     3
 72
    47
 73
    43
 74
     0
 42
0.0000000001
 43
0.0000000001
 40
-1.000272431355572
 40
-1.000272431355572
 40
-1.000272431355572
 40
-1.000272431355572
 40
-0.5549066477789513
 40
-0.5549066477789513
 40
0.0
 40
0.0
 40
0.0
 40
0.3059823426554415
 40
0.3059823426554415
 40
0.6119646853108831
 40
0.6119646853108831
 40
0.9179470279663245
 40
0.9179470279663245
 40
1.223929370621766
 40
1.223929370621766
 40
1.523888743937891
 40
1.523888743937891
 40
1.823848117254017
 40
1.823848117254017
 40
2.123807490570142
 40
2.123807490570142
 40
2.423766863886267
 40
2.423766863886267
 40
2.723726237202393
 40
2.723726237202393
 40
3.023685610518519
 40
3.023685610518519
 40
3.323644983834645
 40
3.323644983834645
 40
3.623604357150771
 40
3.623604357150771
 40
3.929586699806213
 40
3.929586699806213
 40
4.235569042461654
 40
4.235569042461654
 40
4.541551385117095
 40
4.541551385117095
 40
4.847533727772537
 40
4.847533727772537
 40
5.402440375551494
 40
5.402440375551494
 40
5.847806159128142
 40
5.847806159128142
 40
5.847806159128142
 40
5.847806159128142
 10
-22664.02107700765
 20
38599.90182817249
 30
-2248.877733849115
 10
-22664.12376841549
 20
38599.9322640108
 30
-2248.877733849115
 10
-22664.21359044983
 20
38599.96798460449
 30
-2248.877733849115
 10
-22664.36547015381
 20
38600.05346249471
 30
-2248.877733849115
 10
-22664.41477502649
 20
38600.10459231049
 30
-2248.877733849115
 10
-22664.42926611274
 20
38600.15225188305
 30
-2248.877733849115
 10
-22664.43725667573
 20
38600.17853195686
 30
-2248.877733849115
 10
-22664.43568566714
 20
38600.20569982517
 30
-2248.877733849115
 10
-22664.41067284906
 20
38600.25970565219
 30
-2248.877733849115
 10
-22664.38724069556
 20
38600.28654456231
 30
-2248.877733849115
 10
-22664.31918180187
 20
38600.33801032572
 30
-2248.877733849115
 10
-22664.27449891973
 20
38600.36268008426
 30
-2248.877733849115
 10
-22664.16741424255
 20
38600.40833661547
 30
-2248.877733849115
 10
-22664.10500168785
 20
38600.4293236946
 30
-2248.877733849115
 10
-22663.97038989813
 20
38600.46617172852
 30
-2248.877733849115
 10
-22663.89412785023
 20
38600.48329166523
 30
-2248.877733849115
 10
-22663.72627160889
 20
38600.51347586857
 30
-2248.877733849115
 10
-22663.63468260226
 20
38600.52654382269
 30
-2248.877733849115
 10
-22663.44229140833
 20
38600.54755575425
 30
-2248.877733849115
 10
-22663.34131106955
 20
38600.55552024578
 30
-2248.877733849115
 10
-22663.13726217358
 20
38600.56599090702
 30
-2248.877733849115
 10
-22663.03419130717
 20
38600.56849483916
 30
-2248.877733849115
 10
-22662.83421839163
 20
38600.56849483916
 30
-2248.877733849115
 10
-22662.73114752522
 20
38600.56599090702
 30
-2248.877733849115
 10
-22662.52709862925
 20
38600.55552024578
 30
-2248.877733849115
 10
-22662.42611829046
 20
38600.54755575425
 30
-2248.877733849115
 10
-22662.23372709653
 20
38600.52654382269
 30
-2248.877733849115
 10
-22662.14213808991
 20
38600.51347586857
 30
-2248.877733849115
 10
-22661.97428184856
 20
38600.48329166523
 30
-2248.877733849115
 10
-22661.89801980067
 20
38600.46617172852
 30
-2248.877733849115
 10
-22661.76340801094
 20
38600.4293236946
 30
-2248.877733849115
 10
-22661.70099545625
 20
38600.40833661547
 30
-2248.877733849115
 10
-22661.59391077906
 20
38600.36268008426
 30
-2248.877733849115
 10
-22661.54922789693
 20
38600.33801032572
 30
-2248.877733849115
 10
-22661.48116900324
 20
38600.28654456231
 30
-2248.877733849115
 10
-22661.45773684974
 20
38600.25970565219
 30
-2248.877733849115
 10
-22661.43272403165
 20
38600.20569982517
 30
-2248.877733849115
 10
-22661.43115302307
 20
38600.17853195686
 30
-2248.877733849115
 10
-22661.4536346723
 20
38600.10459231049
 30
-2248.877733849115
 10
-22661.50293954498
 20
38600.05346249471
 30
-2248.877733849115
 10
-22661.65481924896
 20
38599.96798460449
 30
-2248.877733849115
 10
-22661.74464128331
 20
38599.9322640108
 30
-2248.877733849115
 10
-22661.84733269115
 20
38599.90182817249
 30
-2248.877733849115
  0
SPLINE
  5
20B
330
2
100
AcDbEntity
  8
renvoi
100
AcDbSpline
210
0.0
220
0.0
230
1.0
 70
     8
 71
     3
 72
    27
 73
    23
 74
     0
 42
0.0000000001
 43
0.0000000001
 40
-1.000272431355579
 40
-1.000272431355579
 40
-1.000272431355579
 40
-1.000272431355579
 40
-0.554906647778946
 40
-0.554906647778946
 40
0.0
 40
0.0
 40
0.0
 40
0.3059823426554431
 40
0.3059823426554431
 40
0.6119646853108863
 40
0.6119646853108863
 40
0.9179470279663293
 40
0.9179470279663293
 40
1.223929370621772
 40
1.223929370621772
 40
1.523888743937895
 40
1.523888743937895
 40
1.823848117254017
 40
1.823848117254017
 40
2.12380749057014
 40
2.12380749057014
 40
2.423766863886263
 40
2.423766863886263
 40
2.423766863886263
 40
2.423766863886263
 10
-22645.46798863318
 20
38599.90182817249
 30
-2248.877733849115
 10
-22645.36002366621
 20
38599.9322640108
 30
-2248.877733849115
 10
-22645.23219917977
 20
38599.96798460449
 30
-2248.877733849115
 10
-22644.92221234737
 20
38600.05346249471
 30
-2248.877733849115
 10
-22644.73396142292
 20
38600.10459231049
 30
-2248.877733849115
 10
-22644.55582647102
 20
38600.15225188305
 30
-2248.877733849115
 10
-22644.45760067014
 20
38600.17853195686
 30
-2248.877733849115
 10
-22644.35524799801
 20
38600.20569982517
 30
-2248.877733849115
 10
-22644.15009030156
 20
38600.25970565219
 30
-2248.877733849115
 10
-22644.04728435054
 20
38600.28654456231
 30
-2248.877733849115
 10
-22643.84866282722
 20
38600.33801032572
 30
-2248.877733849115
 10
-22643.75268750219
 20
38600.36268008426
 30
-2248.877733849115
 10
-22643.57394402727
 20
38600.40833661547
 30
-2248.877733849115
 10
-22643.49118240195
 20
38600.4293236946
 30
-2248.877733849115
 10
-22643.34517541608
 20
38600.46617172852
 30
-2248.877733849115
 10
-22643.2769505594
 20
38600.48329166523
 30
-2248.877733849115
 10
-22643.15619080107
 20
38600.51347586857
 30
-2248.877733849115
 10
-22643.10364961158
 20
38600.52654382269
 30
-2248.877733849115
 10
-22643.0189683427
 20
38600.54755575425
 30
-2248.877733849115
 10
-22642.9867509888
 20
38600.55552024578
 30
-2248.877733849115
 10
-22642.94436395986
 20
38600.56599090702
 30
-2248.877733849115
 10
-22642.9342048494
 20
38600.56849483916
 30
-2248.877733849115
 10
-22642.9342048494
 20
38600.56849483916
 30
-2248.877733849115
  0
SPLINE
  5
20C
330
2
100
AcDbEntity
  8
renvoi
100
AcDbSpline
210
0.0
220
0.0
230
1.0
 70
     8
 71
     3
 72
    27
 73
    23
 74
     0
 42
0.0000000001
 43
0.0000000001
 40
-2.423766863886235
 40
-2.423766863886235
 40
-2.423766863886235
 40
-2.423766863886235
 40
-2.123807490570111
 40
-2.123807490570111
 40
-1.823848117253987
 40
-1.823848117253987
 40
-1.523888743937863
 40
-1.523888743937863
 40
-1.223929370621738
 40
-1.223929370621738
 40
-0.9179470279663046
 40
-0.9179470279663046
 40
-0.6119646853108698
 40
-0.6119646853108698
 40
-0.3059823426554349
 40
-0.3059823426554349
 40
0.0
 40
0.0
 40
0.0
 40
0.5549066477789511
 40
0.5549066477789511
 40
1.000272431355579
 40
1.000272431355579
 40
1.000272431355579
 40
1.000272431355579
 10
-22682.9342048494
 20
38600.56849483916
 30
-2248.877733849115
 10
-22682.9342048494
 20
38600.56849483916
 30
-2248.877733849115
 10
-22682.92404573894
 20
38600.56599090702
 30
-2248.877733849115
 10
-22682.88165871
 20
38600.55552024578
 30
-2248.877733849115
 10
-22682.84944135609
 20
38600.54755575425
 30
-2248.877733849115
 10
-22682.76476008722
 20
38600.52654382269
 30
-2248.877733849115
 10
-22682.71221889774
 20
38600.51347586857
 30
-2248.877733849115
 10
-22682.5914591394
 20
38600.48329166523
 30
-2248.877733849115
 10
-22682.52323428272
 20
38600.46617172852
 30
-2248.877733849115
 10
-22682.37722729685
 20
38600.4293236946
 30
-2248.877733849115
 10
-22682.29446567153
 20
38600.40833661547
 30
-2248.877733849115
 10
-22682.1157221966
 20
38600.36268008426
 30
-2248.877733849115
 10
-22682.01974687158
 20
38600.33801032572
 30
-2248.877733849115
 10
-22681.82112534825
 20
38600.28654456231
 30
-2248.877733849115
 10
-22681.71831939723
 20
38600.25970565219
 30
-2248.877733849115
 10
-22681.51316170079
 20
38600.20569982517
 30
-2248.877733849115
 10
-22681.41080902866
 20
38600.17853195686
 30
-2248.877733849115
 10
-22681.31258322778
 20
38600.15225188305
 30
-2248.877733849115
 10
-22681.13444827587
 20
38600.10459231049
 30
-2248.877733849115
 10
-22680.94619735143
 20
38600.05346249471
 30
-2248.877733849115
 10
-22680.63621051903
 20
38599.96798460449
 30
-2248.877733849115
 10
-22680.50838603259
 20
38599.9322640108
 30
-2248.877733849115
 10
-22680.40042106561
 20
38599.90182817249
 30
-2248.877733849115
  0
LINE
  5
20D
330
2
100
AcDbEntity
  8
renvoi
100
AcDbLine
 10
-22683.9342048494
 20
38540.90184914804
 30
-2248.877733849115
 11
-22683.9342048494
 21
38518.90184914804
 31
-2248.877733849115
  0
LINE
  5
20E
330
2
100
AcDbEntity
  8
renvoi
100
AcDbLine
 10
-22695.9342048494
 20
38541.90184914804
 30
-2248.877733849115
 11
-22695.9342048494
 21
38517.90184914804
 31
-2248.877733849115
  0
LINE
  5
20F
330
2
100
AcDbEntity
  8
renvoi
100
AcDbLine
 10
-22696.9342048494
 20
38541.79184914804
 30
-2248.877733849115
 11
-22696.9342048494
 21
38518.01184914804
 31
-2248.877733849115
  0
LINE
  5
210
330
2
100
AcDbEntity
  8
renvoi
100
AcDbLine
 10
-22697.9342048494
 20
38541.79184914804
 30
-2248.877733849115
 11
-22697.9342048494
 21
38518.01184914804
 31
-2248.877733849115
  0
LINE
  5
211
330
2
100
AcDbEntity
  8
renvoi
100
AcDbLine
 10
-22698.9342048494
 20
38541.79184914804
 30
-2248.877733849115
 11
-22698.9342048494
 21
38518.01184914804
 31
-2248.877733849115
  0
LINE
  5
212
330
2
100
AcDbEntity
  8
renvoi
100
AcDbLine
 10
-22699.9342048494
 20
38541.79184914804
 30
-2248.877733849115
 11
-22699.9342048494
 21
38518.01184914804
 31
-2248.877733849115
  0
LINE
  5
213
330
2
100
AcDbEntity
  8
renvoi
100
AcDbLine
 10
-22700.9342048494
 20
38541.79184914804
 30
-2248.877733849115
 11
-22700.9342048494
 21
38518.01184914804
 31
-2248.877733849115
  0
LINE
  5
214
330
2
100
AcDbEntity
  8
renvoi
100
AcDbLine
 10
-22701.9342048494
 20
38541.79184914804
 30
-2248.877733849115
 11
-22701.9342048494
 21
38518.01184914804
 31
-2248.877733849115
  0
LINE
  5
215
330
2
100
AcDbEntity
  8
renvoi
100
AcDbLine
 10
-22702.9342048494
 20
38541.79184914804
 30
-2248.877733849115
 11
-22702.9342048494
 21
38518.01184914804
 31
-2248.877733849115
  0
LINE
  5
216
330
2
100
AcDbEntity
  8
renvoi
100
AcDbLine
 10
-22668.4342048494
 20
38535.40184914804
 30
-2248.877733849115
 11
-22668.4342048494
 21
38524.40184914804
 31
-2248.877733849115
  0
LINE
  5
217
330
2
100
AcDbEntity
  8
renvoi
100
AcDbLine
 10
-22709.9342048494
 20
38505.40184914804
 30
-2248.877733849115
 11
-22709.9342048494
 21
38554.40184914804
 31
-2248.877733849115
  0
LINE
  5
218
330
2
100
AcDbEntity
  8
renvoi
100
AcDbLine
 10
-22708.9342048494
 20
38505.40184914804
 30
-2248.877733849115
 11
-22708.9342048494
 21
38554.40184914804
 31
-2248.877733849115
  0
LINE
  5
219
330
2
100
AcDbEntity
  8
renvoi
100
AcDbLine
 10
-22650.4342048494
 20
38535.90184914804
 30
-2248.877733849115
 11
-22650.4342048494
 21
38523.90184914804
 31
-2248.877733849115
  0
LINE
  5
21A
330
2
100
AcDbEntity
  8
renvoi
100
AcDbLine
 10
-22705.80535254857
 20
38554.41873167824
 30
-2248.877733849115
 11
-22705.80535254857
 21
38505.38496661784
 31
-2248.877733849115
  0
LINE
  5
21B
330
2
100
AcDbEntity
  8
renvoi
100
AcDbLine
 10
-22706.43418387385
 20
38554.90184914804
 30
-2248.877733849115
 11
-22706.43418387385
 21
38504.90184914804
 31
-2248.877733849115
  0
LINE
  5
21C
330
2
100
AcDbEntity
  8
renvoi
100
AcDbLine
 10
-22708.43418387385
 20
38554.90184914804
 30
-2248.877733849115
 11
-22708.43418387385
 21
38504.90184914804
 31
-2248.877733849115
  0
LINE
  5
21D
330
2
100
AcDbEntity
  8
renvoi
100
AcDbLine
 10
-22708.93418387385
 20
38554.40184914804
 30
-2248.877733849115
 11
-22708.93418387385
 21
38505.40184914804
 31
-2248.877733849115
  0
LINE
  5
21E
330
2
100
AcDbEntity
  8
renvoi
100
AcDbLine
 10
-22703.93418387385
 20
38528.81497698979
 30
-2248.877733849115
 11
-22703.93418387385
 21
38512.43563293182
 31
-2248.877733849115
  0
LINE
  5
21F
330
2
100
AcDbEntity
  8
renvoi
100
AcDbLine
 10
-22703.93418387385
 20
38547.36806536426
 30
-2248.877733849115
 11
-22703.93418387385
 21
38530.98872130629
 31
-2248.877733849115
  0
LINE
  5
220
330
2
100
AcDbEntity
  8
renvoi
100
AcDbLine
 10
-22703.93418387385
 20
38530.98872130629
 30
-2248.877733849115
 11
-22703.93418387385
 21
38528.81497698979
 31
-2248.877733849115
  0
SPLINE
  5
221
330
2
100
AcDbEntity
  8
renvoi
100
AcDbSpline
210
0.0
220
0.0
230
1.0
 70
     8
 71
     3
 72
    47
 73
    43
 74
     0
 42
0.0000000001
 43
0.0000000001
 40
-1.000272431355572
 40
-1.000272431355572
 40
-1.000272431355572
 40
-1.000272431355572
 40
-0.5549066477789513
 40
-0.5549066477789513
 40
0.0
 40
0.0
 40
0.0
 40
0.3059823426554415
 40
0.3059823426554415
 40
0.6119646853108831
 40
0.6119646853108831
 40
0.9179470279663245
 40
0.9179470279663245
 40
1.223929370621766
 40
1.223929370621766
 40
1.523888743937891
 40
1.523888743937891
 40
1.823848117254017
 40
1.823848117254017
 40
2.123807490570142
 40
2.123807490570142
 40
2.423766863886267
 40
2.423766863886267
 40
2.723726237202393
 40
2.723726237202393
 40
3.023685610518519
 40
3.023685610518519
 40
3.323644983834645
 40
3.323644983834645
 40
3.623604357150771
 40
3.623604357150771
 40
3.929586699806213
 40
3.929586699806213
 40
4.235569042461654
 40
4.235569042461654
 40
4.541551385117095
 40
4.541551385117095
 40
4.847533727772537
 40
4.847533727772537
 40
5.402440375551494
 40
5.402440375551494
 40
5.847806159128142
 40
5.847806159128142
 40
5.847806159128142
 40
5.847806159128142
 10
-22703.93418387385
 20
38528.81497698979
 30
-2248.877733849115
 10
-22703.96461971216
 20
38528.71228558195
 30
-2248.877733849115
 10
-22704.00034030585
 20
38528.6224635476
 30
-2248.877733849115
 10
-22704.08581819606
 20
38528.47058384363
 30
-2248.877733849115
 10
-22704.13694801185
 20
38528.42127897094
 30
-2248.877733849115
 10
-22704.18460758441
 20
38528.4067878847
 30
-2248.877733849115
 10
-22704.21088765822
 20
38528.39879732172
 30
-2248.877733849115
 10
-22704.23805552653
 20
38528.40036833029
 30
-2248.877733849115
 10
-22704.29206135355
 20
38528.42538114838
 30
-2248.877733849115
 10
-22704.31890026367
 20
38528.44881330188
 30
-2248.877733849115
 10
-22704.37036602709
 20
38528.51687219557
 30
-2248.877733849115
 10
-22704.39503578561
 20
38528.56155507771
 30
-2248.877733849115
 10
-22704.44069231682
 20
38528.66863975489
 30
-2248.877733849115
 10
-22704.46167939596
 20
38528.73105230958
 30
-2248.877733849115
 10
-22704.49852742989
 20
38528.86566409932
 30
-2248.877733849115
 10
-22704.51564736659
 20
38528.94192614721
 30
-2248.877733849115
 10
-22704.54583156994
 20
38529.10978238855
 30
-2248.877733849115
 10
-22704.55889952406
 20
38529.20137139518
 30
-2248.877733849115
 10
-22704.5799114556
 20
38529.3937625891
 30
-2248.877733849115
 10
-22704.58787594714
 20
38529.49474292789
 30
-2248.877733849115
 10
-22704.59834660838
 20
38529.69879182385
 30
-2248.877733849115
 10
-22704.60085054052
 20
38529.80186269027
 30
-2248.877733849115
 10
-22704.60085054052
 20
38530.00183560581
 30
-2248.877733849115
 10
-22704.59834660838
 20
38530.10490647223
 30
-2248.877733849115
 10
-22704.58787594714
 20
38530.30895536819
 30
-2248.877733849115
 10
-22704.5799114556
 20
38530.40993570698
 30
-2248.877733849115
 10
-22704.55889952406
 20
38530.6023269009
 30
-2248.877733849115
 10
-22704.54583156994
 20
38530.69391590754
 30
-2248.877733849115
 10
-22704.51564736659
 20
38530.86177214888
 30
-2248.877733849115
 10
-22704.49852742989
 20
38530.93803419676
 30
-2248.877733849115
 10
-22704.46167939596
 20
38531.0726459865
 30
-2248.877733849115
 10
-22704.44069231682
 20
38531.13505854119
 30
-2248.877733849115
 10
-22704.39503578561
 20
38531.24214321838
 30
-2248.877733849115
 10
-22704.37036602709
 20
38531.28682610051
 30
-2248.877733849115
 10
-22704.31890026367
 20
38531.3548849942
 30
-2248.877733849115
 10
-22704.29206135355
 20
38531.3783171477
 30
-2248.877733849115
 10
-22704.23805552653
 20
38531.40332996579
 30
-2248.877733849115
 10
-22704.21088765822
 20
38531.40490097437
 30
-2248.877733849115
 10
-22704.13694801185
 20
38531.38241932514
 30
-2248.877733849115
 10
-22704.08581819606
 20
38531.33311445246
 30
-2248.877733849115
 10
-22704.00034030585
 20
38531.18123474848
 30
-2248.877733849115
 10
-22703.96461971216
 20
38531.09141271413
 30
-2248.877733849115
 10
-22703.93418387385
 20
38530.98872130629
 30
-2248.877733849115
  0
SPLINE
  5
222
330
2
100
AcDbEntity
  8
renvoi
100
AcDbSpline
210
0.0
220
0.0
230
1.0
 70
     8
 71
     3
 72
    27
 73
    23
 74
     0
 42
0.0000000001
 43
0.0000000001
 40
-1.000272431355579
 40
-1.000272431355579
 40
-1.000272431355579
 40
-1.000272431355579
 40
-0.554906647778946
 40
-0.554906647778946
 40
0.0
 40
0.0
 40
0.0
 40
0.3059823426554431
 40
0.3059823426554431
 40
0.6119646853108863
 40
0.6119646853108863
 40
0.9179470279663293
 40
0.9179470279663293
 40
1.223929370621772
 40
1.223929370621772
 40
1.523888743937895
 40
1.523888743937895
 40
1.823848117254017
 40
1.823848117254017
 40
2.12380749057014
 40
2.12380749057014
 40
2.423766863886263
 40
2.423766863886263
 40
2.423766863886263
 40
2.423766863886263
 10
-22703.93418387385
 20
38547.36806536426
 30
-2248.877733849115
 10
-22703.96461971216
 20
38547.47603033123
 30
-2248.877733849115
 10
-22704.00034030585
 20
38547.60385481767
 30
-2248.877733849115
 10
-22704.08581819606
 20
38547.91384165007
 30
-2248.877733849115
 10
-22704.13694801185
 20
38548.10209257451
 30
-2248.877733849115
 10
-22704.18460758441
 20
38548.28022752642
 30
-2248.877733849115
 10
-22704.21088765822
 20
38548.3784533273
 30
-2248.877733849115
 10
-22704.23805552653
 20
38548.48080599943
 30
-2248.877733849115
 10
-22704.29206135355
 20
38548.68596369588
 30
-2248.877733849115
 10
-22704.31890026367
 20
38548.7887696469
 30
-2248.877733849115
 10
-22704.37036602709
 20
38548.98739117023
 30
-2248.877733849115
 10
-22704.39503578561
 20
38549.08336649525
 30
-2248.877733849115
 10
-22704.44069231682
 20
38549.26210997017
 30
-2248.877733849115
 10
-22704.46167939596
 20
38549.3448715955
 30
-2248.877733849115
 10
-22704.49852742989
 20
38549.49087858136
 30
-2248.877733849115
 10
-22704.51564736659
 20
38549.55910343804
 30
-2248.877733849115
 10
-22704.54583156994
 20
38549.67986319638
 30
-2248.877733849115
 10
-22704.55889952406
 20
38549.73240438586
 30
-2248.877733849115
 10
-22704.5799114556
 20
38549.81708565473
 30
-2248.877733849115
 10
-22704.58787594714
 20
38549.84930300864
 30
-2248.877733849115
 10
-22704.59834660838
 20
38549.89169003758
 30
-2248.877733849115
 10
-22704.60085054052
 20
38549.90184914804
 30
-2248.877733849115
 10
-22704.60085054052
 20
38549.90184914804
 30
-2248.877733849115
  0
SPLINE
  5
223
330
2
100
AcDbEntity
  8
renvoi
100
AcDbSpline
210
0.0
220
0.0
230
1.0
 70
     8
 71
     3
 72
    27
 73
    23
 74
     0
 42
0.0000000001
 43
0.0000000001
 40
-2.423766863886235
 40
-2.423766863886235
 40
-2.423766863886235
 40
-2.423766863886235
 40
-2.123807490570111
 40
-2.123807490570111
 40
-1.823848117253987
 40
-1.823848117253987
 40
-1.523888743937863
 40
-1.523888743937863
 40
-1.223929370621738
 40
-1.223929370621738
 40
-0.9179470279663046
 40
-0.9179470279663046
 40
-0.6119646853108698
 40
-0.6119646853108698
 40
-0.3059823426554349
 40
-0.3059823426554349
 40
0.0
 40
0.0
 40
0.0
 40
0.5549066477789511
 40
0.5549066477789511
 40
1.000272431355579
 40
1.000272431355579
 40
1.000272431355579
 40
1.000272431355579
 10
-22704.60085054052
 20
38509.90184914804
 30
-2248.877733849115
 10
-22704.60085054052
 20
38509.90184914804
 30
-2248.877733849115
 10
-22704.59834660838
 20
38509.9120082585
 30
-2248.877733849115
 10
-22704.58787594714
 20
38509.95439528744
 30
-2248.877733849115
 10
-22704.5799114556
 20
38509.98661264135
 30
-2248.877733849115
 10
-22704.55889952406
 20
38510.07129391022
 30
-2248.877733849115
 10
-22704.54583156994
 20
38510.1238350997
 30
-2248.877733849115
 10
-22704.51564736659
 20
38510.24459485804
 30
-2248.877733849115
 10
-22704.49852742989
 20
38510.31281971472
 30
-2248.877733849115
 10
-22704.46167939596
 20
38510.45882670059
 30
-2248.877733849115
 10
-22704.44069231682
 20
38510.54158832591
 30
-2248.877733849115
 10
-22704.39503578561
 20
38510.72033180083
 30
-2248.877733849115
 10
-22704.37036602709
 20
38510.81630712586
 30
-2248.877733849115
 10
-22704.31890026367
 20
38511.01492864919
 30
-2248.877733849115
 10
-22704.29206135355
 20
38511.1177346002
 30
-2248.877733849115
 10
-22704.23805552653
 20
38511.32289229665
 30
-2248.877733849115
 10
-22704.21088765822
 20
38511.42524496878
 30
-2248.877733849115
 10
-22704.18460758441
 20
38511.52347076966
 30
-2248.877733849115
 10
-22704.13694801185
 20
38511.70160572157
 30
-2248.877733849115
 10
-22704.08581819606
 20
38511.88985664601
 30
-2248.877733849115
 10
-22704.00034030585
 20
38512.19984347841
 30
-2248.877733849115
 10
-22703.96461971216
 20
38512.32766796485
 30
-2248.877733849115
 10
-22703.93418387385
 20
38512.43563293182
 30
-2248.877733849115
  0
LINE
  5
224
330
2
100
AcDbEntity
  8
renvoi
100
AcDbLine
 10
-22650.9342048494
 20
38591.90184914804
 30
-2248.877733849115
 11
-22674.9342048494
 21
38591.90184914804
 31
-2248.877733849115
  0
LINE
  5
225
330
2
100
AcDbEntity
  8
renvoi
100
AcDbLine
 10
-22674.82420484939
 20
38592.90184914804
 30
-2248.877733849115
 11
-22651.0442048494
 21
38592.90184914804
 31
-2248.877733849115
  0
LINE
  5
226
330
2
100
AcDbEntity
  8
renvoi
100
AcDbLine
 10
-22674.82420484939
 20
38593.90184914804
 30
-2248.877733849115
 11
-22651.0442048494
 21
38593.90184914804
 31
-2248.877733849115
  0
LINE
  5
227
330
2
100
AcDbEntity
  8
renvoi
100
AcDbLine
 10
-22674.82420484939
 20
38594.90184914804
 30
-2248.877733849115
 11
-22651.0442048494
 21
38594.90184914804
 31
-2248.877733849115
  0
LINE
  5
228
330
2
100
AcDbEntity
  8
renvoi
100
AcDbLine
 10
-22674.82420484939
 20
38595.90184914804
 30
-2248.877733849115
 11
-22651.0442048494
 21
38595.90184914804
 31
-2248.877733849115
  0
LINE
  5
229
330
2
100
AcDbEntity
  8
renvoi
100
AcDbLine
 10
-22674.82420484939
 20
38596.90184914804
 30
-2248.877733849115
 11
-22651.0442048494
 21
38596.90184914804
 31
-2248.877733849115
  0
LINE
  5
22A
330
2
100
AcDbEntity
  8
renvoi
100
AcDbLine
 10
-22674.82420484939
 20
38597.90184914804
 30
-2248.877733849115
 11
-22651.0442048494
 21
38597.90184914804
 31
-2248.877733849115
  0
LINE
  5
22B
330
2
100
AcDbEntity
  8
renvoi
100
AcDbLine
 10
-22674.82420484939
 20
38598.90184914804
 30
-2248.877733849115
 11
-22651.0442048494
 21
38598.90184914804
 31
-2248.877733849115
  0
LINE
  5
22C
330
2
100
AcDbEntity
  8
renvoi
100
AcDbLine
 10
-22662.9342048494
 20
38579.90184914804
 30
-2248.877733849115
 11
-22673.93420484939
 21
38579.90184914804
 31
-2248.877733849115
  0
LINE
  5
22D
330
2
100
AcDbEntity
  8
renvoi
100
AcDbLine
 10
-22651.9342048494
 20
38579.90184914804
 30
-2248.877733849115
 11
-22662.9342048494
 21
38579.90184914804
 31
-2248.877733849115
  0
LINE
  5
22E
330
2
100
AcDbEntity
  8
renvoi
100
AcDbLine
 10
-22668.4342048494
 20
38535.40184914804
 30
-2248.877733849115
 11
-22673.93420484939
 21
38540.90184914804
 31
-2248.877733849115
  0
LINE
  5
22F
330
2
100
AcDbEntity
  8
renvoi
100
AcDbLine
 10
-22673.93420484939
 20
38518.90184914804
 30
-2248.877733849115
 11
-22668.4342048494
 21
38524.40184914804
 31
-2248.877733849115
  0
SPLINE
  5
230
330
2
100
AcDbEntity
  8
renvoi
100
AcDbSpline
210
0.0
220
0.0
230
1.0
 70
     8
 71
     3
 72
    38
 73
    34
 74
     0
 42
0.0000000001
 43
0.0000000001
 40
10.93511573025649
 40
10.93511573025649
 40
10.93511573025649
 40
10.93511573025649
 40
12.2960639153857
 40
12.2960639153857
 40
13.6570121005149
 40
13.6570121005149
 40
15.01796028564411
 40
15.01796028564411
 40
16.37890847077331
 40
16.37890847077331
 40
17.75173921820827
 40
17.75173921820827
 40
19.12456996564323
 40
19.12456996564323
 40
20.49740071307819
 40
20.49740071307819
 40
21.87023146051314
 40
21.87023146051314
 40
23.2430622079482
 40
23.2430622079482
 40
24.61589295538325
 40
24.61589295538325
 40
25.98872370281831
 40
25.98872370281831
 40
27.36155445025336
 40
27.36155445025336
 40
28.72250263538243
 40
28.72250263538243
 40
30.0834508205115
 40
30.0834508205115
 40
31.44439900564057
 40
31.44439900564057
 40
32.80534719076964
 40
32.80534719076964
 40
32.80534719076964
 40
32.80534719076964
 10
-22651.9342048494
 20
38536.90184914804
 30
-2248.877733849115
 10
-22651.9342048494
 20
38536.90184914804
 30
-2248.877733849115
 10
-22651.96289953535
 20
38536.85703806465
 30
-2248.877733849115
 10
-22652.07856712696
 20
38536.67311069461
 30
-2248.877733849115
 10
-22652.16547306053
 20
38536.53406760585
 30
-2248.877733849115
 10
-22652.38444255331
 20
38536.17227344474
 30
-2248.877733849115
 10
-22652.51659648346
 20
38535.94922749596
 30
-2248.877733849115
 10
-22652.8037159635
 20
38535.43999196539
 30
-2248.877733849115
 10
-22652.95850773154
 20
38535.15376871586
 30
-2248.877733849115
 10
-22653.2643486218
 20
38534.54678622477
 30
-2248.877733849115
 10
-22653.4271530558
 20
38534.20300848686
 30
-2248.877733849115
 10
-22653.74223591039
 20
38533.45265620996
 30
-2248.877733849115
 10
-22653.89428237527
 20
38533.04606567395
 30
-2248.877733849115
 10
-22654.15506864413
 20
38532.19075807798
 30
-2248.877733849115
 10
-22654.2636335482
 20
38531.74113662086
 30
-2248.877733849115
 10
-22654.41076562903
 20
38530.82553069708
 30
-2248.877733849115
 10
-22654.44892347516
 20
38530.35945939719
 30
-2248.877733849115
 10
-22654.44892347516
 20
38529.4442388989
 30
-2248.877733849115
 10
-22654.41076562903
 20
38528.978167599
 30
-2248.877733849115
 10
-22654.2636335482
 20
38528.06256167522
 30
-2248.877733849115
 10
-22654.15506864413
 20
38527.6129402181
 30
-2248.877733849115
 10
-22653.89428237527
 20
38526.75763262213
 30
-2248.877733849115
 10
-22653.74223591039
 20
38526.35104208612
 30
-2248.877733849115
 10
-22653.4271530558
 20
38525.60068980922
 30
-2248.877733849115
 10
-22653.2643486218
 20
38525.25691207131
 30
-2248.877733849115
 10
-22652.95850773154
 20
38524.64992958022
 30
-2248.877733849115
 10
-22652.8037159635
 20
38524.36370633069
 30
-2248.877733849115
 10
-22652.51659648346
 20
38523.85447080012
 30
-2248.877733849115
 10
-22652.38444255331
 20
38523.63142485134
 30
-2248.877733849115
 10
-22652.16547306053
 20
38523.26963069023
 30
-2248.877733849115
 10
-22652.07856712696
 20
38523.13058760147
 30
-2248.877733849115
 10
-22651.96289953535
 20
38522.94666023144
 30
-2248.877733849115
 10
-22651.9342048494
 20
38522.90184914804
 30
-2248.877733849115
 10
-22651.9342048494
 20
38522.90184914804
 30
-2248.877733849115
  0
SPLINE
  5
231
330
2
100
AcDbEntity
  8
renvoi
100
AcDbSpline
210
0.0
220
0.0
230
1.0
 70
     8
 71
     3
 72
    42
 73
    38
 74
     0
 42
0.0000000001
 43
0.0000000001
 40
17.69555418615988
 40
17.69555418615988
 40
17.69555418615988
 40
17.69555418615988
 40
19.87633150928262
 40
19.87633150928262
 40
22.05710883240536
 40
22.05710883240536
 40
24.23788615552809
 40
24.23788615552809
 40
26.41866347865083
 40
26.41866347865083
 40
28.66177470206814
 40
28.66177470206814
 40
30.90488592548546
 40
30.90488592548546
 40
33.14799714890277
 40
33.14799714890277
 40
34.26955276061143
 40
34.26955276061143
 40
35.39110837232009
 40
35.39110837232009
 40
36.51266398402878
 40
36.51266398402878
 40
37.63421959573746
 40
37.63421959573746
 40
39.87733081915482
 40
39.87733081915482
 40
42.12044204257218
 40
42.12044204257218
 40
44.36355326598955
 40
44.36355326598955
 40
46.54433058911226
 40
46.54433058911226
 40
48.72510791223497
 40
48.72510791223497
 40
50.90588523535768
 40
50.90588523535768
 40
53.0866625584804
 40
53.0866625584804
 40
53.0866625584804
 40
53.0866625584804
 10
-22651.9342048494
 20
38515.90184914804
 30
-2248.877733849115
 10
-22651.9342048494
 20
38515.90184914804
 30
-2248.877733849115
 10
-22652.00741206808
 20
38515.95960377641
 30
-2248.877733849115
 10
-22652.30344008887
 20
38516.19037348308
 30
-2248.877733849115
 10
-22652.52612962602
 20
38516.36326583552
 30
-2248.877733849115
 10
-22653.09992479615
 20
38516.79924353917
 30
-2248.877733849115
 10
-22653.45152198315
 20
38517.0626154035
 30
-2248.877733849115
 10
-22654.24719051468
 20
38517.63853528531
 30
-2248.877733849115
 10
-22654.69128180743
 20
38517.95085638614
 30
-2248.877733849115
 10
-22655.63406276832
 20
38518.58082489929
 30
-2248.877733849115
 10
-22656.17053601488
 20
38518.92361203695
 30
-2248.877733849115
 10
-22657.33737857496
 20
38519.60141526355
 30
-2248.877733849115
 10
-22657.96762329147
 20
38519.93628650539
 30
-2248.877733849115
 10
-22659.29720934636
 20
38520.52777533485
 30
-2248.877733849115
 10
-22659.99764387653
 20
38520.7840743362
 30
-2248.877733849115
 10
-22661.08095099692
 20
38521.05243351575
 30
-2248.877733849115
 10
-22661.44754207854
 20
38521.12257720932
 30
-2248.877733849115
 10
-22662.18723940675
 20
38521.21718410232
 30
-2248.877733849115
 10
-22662.56035297883
 20
38521.24159511019
 30
-2248.877733849115
 10
-22663.30805671997
 20
38521.24159511019
 30
-2248.877733849115
 10
-22663.68117029204
 20
38521.21718410232
 30
-2248.877733849115
 10
-22664.42086762026
 20
38521.12257720932
 30
-2248.877733849115
 10
-22664.78745870188
 20
38521.05243351575
 30
-2248.877733849115
 10
-22665.87076582226
 20
38520.7840743362
 30
-2248.877733849115
 10
-22666.57120035243
 20
38520.52777533485
 30
-2248.877733849115
 10
-22667.90078640732
 20
38519.93628650539
 30
-2248.877733849115
 10
-22668.53103112383
 20
38519.60141526355
 30
-2248.877733849115
 10
-22669.69787368391
 20
38518.92361203695
 30
-2248.877733849115
 10
-22670.23434693047
 20
38518.58082489929
 30
-2248.877733849115
 10
-22671.17712789137
 20
38517.95085638614
 30
-2248.877733849115
 10
-22671.62121918412
 20
38517.63853528531
 30
-2248.877733849115
 10
-22672.41688771565
 20
38517.0626154035
 30
-2248.877733849115
 10
-22672.76848490265
 20
38516.79924353917
 30
-2248.877733849115
 10
-22673.34228007277
 20
38516.36326583552
 30
-2248.877733849115
 10
-22673.56496960993
 20
38516.19037348308
 30
-2248.877733849115
 10
-22673.86099763071
 20
38515.95960377641
 30
-2248.877733849115
 10
-22673.93420484939
 20
38515.90184914804
 30
-2248.877733849115
 10
-22673.93420484939
 20
38515.90184914804
 30
-2248.877733849115
  0
LINE
  5
232
330
2
100
AcDbEntity
  8
renvoi
100
AcDbLine
 10
-22651.9342048494
 20
38515.90184914804
 30
-2248.877733849115
 11
-22673.93420484939
 21
38515.90184914804
 31
-2248.877733849115
  0
LINE
  5
233
330
2
100
AcDbEntity
  8
renvoi
100
AcDbLine
 10
-22673.93420484939
 20
38518.90184914804
 30
-2248.877733849115
 11
-22673.93420484939
 21
38515.90184914804
 31
-2248.877733849115
  0
LINE
  5
234
330
2
100
AcDbEntity
  8
renvoi
100
AcDbLine
 10
-22673.93420484939
 20
38579.90184914804
 30
-2248.877733849115
 11
-22673.93420484939
 21
38540.90184914804
 31
-2248.877733849115
  0
LINE
  5
235
330
2
100
AcDbEntity
  8
renvoi
100
AcDbLine
 10
-22651.9342048494
 20
38522.90184914804
 30
-2248.877733849115
 11
-22651.9342048494
 21
38515.90184914804
 31
-2248.877733849115
  0
LINE
  5
236
330
2
100
AcDbEntity
  8
renvoi
100
AcDbLine
 10
-22651.9342048494
 20
38579.90184914804
 30
-2248.877733849115
 11
-22651.9342048494
 21
38536.90184914804
 31
-2248.877733849115
  0
LINE
  5
237
330
2
100
AcDbEntity
  8
renvoi
100
AcDbLine
 10
-22674.82424118012
 20
38599.90182817249
 30
-2248.877733849115
 11
-22675.69023025318
 21
38599.40184914804
 31
-2248.877733849115
  0
LINE
  5
238
330
2
100
AcDbEntity
  8
renvoi
100
AcDbLine
 10
-22651.04416851868
 20
38599.90182817249
 30
-2248.877733849115
 11
-22650.17817944561
 21
38599.40184914804
 31
-2248.877733849115
  0
LINE
  5
239
330
2
100
AcDbEntity
  8
renvoi
100
AcDbLine
 10
-22651.0442048494
 20
38598.90184914804
 30
-2248.877733849115
 11
-22650.17817944561
 21
38599.40184914804
 31
-2248.877733849115
  0
LINE
  5
23A
330
2
100
AcDbEntity
  8
renvoi
100
AcDbLine
 10
-22674.82420484939
 20
38598.90184914804
 30
-2248.877733849115
 11
-22675.69023025318
 21
38599.40184914804
 31
-2248.877733849115
  0
LINE
  5
23B
330
2
100
AcDbEntity
  8
renvoi
100
AcDbLine
 10
-22674.82420484939
 20
38598.90184914804
 30
-2248.877733849115
 11
-22675.69023025318
 21
38598.40184914804
 31
-2248.877733849115
  0
LINE
  5
23C
330
2
100
AcDbEntity
  8
renvoi
100
AcDbLine
 10
-22651.0442048494
 20
38598.90184914804
 30
-2248.877733849115
 11
-22650.17817944561
 21
38598.40184914804
 31
-2248.877733849115
  0
LINE
  5
23D
330
2
100
AcDbEntity
  8
renvoi
100
AcDbLine
 10
-22651.0442048494
 20
38597.90184914804
 30
-2248.877733849115
 11
-22650.17817944562
 21
38598.40184914804
 31
-2248.877733849115
  0
LINE
  5
23E
330
2
100
AcDbEntity
  8
renvoi
100
AcDbLine
 10
-22674.82420484939
 20
38597.90184914804
 30
-2248.877733849115
 11
-22675.69023025318
 21
38598.40184914804
 31
-2248.877733849115
  0
LINE
  5
23F
330
2
100
AcDbEntity
  8
renvoi
100
AcDbLine
 10
-22674.82420484939
 20
38597.90184914804
 30
-2248.877733849115
 11
-22675.69023025318
 21
38597.40184914804
 31
-2248.877733849115
  0
LINE
  5
240
330
2
100
AcDbEntity
  8
renvoi
100
AcDbLine
 10
-22651.0442048494
 20
38597.90184914804
 30
-2248.877733849115
 11
-22650.17817944561
 21
38597.40184914804
 31
-2248.877733849115
  0
LINE
  5
241
330
2
100
AcDbEntity
  8
renvoi
100
AcDbLine
 10
-22651.0442048494
 20
38596.90184914804
 30
-2248.877733849115
 11
-22650.17817944561
 21
38597.40184914804
 31
-2248.877733849115
  0
LINE
  5
242
330
2
100
AcDbEntity
  8
renvoi
100
AcDbLine
 10
-22674.82420484939
 20
38596.90184914804
 30
-2248.877733849115
 11
-22675.69023025318
 21
38597.40184914804
 31
-2248.877733849115
  0
LINE
  5
243
330
2
100
AcDbEntity
  8
renvoi
100
AcDbLine
 10
-22674.82420484939
 20
38596.90184914804
 30
-2248.877733849115
 11
-22675.69023025318
 21
38596.40184914804
 31
-2248.877733849115
  0
LINE
  5
244
330
2
100
AcDbEntity
  8
renvoi
100
AcDbLine
 10
-22651.0442048494
 20
38596.90184914804
 30
-2248.877733849115
 11
-22650.17817944561
 21
38596.40184914804
 31
-2248.877733849115
  0
LINE
  5
245
330
2
100
AcDbEntity
  8
renvoi
100
AcDbLine
 10
-22651.0442048494
 20
38595.90184914804
 30
-2248.877733849115
 11
-22650.17817944561
 21
38596.40184914804
 31
-2248.877733849115
  0
LINE
  5
246
330
2
100
AcDbEntity
  8
renvoi
100
AcDbLine
 10
-22674.82420484939
 20
38595.90184914804
 30
-2248.877733849115
 11
-22675.69023025318
 21
38596.40184914804
 31
-2248.877733849115
  0
LINE
  5
247
330
2
100
AcDbEntity
  8
renvoi
100
AcDbLine
 10
-22674.82420484939
 20
38595.90184914804
 30
-2248.877733849115
 11
-22675.69023025318
 21
38595.40184914804
 31
-2248.877733849115
  0
LINE
  5
248
330
2
100
AcDbEntity
  8
renvoi
100
AcDbLine
 10
-22651.0442048494
 20
38595.90184914804
 30
-2248.877733849115
 11
-22650.17817944561
 21
38595.40184914804
 31
-2248.877733849115
  0
LINE
  5
249
330
2
100
AcDbEntity
  8
renvoi
100
AcDbLine
 10
-22651.0442048494
 20
38594.90184914804
 30
-2248.877733849115
 11
-22650.17817944561
 21
38595.40184914804
 31
-2248.877733849115
  0
LINE
  5
24A
330
2
100
AcDbEntity
  8
renvoi
100
AcDbLine
 10
-22674.82420484939
 20
38594.90184914804
 30
-2248.877733849115
 11
-22675.69023025318
 21
38595.40184914804
 31
-2248.877733849115
  0
LINE
  5
24B
330
2
100
AcDbEntity
  8
renvoi
100
AcDbLine
 10
-22674.82420484939
 20
38594.90184914804
 30
-2248.877733849115
 11
-22675.69023025318
 21
38594.40184914804
 31
-2248.877733849115
  0
LINE
  5
24C
330
2
100
AcDbEntity
  8
renvoi
100
AcDbLine
 10
-22651.0442048494
 20
38594.90184914804
 30
-2248.877733849115
 11
-22650.17817944561
 21
38594.40184914804
 31
-2248.877733849115
  0
LINE
  5
24D
330
2
100
AcDbEntity
  8
renvoi
100
AcDbLine
 10
-22651.0442048494
 20
38593.90184914804
 30
-2248.877733849115
 11
-22650.17817944561
 21
38594.40184914804
 31
-2248.877733849115
  0
LINE
  5
24E
330
2
100
AcDbEntity
  8
renvoi
100
AcDbLine
 10
-22674.82420484939
 20
38593.90184914804
 30
-2248.877733849115
 11
-22675.69023025318
 21
38594.40184914804
 31
-2248.877733849115
  0
LINE
  5
24F
330
2
100
AcDbEntity
  8
renvoi
100
AcDbLine
 10
-22674.8242048494
 20
38593.90184914804
 30
-2248.877733849115
 11
-22675.69023025318
 21
38593.40184914804
 31
-2248.877733849115
  0
LINE
  5
250
330
2
100
AcDbEntity
  8
renvoi
100
AcDbLine
 10
-22651.0442048494
 20
38593.90184914804
 30
-2248.877733849115
 11
-22650.17817944561
 21
38593.40184914804
 31
-2248.877733849115
  0
LINE
  5
251
330
2
100
AcDbEntity
  8
renvoi
100
AcDbLine
 10
-22651.0442048494
 20
38592.90184914804
 30
-2248.877733849115
 11
-22650.17817944561
 21
38593.40184914804
 31
-2248.877733849115
  0
LINE
  5
252
330
2
100
AcDbEntity
  8
renvoi
100
AcDbLine
 10
-22674.82420484939
 20
38592.90184914804
 30
-2248.877733849115
 11
-22675.69023025318
 21
38593.40184914804
 31
-2248.877733849115
  0
LINE
  5
253
330
2
100
AcDbEntity
  8
renvoi
100
AcDbLine
 10
-22674.8242048494
 20
38592.90184914804
 30
-2248.877733849115
 11
-22675.69023025318
 21
38592.40184914804
 31
-2248.877733849115
  0
LINE
  5
254
330
2
100
AcDbEntity
  8
renvoi
100
AcDbLine
 10
-22651.0442048494
 20
38592.90184914804
 30
-2248.877733849115
 11
-22650.17817944561
 21
38592.40184914804
 31
-2248.877733849115
  0
LINE
  5
255
330
2
100
AcDbEntity
  8
renvoi
100
AcDbLine
 10
-22651.0442048494
 20
38591.90184914804
 30
-2248.877733849115
 11
-22650.17817944561
 21
38592.40184914804
 31
-2248.877733849115
  0
LINE
  5
256
330
2
100
AcDbEntity
  8
renvoi
100
AcDbLine
 10
-22674.8242048494
 20
38591.90184914804
 30
-2248.877733849115
 11
-22675.69023025318
 21
38592.40184914804
 31
-2248.877733849115
  0
LINE
  5
257
330
2
100
AcDbEntity
  8
renvoi
100
AcDbLine
 10
-22674.8242048494
 20
38604.90184914804
 30
-2248.877733849115
 11
-22674.82424118012
 21
38604.90182817249
 31
-2248.877733849115
  0
LINE
  5
258
330
2
100
AcDbEntity
  8
renvoi
100
AcDbLine
 10
-22651.0442048494
 20
38604.90184914804
 30
-2248.877733849115
 11
-22651.04416851868
 21
38604.90182817249
 31
-2248.877733849115
  0
LINE
  5
259
330
2
100
AcDbEntity
  8
renvoi
100
AcDbLine
 10
-22651.9342048494
 20
38579.90184914804
 30
-2248.877733849115
 11
-22650.9342048494
 21
38591.90184914804
 31
-2248.877733849115
  0
LINE
  5
25A
330
2
100
AcDbEntity
  8
renvoi
100
AcDbLine
 10
-22673.93420484939
 20
38579.90184914804
 30
-2248.877733849115
 11
-22674.9342048494
 21
38591.90184914804
 31
-2248.877733849115
  0
LINE
  5
25B
330
2
100
AcDbEntity
  8
renvoi
100
AcDbLine
 10
-22708.93418387385
 20
38505.40184914804
 30
-2248.877733849115
 11
-22708.43418387385
 21
38504.90184914804
 31
-2248.877733849115
  0
LINE
  5
25C
330
2
100
AcDbEntity
  8
renvoi
100
AcDbLine
 10
-22708.93418387385
 20
38554.40184914804
 30
-2248.877733849115
 11
-22708.43418387385
 21
38554.90184914804
 31
-2248.877733849115
  0
LINE
  5
25D
330
2
100
AcDbEntity
  8
renvoi
100
AcDbLine
 10
-22708.43418387385
 20
38504.90184914804
 30
-2248.877733849115
 11
-22706.43418387385
 21
38504.90184914804
 31
-2248.877733849115
  0
LINE
  5
25E
330
2
100
AcDbEntity
  8
renvoi
100
AcDbLine
 10
-22708.43418387385
 20
38554.90184914804
 30
-2248.877733849115
 11
-22706.43418387385
 21
38554.90184914804
 31
-2248.877733849115
  0
LINE
  5
25F
330
2
100
AcDbEntity
  8
renvoi
100
AcDbLine
 10
-22705.80535254857
 20
38554.41873167824
 30
-2248.877733849115
 11
-22706.43418387385
 21
38554.90184914804
 31
-2248.877733849115
  0
LINE
  5
260
330
2
100
AcDbEntity
  8
renvoi
100
AcDbLine
 10
-22705.80535254857
 20
38505.38496661784
 30
-2248.877733849115
 11
-22706.43418387385
 21
38504.90184914804
 31
-2248.877733849115
  0
LINE
  5
261
330
2
100
AcDbEntity
  8
renvoi
100
AcDbLine
 10
-22704.60085054052
 20
38549.90184914804
 30
-2248.877733849115
 11
-22705.80535254857
 21
38554.41873167824
 31
-2248.877733849115
  0
LINE
  5
262
330
2
100
AcDbEntity
  8
renvoi
100
AcDbLine
 10
-22704.60085054052
 20
38509.90184914804
 30
-2248.877733849115
 11
-22705.80535254857
 21
38505.38496661784
 31
-2248.877733849115
  0
LINE
  5
263
330
2
100
AcDbEntity
  8
renvoi
100
AcDbLine
 10
-22652.24542568618
 20
38523.40184914804
 30
-2248.877733849115
 11
-22650.9342048494
 21
38523.40184914804
 31
-2248.877733849115
  0
LINE
  5
264
330
2
100
AcDbEntity
  8
renvoi
100
AcDbLine
 10
-22652.24542568618
 20
38536.40184914804
 30
-2248.877733849115
 11
-22650.9342048494
 21
38536.40184914804
 31
-2248.877733849115
  0
LINE
  5
265
330
2
100
AcDbEntity
  8
renvoi
100
AcDbLine
 10
-22708.9342048494
 20
38554.40184914804
 30
-2248.877733849115
 11
-22709.9342048494
 21
38554.40184914804
 31
-2248.877733849115
  0
LINE
  5
266
330
2
100
AcDbEntity
  8
renvoi
100
AcDbLine
 10
-22708.9342048494
 20
38505.40184914804
 30
-2248.877733849115
 11
-22709.9342048494
 21
38505.40184914804
 31
-2248.877733849115
  0
LINE
  5
267
330
2
100
AcDbEntity
  8
renvoi
100
AcDbLine
 10
-22703.93418387385
 20
38518.01181281732
 30
-2248.877733849115
 11
-22703.4342048494
 21
38517.14582374426
 31
-2248.877733849115
  0
LINE
  5
268
330
2
100
AcDbEntity
  8
renvoi
100
AcDbLine
 10
-22703.93418387385
 20
38541.79188547876
 30
-2248.877733849115
 11
-22703.4342048494
 21
38542.65787455182
 31
-2248.877733849115
  0
LINE
  5
269
330
2
100
AcDbEntity
  8
renvoi
100
AcDbLine
 10
-22702.9342048494
 20
38541.79184914804
 30
-2248.877733849115
 11
-22703.4342048494
 21
38542.65787455182
 31
-2248.877733849115
  0
LINE
  5
26A
330
2
100
AcDbEntity
  8
renvoi
100
AcDbLine
 10
-22702.9342048494
 20
38518.01184914804
 30
-2248.877733849115
 11
-22703.4342048494
 21
38517.14582374426
 31
-2248.877733849115
  0
LINE
  5
26B
330
2
100
AcDbEntity
  8
renvoi
100
AcDbLine
 10
-22702.9342048494
 20
38518.01184914804
 30
-2248.877733849115
 11
-22702.43420484939
 21
38517.14582374426
 31
-2248.877733849115
  0
LINE
  5
26C
330
2
100
AcDbEntity
  8
renvoi
100
AcDbLine
 10
-22702.9342048494
 20
38541.79184914804
 30
-2248.877733849115
 11
-22702.43420484939
 21
38542.65787455182
 31
-2248.877733849115
  0
LINE
  5
26D
330
2
100
AcDbEntity
  8
renvoi
100
AcDbLine
 10
-22701.9342048494
 20
38541.79184914804
 30
-2248.877733849115
 11
-22702.43420484939
 21
38542.65787455182
 31
-2248.877733849115
  0
LINE
  5
26E
330
2
100
AcDbEntity
  8
renvoi
100
AcDbLine
 10
-22701.9342048494
 20
38518.01184914804
 30
-2248.877733849115
 11
-22702.43420484939
 21
38517.14582374426
 31
-2248.877733849115
  0
LINE
  5
26F
330
2
100
AcDbEntity
  8
renvoi
100
AcDbLine
 10
-22701.9342048494
 20
38518.01184914804
 30
-2248.877733849115
 11
-22701.4342048494
 21
38517.14582374426
 31
-2248.877733849115
  0
LINE
  5
270
330
2
100
AcDbEntity
  8
renvoi
100
AcDbLine
 10
-22701.9342048494
 20
38541.79184914804
 30
-2248.877733849115
 11
-22701.4342048494
 21
38542.65787455182
 31
-2248.877733849115
  0
LINE
  5
271
330
2
100
AcDbEntity
  8
renvoi
100
AcDbLine
 10
-22700.9342048494
 20
38541.79184914804
 30
-2248.877733849115
 11
-22701.4342048494
 21
38542.65787455182
 31
-2248.877733849115
  0
LINE
  5
272
330
2
100
AcDbEntity
  8
renvoi
100
AcDbLine
 10
-22700.9342048494
 20
38518.01184914804
 30
-2248.877733849115
 11
-22701.4342048494
 21
38517.14582374426
 31
-2248.877733849115
  0
LINE
  5
273
330
2
100
AcDbEntity
  8
renvoi
100
AcDbLine
 10
-22700.9342048494
 20
38518.01184914804
 30
-2248.877733849115
 11
-22700.4342048494
 21
38517.14582374426
 31
-2248.877733849115
  0
LINE
  5
274
330
2
100
AcDbEntity
  8
renvoi
100
AcDbLine
 10
-22700.9342048494
 20
38541.79184914804
 30
-2248.877733849115
 11
-22700.4342048494
 21
38542.65787455182
 31
-2248.877733849115
  0
LINE
  5
275
330
2
100
AcDbEntity
  8
renvoi
100
AcDbLine
 10
-22699.9342048494
 20
38541.79184914804
 30
-2248.877733849115
 11
-22700.4342048494
 21
38542.65787455182
 31
-2248.877733849115
  0
LINE
  5
276
330
2
100
AcDbEntity
  8
renvoi
100
AcDbLine
 10
-22699.9342048494
 20
38518.01184914804
 30
-2248.877733849115
 11
-22700.4342048494
 21
38517.14582374426
 31
-2248.877733849115
  0
LINE
  5
277
330
2
100
AcDbEntity
  8
renvoi
100
AcDbLine
 10
-22699.9342048494
 20
38518.01184914804
 30
-2248.877733849115
 11
-22699.4342048494
 21
38517.14582374426
 31
-2248.877733849115
  0
LINE
  5
278
330
2
100
AcDbEntity
  8
renvoi
100
AcDbLine
 10
-22699.9342048494
 20
38541.79184914804
 30
-2248.877733849115
 11
-22699.4342048494
 21
38542.65787455183
 31
-2248.877733849115
  0
LINE
  5
279
330
2
100
AcDbEntity
  8
renvoi
100
AcDbLine
 10
-22698.9342048494
 20
38541.79184914804
 30
-2248.877733849115
 11
-22699.4342048494
 21
38542.65787455183
 31
-2248.877733849115
  0
LINE
  5
27A
330
2
100
AcDbEntity
  8
renvoi
100
AcDbLine
 10
-22698.9342048494
 20
38518.01184914804
 30
-2248.877733849115
 11
-22699.4342048494
 21
38517.14582374426
 31
-2248.877733849115
  0
LINE
  5
27B
330
2
100
AcDbEntity
  8
renvoi
100
AcDbLine
 10
-22698.9342048494
 20
38518.01184914804
 30
-2248.877733849115
 11
-22698.4342048494
 21
38517.14582374426
 31
-2248.877733849115
  0
LINE
  5
27C
330
2
100
AcDbEntity
  8
renvoi
100
AcDbLine
 10
-22698.9342048494
 20
38541.79184914804
 30
-2248.877733849115
 11
-22698.4342048494
 21
38542.65787455182
 31
-2248.877733849115
  0
LINE
  5
27D
330
2
100
AcDbEntity
  8
renvoi
100
AcDbLine
 10
-22697.9342048494
 20
38541.79184914804
 30
-2248.877733849115
 11
-22698.4342048494
 21
38542.65787455182
 31
-2248.877733849115
  0
LINE
  5
27E
330
2
100
AcDbEntity
  8
renvoi
100
AcDbLine
 10
-22697.9342048494
 20
38518.01184914804
 30
-2248.877733849115
 11
-22698.4342048494
 21
38517.14582374426
 31
-2248.877733849115
  0
LINE
  5
27F
330
2
100
AcDbEntity
  8
renvoi
100
AcDbLine
 10
-22697.9342048494
 20
38518.01184914804
 30
-2248.877733849115
 11
-22697.4342048494
 21
38517.14582374426
 31
-2248.877733849115
  0
LINE
  5
280
330
2
100
AcDbEntity
  8
renvoi
100
AcDbLine
 10
-22697.9342048494
 20
38541.79184914804
 30
-2248.877733849115
 11
-22697.4342048494
 21
38542.65787455182
 31
-2248.877733849115
  0
LINE
  5
281
330
2
100
AcDbEntity
  8
renvoi
100
AcDbLine
 10
-22696.9342048494
 20
38541.79184914804
 30
-2248.877733849115
 11
-22697.4342048494
 21
38542.65787455182
 31
-2248.877733849115
  0
LINE
  5
282
330
2
100
AcDbEntity
  8
renvoi
100
AcDbLine
 10
-22696.9342048494
 20
38518.01184914804
 30
-2248.877733849115
 11
-22697.4342048494
 21
38517.14582374426
 31
-2248.877733849115
  0
LINE
  5
283
330
2
100
AcDbEntity
  8
renvoi
100
AcDbLine
 10
-22696.9342048494
 20
38518.01184914804
 30
-2248.877733849115
 11
-22696.4342048494
 21
38517.14582374426
 31
-2248.877733849115
  0
LINE
  5
284
330
2
100
AcDbEntity
  8
renvoi
100
AcDbLine
 10
-22696.9342048494
 20
38541.79184914804
 30
-2248.877733849115
 11
-22696.4342048494
 21
38542.65787455182
 31
-2248.877733849115
  0
LINE
  5
285
330
2
100
AcDbEntity
  8
renvoi
100
AcDbLine
 10
-22695.9342048494
 20
38541.79184914804
 30
-2248.877733849115
 11
-22696.4342048494
 21
38542.65787455182
 31
-2248.877733849115
  0
LINE
  5
286
330
2
100
AcDbEntity
  8
renvoi
100
AcDbLine
 10
-22695.9342048494
 20
38518.01184914804
 30
-2248.877733849115
 11
-22696.4342048494
 21
38517.14582374426
 31
-2248.877733849115
  0
LINE
  5
287
330
2
100
AcDbEntity
  8
renvoi
100
AcDbLine
 10
-22708.9342048494
 20
38518.01184914804
 30
-2248.877733849115
 11
-22708.93418387385
 21
38518.01181281732
 31
-2248.877733849115
  0
LINE
  5
288
330
2
100
AcDbEntity
  8
renvoi
100
AcDbLine
 10
-22708.9342048494
 20
38541.79184914804
 30
-2248.877733849115
 11
-22708.93418387385
 21
38541.79188547876
 31
-2248.877733849115
  0
LINE
  5
289
330
2
100
AcDbEntity
  8
renvoi
100
AcDbLine
 10
-22683.9342048494
 20
38540.90184914804
 30
-2248.877733849115
 11
-22695.9342048494
 21
38541.90184914804
 31
-2248.877733849115
  0
LINE
  5
28A
330
2
100
AcDbEntity
  8
renvoi
100
AcDbLine
 10
-22683.9342048494
 20
38518.90184914804
 30
-2248.877733849115
 11
-22695.9342048494
 21
38517.90184914804
 31
-2248.877733849115
  0
LINE
  5
28B
330
2
100
AcDbEntity
  8
renvoi
100
AcDbLine
 10
-22673.93420484939
 20
38540.90184914804
 30
-2248.877733849115
 11
-22683.9342048494
 21
38540.90184914804
 31
-2248.877733849115
  0
LINE
  5
28C
330
2
100
AcDbEntity
  8
renvoi
100
AcDbLine
 10
-22673.93420484939
 20
38518.90184914804
 30
-2248.877733849115
 11
-22683.9342048494
 21
38518.90184914804
 31
-2248.877733849115
  0
LINE
  5
28D
330
2
100
AcDbEntity
  8
renvoi
100
AcDbLine
 10
-22687.4342048494
 20
38604.90182817249
 30
-2248.877733849115
 11
-22687.9342048494
 21
38604.40182817248
 31
-2248.877733849115
  0
LINE
  5
28E
330
2
100
AcDbEntity
  8
renvoi
100
AcDbLine
 10
-22638.4342048494
 20
38604.90182817249
 30
-2248.877733849115
 11
-22637.9342048494
 21
38604.40182817248
 31
-2248.877733849115
  0
LINE
  5
28F
330
2
100
AcDbEntity
  8
renvoi
100
AcDbLine
 10
-22687.9342048494
 20
38604.40182817248
 30
-2248.877733849115
 11
-22687.9342048494
 21
38602.40182817248
 31
-2248.877733849115
  0
LINE
  5
290
330
2
100
AcDbEntity
  8
renvoi
100
AcDbLine
 10
-22637.9342048494
 20
38604.40182817248
 30
-2248.877733849115
 11
-22637.9342048494
 21
38602.40182817248
 31
-2248.877733849115
  0
LINE
  5
291
330
2
100
AcDbEntity
  8
renvoi
100
AcDbLine
 10
-22638.4173223192
 20
38601.77299684721
 30
-2248.877733849115
 11
-22637.9342048494
 21
38602.40182817248
 31
-2248.877733849115
  0
LINE
  5
292
330
2
100
AcDbEntity
  8
renvoi
100
AcDbLine
 10
-22687.45108737959
 20
38601.77299684721
 30
-2248.877733849115
 11
-22687.9342048494
 21
38602.40182817248
 31
-2248.877733849115
  0
LINE
  5
293
330
2
100
AcDbEntity
  8
renvoi
100
AcDbLine
 10
-22642.9342048494
 20
38600.56849483916
 30
-2248.877733849115
 11
-22638.4173223192
 21
38601.77299684721
 31
-2248.877733849115
  0
LINE
  5
294
330
2
100
AcDbEntity
  8
renvoi
100
AcDbLine
 10
-22682.9342048494
 20
38600.56849483916
 30
-2248.877733849115
 11
-22687.45108737959
 21
38601.77299684721
 31
-2248.877733849115
  0
LINE
  5
295
330
2
100
AcDbEntity
  8
renvoi
100
AcDbLine
 10
-22637.9342048494
 20
38604.90184914804
 30
-2248.877733849115
 11
-22637.9342048494
 21
38609.90184914804
 31
-2248.877733849115
  0
LINE
  5
296
330
2
100
AcDbEntity
  8
renvoi
100
AcDbLine
 10
-22687.9342048494
 20
38604.90184914804
 30
-2248.877733849115
 11
-22687.9342048494
 21
38609.90184914804
 31
-2248.877733849115
  0
ARC
  5
297
330
2
100
AcDbEntity
  8
renvoi
100
AcDbCircle
 10
-22650.9342048494
 20
38535.90184914804
 30
-2248.877733849115
 40
0.5
100
AcDbArc
 50
0.0
 51
90.0
  0
ARC
  5
298
330
2
100
AcDbEntity
  8
renvoi
100
AcDbCircle
 10
-22650.9342048494
 20
38523.90184914804
 30
-2248.877733849115
 40
0.5
100
AcDbArc
 50
270.0
 51
0.0
  0
ENDSEC
  0
SECTION
  2
OBJECTS
  0
DICTIONARY
  5
9
330
0
100
AcDbDictionary
281
     1
  3
ACAD_COLOR
350
1EF
  3
ACAD_GROUP
350
1EA
  3
ACAD_LAYOUT
350
F
  3
ACAD_MATERIAL
350
B
  3
ACAD_MLINESTYLE
350
1EB
  3
ACAD_PLOTSETTINGS
350
1EC
  3
ACAD_PLOTSTYLENAME
350
8
  3
ACAD_TABLESTYLE
350
1F0
  3
ACAD_VISUALSTYLE
350
1E1
  3
AcDbVariableDictionary
350
29A
  3
DWGPROPS
350
2EA
  0
DICTIONARY
  5
2B8
330
1DE
100
AcDbDictionary
280
     1
281
     1
  0
DICTIONARY
  5
15
330
14
100
AcDbDictionary
280
     1
281
     1
  3
ACAD_LAYERFILTERS
360
16
  0
DICTIONARY
  5
3
330
2
100
AcDbDictionary
280
     1
281
     1
  3
ACAD_SORTENTS
360
299
  0
DICTIONARY
  5
1EF
102
{ACAD_REACTORS
330
9
102
}
330
9
100
AcDbDictionary
281
     1
  0
DICTIONARY
  5
1EA
102
{ACAD_REACTORS
330
9
102
}
330
9
100
AcDbDictionary
281
     1
  0
DICTIONARY
  5
F
102
{ACAD_REACTORS
330
9
102
}
330
9
100
AcDbDictionary
281
     1
  3
Model
350
E
  3
plan du rail
350
13
  0
DICTIONARY
  5
B
102
{ACAD_REACTORS
330
9
102
}
330
9
100
AcDbDictionary
281
     1
  3
ByBlock
350
1EE
  3
ByLayer
350
1ED
  3
Global
350
A
  0
DICTIONARY
  5
1EB
102
{ACAD_REACTORS
330
9
102
}
330
9
100
AcDbDictionary
281
     1
  3
Standard
350
1F2
  0
DICTIONARY
  5
1EC
102
{ACAD_REACTORS
330
9
102
}
330
9
100
AcDbDictionary
281
     1
  0
ACDBDICTIONARYWDFLT
  5
8
102
{ACAD_REACTORS
330
9
102
}
330
9
100
AcDbDictionary
281
     1
  3
Normal
350
7
100
AcDbDictionaryWithDefault
340
7
  0
DICTIONARY
  5
1F0
102
{ACAD_REACTORS
330
9
102
}
330
9
100
AcDbDictionary
281
     1
  3
Standard
350
1F3
  0
DICTIONARY
  5
1E1
102
{ACAD_REACTORS
330
9
102
}
330
9
100
AcDbDictionary
281
     1
  3
2dWireframe
350
1E0
  3
3D Hidden
350
2A2
  3
3dWireframe
350
1F5
  3
Basic
350
2A1
  3
Brighten
350
2A5
  3
ColorChange
350
2A9
  3
Conceptual
350
2A3
  3
Dim
350
2A4
  3
Facepattern
350
2A8
  3
Flat
350
29D
  3
FlatWithEdges
350
29E
  3
Gouraud
350
29F
  3
GouraudWithEdges
350
2A0
  3
Linepattern
350
2A7
  3
Realistic
350
1F4
  3
Thicken
350
2A6
  0
DICTIONARY
  5
29A
102
{ACAD_REACTORS
330
9
102
}
330
9
100
AcDbDictionary
281
     1
  3
CTABLESTYLE
350
29B
  3
DIMASSOC
350
2C5
  3
HIDETEXT
350
2C4
  3
INDEXCTL
350
2C3
  3
SORTENTS
350
2C2
  0
XRECORD
  5
2EA
102
{ACAD_REACTORS
330
9
102
}
330
9
100
AcDbXrecord
280
     1
  1
DWGPROPS COOKIE
  2

  3

  4

  6

  7

  8
cyril.dagand
  9

300
=
301
=
302
=
303
=
304
=
305
=
306
=
307
=
308
=
309
=
 40
0.2800572569444444
 41
2454468.434413449
 42
2454608.43062713
  1

 90
        0
  0
DICTIONARY
  5
16
102
{ACAD_REACTORS
330
15
102
}
330
15
100
AcDbDictionary
280
     1
281
     1
  3
--jc
360
17
  3
0
360
18
  3
0 existente
360
19
  3
0.13
360
1A
  3
0.15 mm
360
1B
  3
0.20 mm
360
1C
  3
0.25 mm
360
1D
  3
00
360
1E
  3
0000
360
1F
  3
01
360
20
  3
02
360
21
  3
03
360
22
  3
09
360
23
  3
1
360
24
  3
1 Traçado
360
25
  3
10
360
26
  3
1008
360
27
  3
1101
360
28
  3
1105
360
29
  3
1108
360
2A
  3
111
360
2B
  3
1205
360
2C
  3
15
360
2D
  3
1er
360
2E
  3
2
360
2F
  3
2 Drenagem
360
30
  3
25
360
31
  3
252
360
32
  3
2eme
360
33
  3
3
360
34
  3
3 Pavimentação
360
35
  3
30
360
36
  3
3d
360
37
  3
3D-LAYER
360
38
  3
3eme
360
39
  3
4
360
3A
  3
40
360
3B
  3
4eme
360
3C
  3
4r
360
3D
  3
5
360
3E
  3
5 Sinalização
360
3F
  3
50
360
40
  3
5eme
360
41
  3
6
360
42
  3
6 Iluminação Pública
360
43
  3
60
360
44
  3
6eme
360
45
  3
7
360
46
  3
70
360
47
  3
7eme
360
48
  3
8
360
49
  3
80
360
4A
  3
8eme
360
4B
  3
90
360
4C
  3
a
360
4D
  3
A00
360
4E
  3
A10
360
4F
  3
A20
360
50
  3
A30
360
51
  3
A40
360
52
  3
A50
360
53
  3
A60
360
54
  3
A70
360
55
  3
A80
360
56
  3
A90
360
57
  3
A_co
360
58
  3
A_Families
360
59
  3
A_fp_h
360
5A
  3
A_fp_t
360
5B
  3
A_plan
360
5C
  3
A_sol
360
5D
  3
A_sol_
360
5E
  3
a_soli
360
5F
  3
A_Total
360
60
  3
aa
360
61
  3
AAA
360
62
  3
AART
360
63
  3
AART2
360
64
  3
AART3
360
65
  3
ac
360
66
  3
ACAB
360
67
  3
active
360
68
  3
activo
360
69
  3
activos
360
6A
  3
activé
360
6B
  3
ae
360
6C
  3
alle _
360
6D
  3
Alpha
360
6E
  3
alçado 1
360
6F
  3
alçados
360
70
  3
anneau
360
71
  3
Aplats
360
72
  3
arch
360
73
  3
archi
360
74
  3
archi-geler
360
75
  3
are
360
76
  3
AREAS
360
77
  3
ARM-INF-CORPO-A
360
78
  3
ARM-INF-CORPO-C
360
79
  3
ARM-INF-CORPO-E
360
7A
  3
ARM-INF-CORPO-F
360
7B
  3
ARM-INF-CORPO-G
360
7C
  3
ARM-INF-CORPO-I
360
7D
  3
ARM-SUP-CORPO-E
360
7E
  3
ARM-SUP-CORPO-F
360
7F
  3
ARM-SUP-CORPO-I
360
80
  3
ARQ
360
81
  3
ARQ P0
360
82
  3
ARQ P1
360
83
  3
AS
360
84
  3
aux
360
85
  3
bat
360
86
  3
batcont
360
87
  3
batiment
360
88
  3
BAUS
360
89
  3
bet
360
8A
  3
BETOM
360
8B
  3
BETS
360
8C
  3
blanc
360
8D
  3
blocs
360
8E
  3
bur1
360
8F
  3
bur2
360
90
  3
by layer
360
91
  3
c
360
92
  3
cae
360
93
  3
CALPINAGE
360
94
  3
calques vides
360
95
  3
capa reutilizada
360
96
  3
capas activadas
360
97
  3
capas desactivadas
360
98
  3
CAR
360
99
  3
cart
360
9A
  3
Cartografia existente
360
9B
  3
CB
360
9C
  3
CB00
360
9D
  3
CB10
360
9E
  3
CB20
360
9F
  3
CB30
360
A0
  3
CB40
360
A1
  3
CB50
360
A2
  3
CB60
360
A3
  3
CB70
360
A4
  3
CB80
360
A5
  3
CB90
360
A6
  3
CB_Families
360
A7
  3
CB_general
360
A8
  3
CCG
360
A9
  3
cf
360
AA
  3
CFA
360
AB
  3
cfaibles
360
AC
  3
ch
360
AD
  3
chm
360
AE
  3
CIR
360
AF
  3
CIRC
360
B0
  3
clim
360
B1
  3
CLIM extraction
360
B2
  3
CLIM soufflage
360
B3
  3
CLIMATISATION
360
B4
  3
cloison
360
B5
  3
CO2_H
360
B6
  3
CO_A1
360
B7
  3
CO_A2
360
B8
  3
CO_B1
360
B9
  3
CO_B2
360
BA
  3
CO_C1
360
BB
  3
CO_C2
360
BC
  3
co_f1
360
BD
  3
CO_H
360
BE
  3
COA1
360
BF
  3
coa2
360
C0
  3
COA4
360
C1
  3
COCOS
360
C2
  3
COD
360
C3
  3
color21
360
C4
  3
comp
360
C5
  3
CONSTRUCTION
360
C6
  3
cor 1
360
C7
  3
cor 9
360
C8
  3
cor9
360
C9
  3
CORPO E
360
CA
  3
cot
360
CB
  3
cotas
360
CC
  3
cotation
360
CD
  3
cotes
360
CE
  3
coul
360
CF
  3
couleur
360
D0
  3
cour
360
D1
  3
cpa inutilizada
360
D2
  3
crt
360
D3
  3
CTA
360
D4
  3
cuisine
360
D5
  3
CV
360
D6
  3
CV-Variante
360
D7
  3
cvc
360
D8
  3
cyan
360
D9
  3
DD
360
DA
  3
Defpoints
360
DB
  3
DEMOLITION
360
DC
  3
des
360
DD
  3
desact
360
DE
  3
descat
360
DF
  3
desenfumage
360
E0
  3
Deutsch
360
E1
  3
DoOr
360
E2
  3
Désactiver-geler
360
E3
  3
désactivé
360
E4
  3
e
360
E5
  3
ECLAIRAGE
360
E6
  3
efi
360
E7
  3
EIXOS
360
E8
  3
El
360
E9
  3
elev
360
EA
  3
elh
360
EB
  3
elh1
360
EC
  3
elh2
360
ED
  3
elh3
360
EE
  3
elh4
360
EF
  3
elh5
360
F0
  3
elh6
360
F1
  3
elh7
360
F2
  3
elh8
360
F3
  3
elh9
360
F4
  3
Englisch
360
F5
  3
ep_remp
360
F6
  3
ep_trait
360
F7
  3
ESGOTOS
360
F8
  3
est
360
F9
  3
etage
360
FA
  3
ETAN
360
FB
  3
execpilj
360
FC
  3
Existant
360
FD
  3
extr
360
FE
  3
extr01
360
FF
  3
extr02
360
100
  3
extr03
360
101
  3
extr04
360
102
  3
extr05
360
103
  3
extrDIV
360
104
  3
f
360
105
  3
fa4
360
106
  3
FA_A2
360
107
  3
FA_B1
360
108
  3
FAC_1_COU_B
360
109
  3
FAC_A1
360
10A
  3
FAC_A2
360
10B
  3
FAC_A3
360
10C
  3
FAC_A4
360
10D
  3
FAC_B1
360
10E
  3
FAC_B2
360
10F
  3
FAC_C1
360
110
  3
FAC_C2
360
111
  3
FAC_H1_COUR
360
112
  3
FAC_H1_RUE
360
113
  3
faux plaf
360
114
  3
ff
360
115
  3
fin
360
116
  3
FLUIDES
360
117
  3
fo
360
118
  3
FO-AB
360
119
  3
FO-SGS
360
11A
  3
FO-SGX
360
11B
  3
FOLHA
360
11C
  3
FOLHAS
360
11D
  3
FORCE
360
11E
  3
FPT
360
11F
  3
frees
360
120
  3
FREEZE
360
121
  3
G
360
122
  3
gaines verticales
360
123
  3
gele
360
124
  3
geler
360
125
  3
gelé
360
126
  3
geometrie
360
127
  3
gpo
360
128
  3
gril
360
129
  3
gris8
360
12A
  3
gris9
360
12B
  3
GrundrisseA
360
12C
  3
géo
360
12D
  3
H
360
12E
  3
ha
360
12F
  3
HACHURES
360
130
  3
hand
360
131
  3
hat
360
132
  3
hh
360
133
  3
Hilfs
360
134
  3
hilfsk
360
135
  3
hydro
360
136
  3
il
360
137
  3
ILUM
360
138
  3
image
360
139
  3
import
360
13A
  3
INACTIF
360
13B
  3
incendie
360
13C
  3
ind
360
13D
  3
isometrix
360
13E
  3
jaune
360
13F
  3
joint
360
140
  3
Layers do Projecto
360
141
  3
LOCKS
360
142
  3
lolo
360
143
  3
LOOP7
360
144
  3
ls
360
145
  3
LUI
360
146
  3
lumi
360
147
  3
Main
360
148
  3
MODI
360
149
  3
mur
360
14A
  3
MURS_VITR
360
14B
  3
Murs_Vitrs
360
14C
  3
N
360
14D
  3
n-clav
360
14E
  3
Nur sichtbare
360
14F
  3
NV
360
150
  3
o
360
151
  3
Off
360
152
  3
on
360
153
  3
OPERATION
360
154
  3
OPERATION1
360
155
  3
OPERATION2
360
156
  3
OPERATION3
360
157
  3
P
360
158
  3
parte A
360
159
  3
Parte B
360
15A
  3
Parte C
360
15B
  3
Parte D
360
15C
  3
Parte E
360
15D
  3
Parte F
360
15E
  3
parte g
360
15F
  3
parte H
360
160
  3
parte H2
360
161
  3
parte i
360
162
  3
parte J
360
163
  3
pass
360
164
  3
passerelle
360
165
  3
pav
360
166
  3
paysagistes
360
167
  3
PB
360
168
  3
pea
360
169
  3
pea2
360
16A
  3
pea3
360
16B
  3
pena
360
16C
  3
penacon
360
16D
  3
penagelé
360
16E
  3
penamé
360
16F
  3
penasol
360
170
  3
penaT
360
171
  3
PH
360
172
  3
phasage
360
173
  3
phase
360
174
  3
PISO-1
360
175
  3
PISO0
360
176
  3
PISO1
360
177
  3
PL
360
178
  3
Place
360
179
  3
plan03
360
17A
  3
PLAN_MURS
360
17B
  3
planches
360
17C
  3
plr
360
17D
  3
plr_remp
360
17E
  3
points
360
17F
  3
pol
360
180
  3
POLY
360
181
  3
por
360
182
  3
PORTAS
360
183
  3
porte
360
184
  3
poteau
360
185
  3
PROTECTION
360
186
  3
R
360
187
  3
RAST
360
188
  3
rdc
360
189
  3
rdj
360
18A
  3
reb
360
18B
  3
region
360
18C
  3
repart
360
18D
  3
reseaux
360
18E
  3
rn
360
18F
  3
rouge
360
190
  3
rouge 240
360
191
  3
RRR
360
192
  3
s
360
193
  3
SANS XREF
360
194
  3
sh
360
195
  3
si
360
196
  3
site
360
197
  3
sm
360
198
  3
SOL
360
199
  3
solid10
360
19A
  3
solid30
360
19B
  3
SOLIDS
360
19C
  3
souff
360
19D
  3
souff01
360
19E
  3
SOUFF02
360
19F
  3
SOUFF03
360
1A0
  3
SOUFF05
360
1A1
  3
souff06
360
1A2
  3
souff403
360
1A3
  3
soussol
360
1A4
  3
sp
360
1A5
  3
Spanisch
360
1A6
  3
SPECIFIQUE
360
1A7
  3
stef
360
1A8
  3
sty
360
1A9
  3
surete
360
1AA
  3
surf
360
1AB
  3
surfaces
360
1AC
  3
sy
360
1AD
  3
TE
360
1AE
  3
tec
360
1AF
  3
temp
360
1B0
  3
terrasse
360
1B1
  3
Text
360
1B2
  3
TEXTE
360
1B3
  3
Textes
360
1B4
  3
tmp
360
1B5
  3
topo
360
1B6
  3
Total
360
1B7
  3
toto
360
1B8
  3
tr
360
1B9
  3
trace
360
1BA
  3
tracer
360
1BB
  3
TRAME
360
1BC
  3
travail_V7
360
1BD
  3
TRPATRIM
360
1BE
  3
TTE
360
1BF
  3
txt
360
1C0
  3
verriere
360
1C1
  3
vert
360
1C2
  3
vert 90
360
1C3
  3
vide
360
1C4
  3
vo
360
1C5
  3
wall
360
1C6
  3
wilmotte
360
1C7
  3
wilmotte_invisible
360
1C8
  3
wilmotte_visible
360
1C9
  3
work
360
1CA
  3
XFFF
360
1CB
  3
xref
360
1CC
  3
xref-des
360
1CD
  3
z1-des
360
1CE
  3
z2-des
360
1CF
  3
z3-des
360
1D0
  3
za
360
1D1
  3
ZG
360
1D2
  3
zone-vdi
360
1D3
  3
zones
360
1D4
  3
ztt-des
360
1D5
  0
SORTENTSTABLE
  5
299
102
{ACAD_REACTORS
330
3
102
}
330
3
100
AcDbSortentsTable
330
2
  0
LAYOUT
  5
E
102
{ACAD_XDICTIONARY
360
2ED
102
}
102
{ACAD_REACTORS
330
F
102
}
330
F
100
AcDbPlotSettings
  1

  2
\\FIERY X2E\Print
  4
A3
  6

 40
3.96875
 41
5.746754646301269
 42
3.96875
 43
6.064239501953125
 44
297.0530090332031
 45
420.1795043945312
 46
0.0
 47
0.0
 48
-7565.828273176605
 49
-7966.926176362663
140
18118.3377520427
141
27443.55800093296
142
1.0
143
88.8370399467904
 70
 11952
 72
     1
 73
     0
 74
     4
  7
monochrome.ctb
 75
     0
147
0.0112565659616637
148
7565.828273176605
149
7966.926176362663
100
AcDbLayout
  1
Model
 70
     1
 71
     0
 10
0.0
 20
0.0
 11
12.0
 21
9.0
 12
0.0
 22
0.0
 32
0.0
 14
0.0
 24
0.0
 34
0.0
 15
0.0
 25
0.0
 35
0.0
146
0.0
 13
0.0
 23
0.0
 33
0.0
 16
1.0
 26
0.0
 36
0.0
 17
0.0
 27
1.0
 37
0.0
 76
     0
330
2
331
1DF
  0
LAYOUT
  5
13
102
{ACAD_XDICTIONARY
360
2EF
102
}
102
{ACAD_REACTORS
330
F
102
}
330
F
100
AcDbPlotSettings
  1

  2
\\fiery x2e\print
  4
A4
  6

 40
5.746749877929687
 41
3.96875
 42
5.746749877929687
 43
3.96875
 44
209.9309997558594
 45
297.0530090332031
 46
0.89
 47
1.77
 48
6.349260255058197
 49
4.431556330764919
140
203.0
141
290.0
142
1.0
143
1.0
 70
   692
 72
     1
 73
     0
 74
     4
  7
monochrome.ctb
 75
    16
147
1.0
148
-6.349260255058197
149
-4.431556330764919
100
AcDbLayout
  1
plan du rail
 70
     1
 71
     1
 10
-0.2874896228714894
 20
-1.30719366923508
 11
209.6435101329879
 21
295.7458153639681
 12
0.0
 22
0.0
 32
0.0
 14
0.0
 24
0.0
 34
0.0
 15
210.0
 25
297.0
 35
0.0
146
0.0
 13
0.0
 23
0.0
 33
0.0
 16
1.0
 26
0.0
 36
0.0
 17
0.0
 27
1.0
 37
0.0
 76
     0
330
10
  0
MATERIAL
  5
1EE
102
{ACAD_XDICTIONARY
360
2F3
102
}
102
{ACAD_REACTORS
330
B
102
}
330
B
100
AcDbMaterial
  1
ByBlock
  0
MATERIAL
  5
1ED
102
{ACAD_XDICTIONARY
360
2F1
102
}
102
{ACAD_REACTORS
330
B
102
}
330
B
100
AcDbMaterial
  1
ByLayer
  0
MATERIAL
  5
A
102
{ACAD_XDICTIONARY
360
2EB
102
}
102
{ACAD_REACTORS
330
B
102
}
330
B
100
AcDbMaterial
  1
Global
  0
MLINESTYLE
  5
1F2
102
{ACAD_REACTORS
330
1EB
102
}
330
1EB
100
AcDbMlineStyle
  2
STANDARD
 70
     0
  3

 62
   256
 51
90.0
 52
90.0
 71
     2
 49
0.5
 62
   256
  6
BYLAYER
 49
-0.5
 62
   256
  6
BYLAYER
  0
ACDBPLACEHOLDER
  5
7
102
{ACAD_REACTORS
330
8
102
}
330
8
  0
TABLESTYLE
  5
1F3
102
{ACAD_XDICTIONARY
360
2F5
102
}
102
{ACAD_REACTORS
330
1F0
102
}
330
1F0
100
AcDbTableStyle
  3
Standard
 70
     0
 71
     0
 40
1.5
 41
1.5
280
     0
281
     0
  7
Standard
140
4.5
170
     2
 62
     0
 63
     7
283
     0
274
    -2
284
     1
 64
     0
275
    -2
285
     1
 65
     0
276
    -2
286
     1
 66
     0
277
    -2
287
     1
 67
     0
278
    -2
288
     1
 68
     0
279
    -2
289
     1
 69
     0
  7
Standard
140
6.0
170
     5
 62
     0
 63
     7
283
     0
274
    -2
284
     1
 64
     0
275
    -2
285
     1
 65
     0
276
    -2
286
     1
 66
     0
277
    -2
287
     1
 67
     0
278
    -2
288
     1
 68
     0
279
    -2
289
     1
 69
     0
  7
Standard
140
4.5
170
     5
 62
     0
 63
     7
283
     0
274
    -2
284
     1
 64
     0
275
    -2
285
     1
 65
     0
276
    -2
286
     1
 66
     0
277
    -2
287
     1
 67
     0
278
    -2
288
     1
 68
     0
279
    -2
289
     1
 69
     0
  0
VISUALSTYLE
  5
1E0
102
{ACAD_REACTORS
330
1E1
102
}
330
1E1
100
AcDbVisualStyle
  2
2dWireframe
 70
     4
 71
     0
 72
     2
 73
     0
 90
        0
 40
-0.6
 41
-30.0
 62
     5
 63
     7
 74
     1
 91
        4
 64
     7
 65
   257
 75
     1
175
     1
 42
1.0
 92
        0
 66
   257
 43
1.0
 76
     1
 77
     6
 78
     2
 67
     7
 79
     5
170
     0
171
     0
290
     0
174
     0
 93
        1
 44
0.0
173
     0
291
     0
 45
0.0
1001
ACAD
1000
AcDbSavedByObjectVersion
1070
     0
  0
VISUALSTYLE
  5
2A2
102
{ACAD_REACTORS
330
1E1
102
}
330
1E1
100
AcDbVisualStyle
  2
3D Hidden
 70
     6
 71
     1
 72
     2
 73
     2
 90
        0
 40
-0.6
 41
-30.0
 62
     5
 63
     7
 74
     2
 91
        2
 64
     7
 65
   257
 75
     2
175
     1
 42
40.0
 92
        0
 66
   257
 43
1.0
 76
     1
 77
     6
 78
     2
 67
     7
 79
     3
170
     0
171
     0
290
     0
174
     0
 93
        1
 44
0.0
173
     0
291
     0
 45
0.0
1001
ACAD
1000
AcDbSavedByObjectVersion
1070
     0
  0
VISUALSTYLE
  5
1F5
102
{ACAD_REACTORS
330
1E1
102
}
330
1E1
100
AcDbVisualStyle
  2
3dWireframe
 70
     5
 71
     0
 72
     2
 73
     0
 90
        0
 40
-0.6
 41
-30.0
 62
     5
 63
     7
 74
     1
 91
        4
 64
     7
 65
   257
 75
     1
175
     1
 42
1.0
 92
        0
 66
   257
 43
1.0
 76
     1
 77
     6
 78
     2
 67
     7
 79
     5
170
     0
171
     0
290
     0
174
     0
 93
        1
 44
0.0
173
     0
291
     0
 45
0.0
1001
ACAD
1000
AcDbSavedByObjectVersion
1070
     0
  0
VISUALSTYLE
  5
2A1
102
{ACAD_REACTORS
330
1E1
102
}
330
1E1
100
AcDbVisualStyle
  2
Basic
 70
     7
 71
     1
 72
     0
 73
     1
 90
        0
 40
-0.6
 41
-30.0
 62
     5
 63
     7
 74
     0
 91
        4
 64
     7
 65
   257
 75
     1
175
     1
 42
1.0
 92
        8
 66
     7
 43
1.0
 76
     1
 77
     6
 78
     2
 67
     7
 79
     5
170
     0
171
     0
290
     0
174
     0
 93
        1
 44
0.0
173
     0
291
     1
 45
0.0
1001
ACAD
1000
AcDbSavedByObjectVersion
1070
     0
  0
VISUALSTYLE
  5
2A5
102
{ACAD_REACTORS
330
1E1
102
}
330
1E1
100
AcDbVisualStyle
  2
Brighten
 70
    12
 71
     2
 72
     2
 73
     0
 90
        0
 40
-0.6
 41
-30.0
 62
     5
 63
     7
 74
     1
 91
        4
 64
     7
 65
   257
 75
     1
175
     1
 42
1.0
 92
        8
 66
     7
 43
1.0
 76
     1
 77
     6
 78
     2
 67
     7
 79
     5
170
     0
171
     0
290
     0
174
     0
 93
        1
 44
50.0
173
     0
291
     1
 45
0.0
1001
ACAD
1000
AcDbSavedByObjectVersion
1070
     0
  0
VISUALSTYLE
  5
2A9
102
{ACAD_REACTORS
330
1E1
102
}
330
1E1
100
AcDbVisualStyle
  2
ColorChange
 70
    16
 71
     2
 72
     2
 73
     3
 90
        0
 40
-0.6
 41
-30.0
 62
     5
 63
     8
 74
     1
 91
        4
 64
     7
 65
   257
 75
     1
175
     1
 42
1.0
 92
        8
 66
     8
 43
1.0
 76
     1
 77
     6
 78
     2
 67
     7
 79
     5
170
     0
171
     0
290
     0
174
     0
 93
        1
 44
0.0
173
     0
291
     1
 45
0.0
1001
ACAD
1000
AcDbSavedByObjectVersion
1070
     0
  0
VISUALSTYLE
  5
2A3
102
{ACAD_REACTORS
330
1E1
102
}
330
1E1
100
AcDbVisualStyle
  2
Conceptual
 70
     9
 71
     3
 72
     2
 73
     0
 90
        0
 40
-0.6
 41
-30.0
 62
     5
 63
     7
 74
     2
 91
        2
 64
     7
 65
   257
 75
     1
175
     1
 42
40.0
 92
        8
 66
     7
 43
1.0
 76
     1
 77
     6
 78
     2
 67
     7
 79
     3
170
     0
171
     0
290
     0
174
     0
 93
        1
 44
0.0
173
     0
291
     0
 45
0.0
1001
ACAD
1000
AcDbSavedByObjectVersion
1070
     0
  0
VISUALSTYLE
  5
2A4
102
{ACAD_REACTORS
330
1E1
102
}
330
1E1
100
AcDbVisualStyle
  2
Dim
 70
    11
 71
     2
 72
     2
 73
     0
 90
        0
 40
-0.6
 41
-30.0
 62
     5
 63
     7
 74
     1
 91
        4
 64
     7
 65
   257
 75
     1
175
     1
 42
1.0
 92
        8
 66
     7
 43
1.0
 76
     1
 77
     6
 78
     2
 67
     7
 79
     5
170
     0
171
     0
290
     0
174
     0
 93
        1
 44
-50.0
173
     0
291
     1
 45
0.0
1001
ACAD
1000
AcDbSavedByObjectVersion
1070
     0
  0
VISUALSTYLE
  5
2A8
102
{ACAD_REACTORS
330
1E1
102
}
330
1E1
100
AcDbVisualStyle
  2
Facepattern
 70
    15
 71
     2
 72
     2
 73
     0
 90
        0
 40
-0.6
 41
-30.0
 62
     5
 63
     7
 74
     1
 91
        4
 64
     7
 65
   257
 75
     1
175
     1
 42
1.0
 92
        8
 66
     7
 43
1.0
 76
     1
 77
     6
 78
     2
 67
     7
 79
     5
170
     0
171
     0
290
     0
174
     0
 93
        1
 44
0.0
173
     0
291
     1
 45
0.0
1001
ACAD
1000
AcDbSavedByObjectVersion
1070
     0
  0
VISUALSTYLE
  5
29D
102
{ACAD_REACTORS
330
1E1
102
}
330
1E1
100
AcDbVisualStyle
  2
Flat
 70
     0
 71
     2
 72
     1
 73
     1
 90
        2
 40
-0.6
 41
30.0
 62
     5
 63
     7
 74
     0
 91
        4
 64
     7
 65
   257
 75
     1
175
     1
 42
1.0
 92
        8
 66
     7
 43
1.0
 76
     1
 77
     6
 78
     2
 67
     7
 79
     5
170
     0
171
     0
290
     0
174
     0
 93
       13
 44
0.0
173
     0
291
     1
 45
0.0
1001
ACAD
1000
AcDbSavedByObjectVersion
1070
     0
  0
VISUALSTYLE
  5
29E
102
{ACAD_REACTORS
330
1E1
102
}
330
1E1
100
AcDbVisualStyle
  2
FlatWithEdges
 70
     1
 71
     2
 72
     1
 73
     1
 90
        2
 40
-0.6
 41
30.0
 62
     5
 63
     7
 74
     1
 91
        4
 64
     7
 65
   257
 75
     1
175
     1
 42
1.0
 92
        0
 66
   257
 43
1.0
 76
     1
 77
     6
 78
     2
 67
     7
 79
     5
170
     0
171
     0
290
     0
174
     0
 93
       13
 44
0.0
173
     0
291
     1
 45
0.0
1001
ACAD
1000
AcDbSavedByObjectVersion
1070
     0
  0
VISUALSTYLE
  5
29F
102
{ACAD_REACTORS
330
1E1
102
}
330
1E1
100
AcDbVisualStyle
  2
Gouraud
 70
     2
 71
     2
 72
     2
 73
     1
 90
        2
 40
-0.6
 41
30.0
 62
     5
 63
     7
 74
     0
 91
        4
 64
     7
 65
   257
 75
     1
175
     1
 42
1.0
 92
        0
 66
     7
 43
1.0
 76
     1
 77
     6
 78
     2
 67
     7
 79
     5
170
     0
171
     0
290
     0
174
     0
 93
       13
 44
0.0
173
     0
291
     1
 45
0.0
1001
ACAD
1000
AcDbSavedByObjectVersion
1070
     0
  0
VISUALSTYLE
  5
2A0
102
{ACAD_REACTORS
330
1E1
102
}
330
1E1
100
AcDbVisualStyle
  2
GouraudWithEdges
 70
     3
 71
     2
 72
     2
 73
     1
 90
        2
 40
-0.6
 41
30.0
 62
     5
 63
     7
 74
     1
 91
        4
 64
     7
 65
   257
 75
     1
175
     1
 42
1.0
 92
        0
 66
   257
 43
1.0
 76
     1
 77
     6
 78
     2
 67
     7
 79
     5
170
     0
171
     0
290
     0
174
     0
 93
       13
 44
0.0
173
     0
291
     1
 45
0.0
1001
ACAD
1000
AcDbSavedByObjectVersion
1070
     0
  0
VISUALSTYLE
  5
2A7
102
{ACAD_REACTORS
330
1E1
102
}
330
1E1
100
AcDbVisualStyle
  2
Linepattern
 70
    14
 71
     2
 72
     2
 73
     0
 90
        0
 40
-0.6
 41
-30.0
 62
     5
 63
     7
 74
     1
 91
        4
 64
     7
 65
   257
 75
     7
175
     7
 42
1.0
 92
        8
 66
     7
 43
1.0
 76
     1
 77
     6
 78
     2
 67
     7
 79
     5
170
     0
171
     0
290
     0
174
     0
 93
        1
 44
0.0
173
     0
291
     1
 45
0.0
1001
ACAD
1000
AcDbSavedByObjectVersion
1070
     0
  0
VISUALSTYLE
  5
1F4
102
{ACAD_REACTORS
330
1E1
102
}
330
1E1
100
AcDbVisualStyle
  2
Realistic
 70
     8
 71
     2
 72
     2
 73
     0
 90
        0
 40
-0.6
 41
-30.0
 62
     5
 63
     7
 74
     1
 91
        0
 64
     7
 65
   257
 75
     1
175
     1
 42
1.0
 92
        8
 66
     8
 43
1.0
 76
     1
 77
     6
 78
     2
 67
     7
 79
     5
170
     0
171
     0
290
     0
174
     0
 93
       13
 44
0.0
173
     0
291
     0
 45
0.0
1001
ACAD
1000
AcDbSavedByObjectVersion
1070
     0
  0
VISUALSTYLE
  5
2A6
102
{ACAD_REACTORS
330
1E1
102
}
330
1E1
100
AcDbVisualStyle
  2
Thicken
 70
    13
 71
     2
 72
     2
 73
     0
 90
        0
 40
-0.6
 41
-30.0
 62
     5
 63
     7
 74
     1
 91
        4
 64
     7
 65
   257
 75
     1
175
     1
 42
1.0
 92
       12
 66
     7
 43
1.0
 76
     1
 77
     6
 78
     2
 67
     7
 79
     5
170
     0
171
     0
290
     0
174
     0
 93
        1
 44
0.0
173
     0
291
     1
 45
0.0
1001
ACAD
1000
AcDbSavedByObjectVersion
1070
     0
  0
DICTIONARYVAR
  5
29B
102
{ACAD_REACTORS
330
29A
102
}
330
29A
100
DictionaryVariables
280
     0
  1
STANDARD
  0
DICTIONARYVAR
  5
2C5
102
{ACAD_REACTORS
330
29A
102
}
330
29A
100
DictionaryVariables
280
     0
  1
1
  0
DICTIONARYVAR
  5
2C4
102
{ACAD_REACTORS
330
29A
102
}
330
29A
100
DictionaryVariables
280
     0
  1
1
  0
DICTIONARYVAR
  5
2C3
102
{ACAD_REACTORS
330
29A
102
}
330
29A
100
DictionaryVariables
280
     0
  1
0
  0
DICTIONARYVAR
  5
2C2
102
{ACAD_REACTORS
330
29A
102
}
330
29A
100
DictionaryVariables
280
     0
  1
127
  0
XRECORD
  5
17
102
{ACAD_REACTORS
330
16
102
}
330
16
100
AcDbXrecord
280
     1
  1
--jc
  1
--jc*
  1
*
  1
*
 70
     0
  1
*
  1
*
  0
XRECORD
  5
18
102
{ACAD_REACTORS
330
16
102
}
330
16
100
AcDbXrecord
280
     1
  1
0
  1
0*
  1
*
  1
*
 70
     0
  1
*
  1
*
  0
XRECORD
  5
19
102
{ACAD_REACTORS
330
16
102
}
330
16
100
AcDbXrecord
280
     1
  1
0 existente
  1
0*
  1
*
  1
*
 70
     0
  1
*
  1
*
  0
XRECORD
  5
1A
102
{ACAD_REACTORS
330
16
102
}
330
16
100
AcDbXrecord
280
     1
  1
0.13
  1
*
  1
*
  1
*
 70
     0
  1
0.13 mm
  1
*
  0
XRECORD
  5
1B
102
{ACAD_REACTORS
330
16
102
}
330
16
100
AcDbXrecord
280
     1
  1
0.15 mm
  1
*
  1
*
  1
*
 70
     0
  1
0.15 mm
  1
*
  0
XRECORD
  5
1C
102
{ACAD_REACTORS
330
16
102
}
330
16
100
AcDbXrecord
280
     1
  1
0.20 mm
  1
*
  1
*
  1
*
 70
     0
  1
0.20 mm
  1
*
  0
XRECORD
  5
1D
102
{ACAD_REACTORS
330
16
102
}
330
16
100
AcDbXrecord
280
     1
  1
0.25 mm
  1
*
  1
*
  1
*
 70
     0
  1
0.25 mm
  1
*
  0
XRECORD
  5
1E
102
{ACAD_REACTORS
330
16
102
}
330
16
100
AcDbXrecord
280
     1
  1
00
  1
*00*
  1
*
  1
*
 70
     0
  1
*
  1
*
  0
XRECORD
  5
1F
102
{ACAD_REACTORS
330
16
102
}
330
16
100
AcDbXrecord
280
     1
  1
0000
  1
?p,?n,?z,*_points
  1
*
  1
*
 70
     0
  1
*
  1
*
  0
XRECORD
  5
20
102
{ACAD_REACTORS
330
16
102
}
330
16
100
AcDbXrecord
280
     1
  1
01
  1
*1001*
  1
*
  1
*
 70
     0
  1
*
  1
*
  0
XRECORD
  5
21
102
{ACAD_REACTORS
330
16
102
}
330
16
100
AcDbXrecord
280
     1
  1
02
  1
02*
  1
*
  1
*
 70
     0
  1
*
  1
*
  0
XRECORD
  5
22
102
{ACAD_REACTORS
330
16
102
}
330
16
100
AcDbXrecord
280
     1
  1
03
  1
*03*
  1
*
  1
*
 70
     0
  1
*
  1
*
  0
XRECORD
  5
23
102
{ACAD_REACTORS
330
16
102
}
330
16
100
AcDbXrecord
280
     1
  1
09
  1
*1009*
  1
*
  1
*
 70
     0
  1
*
  1
*
  0
XRECORD
  5
24
102
{ACAD_REACTORS
330
16
102
}
330
16
100
AcDbXrecord
280
     1
  1
1
  1
*
  1
1
  1
*
 70
     0
  1
*
  1
*
  0
XRECORD
  5
25
102
{ACAD_REACTORS
330
16
102
}
330
16
100
AcDbXrecord
280
     1
  1
1 Traçado
  1
1*
  1
*
  1
*
 70
     0
  1
*
  1
*
  0
XRECORD
  5
26
102
{ACAD_REACTORS
330
16
102
}
330
16
100
AcDbXrecord
280
     1
  1
10
  1
CB2*
  1
*
  1
*
 70
     0
  1
*
  1
*
  0
XRECORD
  5
27
102
{ACAD_REACTORS
330
16
102
}
330
16
100
AcDbXrecord
280
     1
  1
1008
  1
1008*
  1
*
  1
*
 70
     0
  1
*
  1
*
  0
XRECORD
  5
28
102
{ACAD_REACTORS
330
16
102
}
330
16
100
AcDbXrecord
280
     1
  1
1101
  1
1101*
  1
*
  1
*
 70
     0
  1
*
  1
*
  0
XRECORD
  5
29
102
{ACAD_REACTORS
330
16
102
}
330
16
100
AcDbXrecord
280
     1
  1
1105
  1
1105*
  1
*
  1
*
 70
     0
  1
*
  1
*
  0
XRECORD
  5
2A
102
{ACAD_REACTORS
330
16
102
}
330
16
100
AcDbXrecord
280
     1
  1
1108
  1
1108*
  1
*
  1
*
 70
     0
  1
*
  1
*
  0
XRECORD
  5
2B
102
{ACAD_REACTORS
330
16
102
}
330
16
100
AcDbXrecord
280
     1
  1
111
  1
*
  1
*
  1
*
 70
     0
  1
0.09
  1
*
  0
XRECORD
  5
2C
102
{ACAD_REACTORS
330
16
102
}
330
16
100
AcDbXrecord
280
     1
  1
1205
  1
1205*
  1
*
  1
*
 70
     0
  1
*
  1
*
  0
XRECORD
  5
2D
102
{ACAD_REACTORS
330
16
102
}
330
16
100
AcDbXrecord
280
     1
  1
15
  1
*15
  1
*
  1
*
 70
     0
  1
*
  1
*
  0
XRECORD
  5
2E
102
{ACAD_REACTORS
330
16
102
}
330
16
100
AcDbXrecord
280
     1
  1
1er
  1
*1er*
  1
*
  1
*
 70
     0
  1
*
  1
*
  0
XRECORD
  5
2F
102
{ACAD_REACTORS
330
16
102
}
330
16
100
AcDbXrecord
280
     1
  1
2
  1
2*
  1
*
  1
*
 70
     0
  1
*
  1
*
  0
XRECORD
  5
30
102
{ACAD_REACTORS
330
16
102
}
330
16
100
AcDbXrecord
280
     1
  1
2 Drenagem
  1
2*
  1
*
  1
*
 70
     0
  1
*
  1
*
  0
XRECORD
  5
31
102
{ACAD_REACTORS
330
16
102
}
330
16
100
AcDbXrecord
280
     1
  1
25
  1
?25
  1
*
  1
*
 70
     0
  1
*
  1
*
  0
XRECORD
  5
32
102
{ACAD_REACTORS
330
16
102
}
330
16
100
AcDbXrecord
280
     1
  1
252
  1
*
  1
252
  1
*
 70
     0
  1
*
  1
*
  0
XRECORD
  5
33
102
{ACAD_REACTORS
330
16
102
}
330
16
100
AcDbXrecord
280
     1
  1
2eme
  1
*2e*
  1
*
  1
*
 70
     0
  1
*
  1
*
  0
XRECORD
  5
34
102
{ACAD_REACTORS
330
16
102
}
330
16
100
AcDbXrecord
280
     1
  1
3
  1
3*
  1
*
  1
*
 70
     0
  1
*
  1
*
  0
XRECORD
  5
35
102
{ACAD_REACTORS
330
16
102
}
330
16
100
AcDbXrecord
280
     1
  1
3 Pavimentação
  1
3*
  1
*
  1
*
 70
     0
  1
*
  1
*
  0
XRECORD
  5
36
102
{ACAD_REACTORS
330
16
102
}
330
16
100
AcDbXrecord
280
     1
  1
30
  1
CB3*
  1
*
  1
*
 70
     0
  1
*
  1
*
  0
XRECORD
  5
37
102
{ACAD_REACTORS
330
16
102
}
330
16
100
AcDbXrecord
280
     1
  1
3d
  1
3d*
  1
*
  1
*
 70
     0
  1
*
  1
*
  0
XRECORD
  5
38
102
{ACAD_REACTORS
330
16
102
}
330
16
100
AcDbXrecord
280
     1
  1
3D-LAYER
  1
*
  1
*
  1
*
 70
     0
  1
*
  1
*
  0
XRECORD
  5
39
102
{ACAD_REACTORS
330
16
102
}
330
16
100
AcDbXrecord
280
     1
  1
3eme
  1
*3e*
  1
*
  1
*
 70
     0
  1
*
  1
*
  0
XRECORD
  5
3A
102
{ACAD_REACTORS
330
16
102
}
330
16
100
AcDbXrecord
280
     1
  1
4
  1
4*
  1
*
  1
*
 70
     0
  1
*
  1
*
  0
XRECORD
  5
3B
102
{ACAD_REACTORS
330
16
102
}
330
16
100
AcDbXrecord
280
     1
  1
40
  1
CB4*
  1
*
  1
*
 70
     0
  1
*
  1
*
  0
XRECORD
  5
3C
102
{ACAD_REACTORS
330
16
102
}
330
16
100
AcDbXrecord
280
     1
  1
4eme
  1
*4e*
  1
*
  1
*
 70
     0
  1
*
  1
*
  0
XRECORD
  5
3D
102
{ACAD_REACTORS
330
16
102
}
330
16
100
AcDbXrecord
280
     1
  1
4r
  1
4r
  1
*
  1
*
 70
     0
  1
*
  1
*
  0
XRECORD
  5
3E
102
{ACAD_REACTORS
330
16
102
}
330
16
100
AcDbXrecord
280
     1
  1
5
  1
5*
  1
*
  1
*
 70
     0
  1
*
  1
*
  0
XRECORD
  5
3F
102
{ACAD_REACTORS
330
16
102
}
330
16
100
AcDbXrecord
280
     1
  1
5 Sinalização
  1
5*
  1
*
  1
*
 70
     0
  1
*
  1
*
  0
XRECORD
  5
40
102
{ACAD_REACTORS
330
16
102
}
330
16
100
AcDbXrecord
280
     1
  1
50
  1
CB5*
  1
*
  1
*
 70
     0
  1
*
  1
*
  0
XRECORD
  5
41
102
{ACAD_REACTORS
330
16
102
}
330
16
100
AcDbXrecord
280
     1
  1
5eme
  1
*5e*
  1
*
  1
*
 70
     0
  1
*
  1
*
  0
XRECORD
  5
42
102
{ACAD_REACTORS
330
16
102
}
330
16
100
AcDbXrecord
280
     1
  1
6
  1
6*
  1
*
  1
*
 70
     0
  1
*
  1
*
  0
XRECORD
  5
43
102
{ACAD_REACTORS
330
16
102
}
330
16
100
AcDbXrecord
280
     1
  1
6 Iluminação Pública
  1
6*
  1
*
  1
*
 70
     0
  1
*
  1
*
  0
XRECORD
  5
44
102
{ACAD_REACTORS
330
16
102
}
330
16
100
AcDbXrecord
280
     1
  1
60
  1
CB6*
  1
*
  1
*
 70
     0
  1
*
  1
*
  0
XRECORD
  5
45
102
{ACAD_REACTORS
330
16
102
}
330
16
100
AcDbXrecord
280
     1
  1
6eme
  1
*6e*
  1
*
  1
*
 70
     0
  1
*
  1
*
  0
XRECORD
  5
46
102
{ACAD_REACTORS
330
16
102
}
330
16
100
AcDbXrecord
280
     1
  1
7
  1
*
  1
7
  1
*
 70
     0
  1
*
  1
*
  0
XRECORD
  5
47
102
{ACAD_REACTORS
330
16
102
}
330
16
100
AcDbXrecord
280
     1
  1
70
  1
CB7*
  1
*
  1
*
 70
     0
  1
*
  1
*
  0
XRECORD
  5
48
102
{ACAD_REACTORS
330
16
102
}
330
16
100
AcDbXrecord
280
     1
  1
7eme
  1
*7e*
  1
*
  1
*
 70
     0
  1
*
  1
*
  0
XRECORD
  5
49
102
{ACAD_REACTORS
330
16
102
}
330
16
100
AcDbXrecord
280
     1
  1
8
  1
8*
  1
*
  1
*
 70
     0
  1
*
  1
*
  0
XRECORD
  5
4A
102
{ACAD_REACTORS
330
16
102
}
330
16
100
AcDbXrecord
280
     1
  1
80
  1
CB8*
  1
*
  1
*
 70
     0
  1
*
  1
*
  0
XRECORD
  5
4B
102
{ACAD_REACTORS
330
16
102
}
330
16
100
AcDbXrecord
280
     1
  1
8eme
  1
*8e*
  1
*
  1
*
 70
     0
  1
*
  1
*
  0
XRECORD
  5
4C
102
{ACAD_REACTORS
330
16
102
}
330
16
100
AcDbXrecord
280
     1
  1
90
  1
CB9*
  1
*
  1
*
 70
     0
  1
*
  1
*
  0
XRECORD
  5
4D
102
{ACAD_REACTORS
330
16
102
}
330
16
100
AcDbXrecord
280
     1
  1
a
  1
a*
  1
*
  1
*
 70
     0
  1
*
  1
*
  0
XRECORD
  5
4E
102
{ACAD_REACTORS
330
16
102
}
330
16
100
AcDbXrecord
280
     1
  1
A00
  1
A0?*
  1
*
  1
*
 70
     0
  1
*
  1
*
  0
XRECORD
  5
4F
102
{ACAD_REACTORS
330
16
102
}
330
16
100
AcDbXrecord
280
     1
  1
A10
  1
A1?*
  1
*
  1
*
 70
     0
  1
*
  1
*
  0
XRECORD
  5
50
102
{ACAD_REACTORS
330
16
102
}
330
16
100
AcDbXrecord
280
     1
  1
A20
  1
A2?*
  1
*
  1
*
 70
     0
  1
*
  1
*
  0
XRECORD
  5
51
102
{ACAD_REACTORS
330
16
102
}
330
16
100
AcDbXrecord
280
     1
  1
A30
  1
A3?*
  1
*
  1
*
 70
     0
  1
*
  1
*
  0
XRECORD
  5
52
102
{ACAD_REACTORS
330
16
102
}
330
16
100
AcDbXrecord
280
     1
  1
A40
  1
A4?*
  1
*
  1
*
 70
     0
  1
*
  1
*
  0
XRECORD
  5
53
102
{ACAD_REACTORS
330
16
102
}
330
16
100
AcDbXrecord
280
     1
  1
A50
  1
A5?*
  1
*
  1
*
 70
     0
  1
*
  1
*
  0
XRECORD
  5
54
102
{ACAD_REACTORS
330
16
102
}
330
16
100
AcDbXrecord
280
     1
  1
A60
  1
A6?*
  1
*
  1
*
 70
     0
  1
*
  1
*
  0
XRECORD
  5
55
102
{ACAD_REACTORS
330
16
102
}
330
16
100
AcDbXrecord
280
     1
  1
A70
  1
A7?*
  1
*
  1
*
 70
     0
  1
*
  1
*
  0
XRECORD
  5
56
102
{ACAD_REACTORS
330
16
102
}
330
16
100
AcDbXrecord
280
     1
  1
A80
  1
A8?*
  1
*
  1
*
 70
     0
  1
*
  1
*
  0
XRECORD
  5
57
102
{ACAD_REACTORS
330
16
102
}
330
16
100
AcDbXrecord
280
     1
  1
A90
  1
A9?*
  1
*
  1
*
 70
     0
  1
*
  1
*
  0
XRECORD
  5
58
102
{ACAD_REACTORS
330
16
102
}
330
16
100
AcDbXrecord
280
     1
  1
A_co
  1
A_co*
  1
*
  1
*
 70
     0
  1
*
  1
*
  0
XRECORD
  5
59
102
{ACAD_REACTORS
330
16
102
}
330
16
100
AcDbXrecord
280
     1
  1
A_Families
  1
A?0_*
  1
*
  1
*
 70
     0
  1
*
  1
*
  0
XRECORD
  5
5A
102
{ACAD_REACTORS
330
16
102
}
330
16
100
AcDbXrecord
280
     1
  1
A_fp_h
  1
*A_fp_h*
  1
*
  1
*
 70
     0
  1
*
  1
*
  0
XRECORD
  5
5B
102
{ACAD_REACTORS
330
16
102
}
330
16
100
AcDbXrecord
280
     1
  1
A_fp_t
  1
*A_fp_t*
  1
*
  1
*
 70
     0
  1
*
  1
*
  0
XRECORD
  5
5C
102
{ACAD_REACTORS
330
16
102
}
330
16
100
AcDbXrecord
280
     1
  1
A_plan
  1
A_plan*
  1
*
  1
*
 70
     0
  1
*
  1
*
  0
XRECORD
  5
5D
102
{ACAD_REACTORS
330
16
102
}
330
16
100
AcDbXrecord
280
     1
  1
A_sol
  1
*a_sol*
  1
*
  1
*
 70
     0
  1
*
  1
*
  0
XRECORD
  5
5E
102
{ACAD_REACTORS
330
16
102
}
330
16
100
AcDbXrecord
280
     1
  1
A_sol_
  1
*a_sol*
  1
*
  1
*
 70
     0
  1
*
  1
*
  0
XRECORD
  5
5F
102
{ACAD_REACTORS
330
16
102
}
330
16
100
AcDbXrecord
280
     1
  1
a_soli
  1
a_soli_*
  1
*
  1
*
 70
     0
  1
*
  1
*
  0
XRECORD
  5
60
102
{ACAD_REACTORS
330
16
102
}
330
16
100
AcDbXrecord
280
     1
  1
A_Total
  1
A??_*
  1
*
  1
*
 70
     0
  1
*
  1
*
  0
XRECORD
  5
61
102
{ACAD_REACTORS
330
16
102
}
330
16
100
AcDbXrecord
280
     1
  1
aa
  1
*text*
  1
*
  1
*
 70
     0
  1
*
  1
*
  0
XRECORD
  5
62
102
{ACAD_REACTORS
330
16
102
}
330
16
100
AcDbXrecord
280
     1
  1
AAA
  1
PlanGen15Pont*
  1
*
  1
*
 70
     0
  1
*
  1
*
  0
XRECORD
  5
63
102
{ACAD_REACTORS
330
16
102
}
330
16
100
AcDbXrecord
280
     1
  1
AART
  1
pead*
  1
*
  1
*
 70
   260
  1
*
  1
*
  0
XRECORD
  5
64
102
{ACAD_REACTORS
330
16
102
}
330
16
100
AcDbXrecord
280
     1
  1
AART2
  1
pead*
  1
*
  1
*
 70
   772
  1
*
  1
*
  0
XRECORD
  5
65
102
{ACAD_REACTORS
330
16
102
}
330
16
100
AcDbXrecord
280
     1
  1
AART3
  1
pead*
  1
*
  1
*
 70
   256
  1
*
  1
*
  0
XRECORD
  5
66
102
{ACAD_REACTORS
330
16
102
}
330
16
100
AcDbXrecord
280
     1
  1
ac
  1
*ac*
  1
*
  1
*
 70
     0
  1
*
  1
*
  0
XRECORD
  5
67
102
{ACAD_REACTORS
330
16
102
}
330
16
100
AcDbXrecord
280
     1
  1
ACAB
  1
*ACAB*
  1
*
  1
*
 70
     0
  1
*
  1
*
  0
XRECORD
  5
68
102
{ACAD_REACTORS
330
16
102
}
330
16
100
AcDbXrecord
280
     1
  1
active
  1
*
  1
*
  1
*
 70
     1
  1
*
  1
*
  0
XRECORD
  5
69
102
{ACAD_REACTORS
330
16
102
}
330
16
100
AcDbXrecord
280
     1
  1
activo
  1
*
  1
*
  1
*
 70
    48
  1
*
  1
*
  0
XRECORD
  5
6A
102
{ACAD_REACTORS
330
16
102
}
330
16
100
AcDbXrecord
280
     1
  1
activos
  1
*
  1
*
  1
*
 70
    48
  1
*
  1
*
  0
XRECORD
  5
6B
102
{ACAD_REACTORS
330
16
102
}
330
16
100
AcDbXrecord
280
     1
  1
activé
  1
*
  1
*
  1
*
 70
     1
  1
*
  1
*
  0
XRECORD
  5
6C
102
{ACAD_REACTORS
330
16
102
}
330
16
100
AcDbXrecord
280
     1
  1
ae
  1
a*e*
  1
*
  1
*
 70
     0
  1
*
  1
*
  0
XRECORD
  5
6D
102
{ACAD_REACTORS
330
16
102
}
330
16
100
AcDbXrecord
280
     1
  1
alle _
  1
_*,H__*
  1
*
  1
*
 70
     0
  1
*
  1
*
  0
XRECORD
  5
6E
102
{ACAD_REACTORS
330
16
102
}
330
16
100
AcDbXrecord
280
     1
  1
Alpha
  1
*
  1
*
  1
*
 70
     0
  1
*
  1
*
  0
XRECORD
  5
6F
102
{ACAD_REACTORS
330
16
102
}
330
16
100
AcDbXrecord
280
     1
  1
alçado 1
  1
1201*,00*
  1
*
  1
*
 70
     0
  1
*
  1
*
  0
XRECORD
  5
70
102
{ACAD_REACTORS
330
16
102
}
330
16
100
AcDbXrecord
280
     1
  1
alçados
  1
12*,00*,*|12*,*|00*
  1
*
  1
*
 70
     0
  1
*
  1
*
  0
XRECORD
  5
71
102
{ACAD_REACTORS
330
16
102
}
330
16
100
AcDbXrecord
280
     1
  1
anneau
  1
*ext_ann*
  1
*
  1
*
 70
     0
  1
*
  1
*
  0
XRECORD
  5
72
102
{ACAD_REACTORS
330
16
102
}
330
16
100
AcDbXrecord
280
     1
  1
Aplats
  1
A_*
  1
*
  1
*
 70
     0
  1
*
  1
*
  0
XRECORD
  5
73
102
{ACAD_REACTORS
330
16
102
}
330
16
100
AcDbXrecord
280
     1
  1
arch
  1
arch*
  1
*
  1
*
 70
     0
  1
*
  1
*
  0
XRECORD
  5
74
102
{ACAD_REACTORS
330
16
102
}
330
16
100
AcDbXrecord
280
     1
  1
archi
  1
a*
  1
*
  1
*
 70
     0
  1
*
  1
*
  0
XRECORD
  5
75
102
{ACAD_REACTORS
330
16
102
}
330
16
100
AcDbXrecord
280
     1
  1
archi-geler
  1
ar*
  1
*
  1
*
 70
     3
  1
*
  1
*
  0
XRECORD
  5
76
102
{ACAD_REACTORS
330
16
102
}
330
16
100
AcDbXrecord
280
     1
  1
are
  1
*are*
  1
*
  1
*
 70
     0
  1
*
  1
*
  0
XRECORD
  5
77
102
{ACAD_REACTORS
330
16
102
}
330
16
100
AcDbXrecord
280
     1
  1
AREAS
  1
*AREAS
  1
*
  1
*
 70
     0
  1
*
  1
*
  0
XRECORD
  5
78
102
{ACAD_REACTORS
330
16
102
}
330
16
100
AcDbXrecord
280
     1
  1
ARM-INF-CORPO-A
  1
*ZA*
  1
*
  1
*
 70
     0
  1
*
  1
*
  0
XRECORD
  5
79
102
{ACAD_REACTORS
330
16
102
}
330
16
100
AcDbXrecord
280
     1
  1
ARM-INF-CORPO-C
  1
*ZC*
  1
*
  1
*
 70
     0
  1
*
  1
*
  0
XRECORD
  5
7A
102
{ACAD_REACTORS
330
16
102
}
330
16
100
AcDbXrecord
280
     1
  1
ARM-INF-CORPO-E
  1
*ZE*
  1
*
  1
*
 70
     0
  1
*
  1
*
  0
XRECORD
  5
7B
102
{ACAD_REACTORS
330
16
102
}
330
16
100
AcDbXrecord
280
     1
  1
ARM-INF-CORPO-F
  1
*ZF*
  1
*
  1
*
 70
     0
  1
*
  1
*
  0
XRECORD
  5
7C
102
{ACAD_REACTORS
330
16
102
}
330
16
100
AcDbXrecord
280
     1
  1
ARM-INF-CORPO-G
  1
*ZG*
  1
*
  1
*
 70
     0
  1
*
  1
*
  0
XRECORD
  5
7D
102
{ACAD_REACTORS
330
16
102
}
330
16
100
AcDbXrecord
280
     1
  1
ARM-INF-CORPO-I
  1
*ZI*
  1
*
  1
*
 70
     0
  1
*
  1
*
  0
XRECORD
  5
7E
102
{ACAD_REACTORS
330
16
102
}
330
16
100
AcDbXrecord
280
     1
  1
ARM-SUP-CORPO-E
  1
*ZE*
  1
*
  1
*
 70
     0
  1
*
  1
*
  0
XRECORD
  5
7F
102
{ACAD_REACTORS
330
16
102
}
330
16
100
AcDbXrecord
280
     1
  1
ARM-SUP-CORPO-F
  1
*zf*
  1
*
  1
*
 70
     0
  1
*
  1
*
  0
XRECORD
  5
80
102
{ACAD_REACTORS
330
16
102
}
330
16
100
AcDbXrecord
280
     1
  1
ARM-SUP-CORPO-I
  1
*ZI*,0
  1
*
  1
*
 70
     0
  1
*
  1
*
  0
XRECORD
  5
81
102
{ACAD_REACTORS
330
16
102
}
330
16
100
AcDbXrecord
280
     1
  1
ARQ
  1
*ARQ*
  1
*
  1
*
 70
     0
  1
*
  1
*
  0
XRECORD
  5
82
102
{ACAD_REACTORS
330
16
102
}
330
16
100
AcDbXrecord
280
     1
  1
ARQ P0
  1
*P0*
  1
*
  1
*
 70
     0
  1
*
  1
*
  0
XRECORD
  5
83
102
{ACAD_REACTORS
330
16
102
}
330
16
100
AcDbXrecord
280
     1
  1
ARQ P1
  1
*P1*
  1
*
  1
*
 70
     0
  1
*
  1
*
  0
XRECORD
  5
84
102
{ACAD_REACTORS
330
16
102
}
330
16
100
AcDbXrecord
280
     1
  1
AS
  1
*
  1
*
  1
*
 70
     1
  1
*
  1
*
  0
XRECORD
  5
85
102
{ACAD_REACTORS
330
16
102
}
330
16
100
AcDbXrecord
280
     1
  1
aux
  1
*aux*
  1
*
  1
*
 70
     0
  1
*
  1
*
  0
XRECORD
  5
86
102
{ACAD_REACTORS
330
16
102
}
330
16
100
AcDbXrecord
280
     1
  1
bat
  1
*bat_cont*
  1
*
  1
*
 70
     0
  1
*
  1
*
  0
XRECORD
  5
87
102
{ACAD_REACTORS
330
16
102
}
330
16
100
AcDbXrecord
280
     1
  1
batcont
  1
*bat_cont*
  1
*
  1
*
 70
     0
  1
*
  1
*
  0
XRECORD
  5
88
102
{ACAD_REACTORS
330
16
102
}
330
16
100
AcDbXrecord
280
     1
  1
batiment
  1
4*
  1
*
  1
*
 70
     0
  1
*
  1
*
  0
XRECORD
  5
89
102
{ACAD_REACTORS
330
16
102
}
330
16
100
AcDbXrecord
280
     1
  1
BAUS
  1
*BAU*
  1
*
  1
*
 70
     0
  1
*
  1
*
  0
XRECORD
  5
8A
102
{ACAD_REACTORS
330
16
102
}
330
16
100
AcDbXrecord
280
     1
  1
bet
  1
*bet*
  1
*
  1
*
 70
     0
  1
*
  1
*
  0
XRECORD
  5
8B
102
{ACAD_REACTORS
330
16
102
}
330
16
100
AcDbXrecord
280
     1
  1
BETOM
  1
P1*
  1
*
  1
*
 70
     0
  1
*
  1
*
  0
XRECORD
  5
8C
102
{ACAD_REACTORS
330
16
102
}
330
16
100
AcDbXrecord
280
     1
  1
BETS
  1
*BET*
  1
*
  1
*
 70
     0
  1
*
  1
*
  0
XRECORD
  5
8D
102
{ACAD_REACTORS
330
16
102
}
330
16
100
AcDbXrecord
280
     1
  1
blanc
  1
*
  1
white
  1
*
 70
     0
  1
*
  1
*
  0
XRECORD
  5
8E
102
{ACAD_REACTORS
330
16
102
}
330
16
100
AcDbXrecord
280
     1
  1
blocs
  1
*bl*
  1
*
  1
*
 70
     0
  1
*
  1
*
  0
XRECORD
  5
8F
102
{ACAD_REACTORS
330
16
102
}
330
16
100
AcDbXrecord
280
     1
  1
bur1
  1
*bur1
  1
*
  1
*
 70
     0
  1
*
  1
*
  0
XRECORD
  5
90
102
{ACAD_REACTORS
330
16
102
}
330
16
100
AcDbXrecord
280
     1
  1
bur2
  1
*bur2
  1
*
  1
*
 70
     0
  1
*
  1
*
  0
XRECORD
  5
91
102
{ACAD_REACTORS
330
16
102
}
330
16
100
AcDbXrecord
280
     1
  1
by layer
  1
05 HATCH
  1
*
  1
*
 70
     0
  1
*
  1
*
  0
XRECORD
  5
92
102
{ACAD_REACTORS
330
16
102
}
330
16
100
AcDbXrecord
280
     1
  1
c
  1
c*
  1
*
  1
*
 70
     0
  1
*
  1
*
  0
XRECORD
  5
93
102
{ACAD_REACTORS
330
16
102
}
330
16
100
AcDbXrecord
280
     1
  1
cae
  1
*cae
  1
*
  1
*
 70
     0
  1
*
  1
*
  0
XRECORD
  5
94
102
{ACAD_REACTORS
330
16
102
}
330
16
100
AcDbXrecord
280
     1
  1
CALPINAGE
  1
*CALP*
  1
*
  1
*
 70
     0
  1
*
  1
*
  0
XRECORD
  5
95
102
{ACAD_REACTORS
330
16
102
}
330
16
100
AcDbXrecord
280
     1
  1
calques vides
  1
--jcVide*
  1
*
  1
*
 70
     0
  1
*
  1
*
  0
XRECORD
  5
96
102
{ACAD_REACTORS
330
16
102
}
330
16
100
AcDbXrecord
280
     1
  1
capa reutilizada
  1
*
  1
*
  1
*
 70
    12
  1
*
  1
*
  0
XRECORD
  5
97
102
{ACAD_REACTORS
330
16
102
}
330
16
100
AcDbXrecord
280
     1
  1
capas activadas
  1
*
  1
*
  1
*
 70
     1
  1
*
  1
*
  0
XRECORD
  5
98
102
{ACAD_REACTORS
330
16
102
}
330
16
100
AcDbXrecord
280
     1
  1
capas desactivadas
  1
*
  1
*
  1
*
 70
     3
  1
*
  1
*
  0
XRECORD
  5
99
102
{ACAD_REACTORS
330
16
102
}
330
16
100
AcDbXrecord
280
     1
  1
CAR
  1
*CAR*
  1
*
  1
*
 70
     0
  1
*
  1
*
  0
XRECORD
  5
9A
102
{ACAD_REACTORS
330
16
102
}
330
16
100
AcDbXrecord
280
     1
  1
cart
  1
tacart*
  1
*
  1
*
 70
     0
  1
*
  1
*
  0
XRECORD
  5
9B
102
{ACAD_REACTORS
330
16
102
}
330
16
100
AcDbXrecord
280
     1
  1
Cartografia existente
  1
_*
  1
*
  1
*
 70
     0
  1
*
  1
*
  0
XRECORD
  5
9C
102
{ACAD_REACTORS
330
16
102
}
330
16
100
AcDbXrecord
280
     1
  1
CB
  1
CB*
  1
*
  1
*
 70
     0
  1
*
  1
*
  0
XRECORD
  5
9D
102
{ACAD_REACTORS
330
16
102
}
330
16
100
AcDbXrecord
280
     1
  1
CB00
  1
CB0*
  1
*
  1
*
 70
     0
  1
*
  1
*
  0
XRECORD
  5
9E
102
{ACAD_REACTORS
330
16
102
}
330
16
100
AcDbXrecord
280
     1
  1
CB10
  1
CB2*
  1
*
  1
*
 70
     0
  1
*
  1
*
  0
XRECORD
  5
9F
102
{ACAD_REACTORS
330
16
102
}
330
16
100
AcDbXrecord
280
     1
  1
CB20
  1
CB2*
  1
*
  1
*
 70
     0
  1
*
  1
*
  0
XRECORD
  5
A0
102
{ACAD_REACTORS
330
16
102
}
330
16
100
AcDbXrecord
280
     1
  1
CB30
  1
CB3*
  1
*
  1
*
 70
     0
  1
*
  1
*
  0
XRECORD
  5
A1
102
{ACAD_REACTORS
330
16
102
}
330
16
100
AcDbXrecord
280
     1
  1
CB40
  1
CB4*
  1
*
  1
*
 70
     0
  1
*
  1
*
  0
XRECORD
  5
A2
102
{ACAD_REACTORS
330
16
102
}
330
16
100
AcDbXrecord
280
     1
  1
CB50
  1
CB5*
  1
*
  1
*
 70
     0
  1
*
  1
*
  0
XRECORD
  5
A3
102
{ACAD_REACTORS
330
16
102
}
330
16
100
AcDbXrecord
280
     1
  1
CB60
  1
CB6*
  1
*
  1
*
 70
     0
  1
*
  1
*
  0
XRECORD
  5
A4
102
{ACAD_REACTORS
330
16
102
}
330
16
100
AcDbXrecord
280
     1
  1
CB70
  1
CB7*
  1
*
  1
*
 70
     0
  1
*
  1
*
  0
XRECORD
  5
A5
102
{ACAD_REACTORS
330
16
102
}
330
16
100
AcDbXrecord
280
     1
  1
CB80
  1
CB8*
  1
*
  1
*
 70
     0
  1
*
  1
*
  0
XRECORD
  5
A6
102
{ACAD_REACTORS
330
16
102
}
330
16
100
AcDbXrecord
280
     1
  1
CB90
  1
CB9*
  1
*
  1
*
 70
     0
  1
*
  1
*
  0
XRECORD
  5
A7
102
{ACAD_REACTORS
330
16
102
}
330
16
100
AcDbXrecord
280
     1
  1
CB_Families
  1
CB?0*
  1
*
  1
*
 70
     0
  1
*
  1
*
  0
XRECORD
  5
A8
102
{ACAD_REACTORS
330
16
102
}
330
16
100
AcDbXrecord
280
     1
  1
CB_general
  1
CB*
  1
*
  1
*
 70
     0
  1
*
  1
*
  0
XRECORD
  5
A9
102
{ACAD_REACTORS
330
16
102
}
330
16
100
AcDbXrecord
280
     1
  1
CCG
  1
*ZG-*
  1
*
  1
*
 70
     0
  1
*
  1
*
  0
XRECORD
  5
AA
102
{ACAD_REACTORS
330
16
102
}
330
16
100
AcDbXrecord
280
     1
  1
cf
  1
cf*
  1
*
  1
*
 70
     0
  1
*
  1
*
  0
XRECORD
  5
AB
102
{ACAD_REACTORS
330
16
102
}
330
16
100
AcDbXrecord
280
     1
  1
CFA
  1
CF*
  1
*
  1
*
 70
     0
  1
*
  1
*
  0
XRECORD
  5
AC
102
{ACAD_REACTORS
330
16
102
}
330
16
100
AcDbXrecord
280
     1
  1
cfaibles
  1
cf*
  1
*
  1
*
 70
     0
  1
*
  1
*
  0
XRECORD
  5
AD
102
{ACAD_REACTORS
330
16
102
}
330
16
100
AcDbXrecord
280
     1
  1
ch
  1
*chh
  1
*
  1
*
 70
     0
  1
*
  1
*
  0
XRECORD
  5
AE
102
{ACAD_REACTORS
330
16
102
}
330
16
100
AcDbXrecord
280
     1
  1
chm
  1
chm*
  1
*
  1
*
 70
     0
  1
*
  1
*
  0
XRECORD
  5
AF
102
{ACAD_REACTORS
330
16
102
}
330
16
100
AcDbXrecord
280
     1
  1
CIR
  1
*CIR
  1
*
  1
*
 70
     0
  1
*
  1
*
  0
XRECORD
  5
B0
102
{ACAD_REACTORS
330
16
102
}
330
16
100
AcDbXrecord
280
     1
  1
CIRC
  1
*CIR*
  1
*
  1
*
 70
     0
  1
*
  1
*
  0
XRECORD
  5
B1
102
{ACAD_REACTORS
330
16
102
}
330
16
100
AcDbXrecord
280
     1
  1
clim
  1
T_CL*
  1
*
  1
*
 70
     0
  1
*
  1
*
  0
XRECORD
  5
B2
102
{ACAD_REACTORS
330
16
102
}
330
16
100
AcDbXrecord
280
     1
  1
CLIM extraction
  1
*T_cle*
  1
*
  1
*
 70
     0
  1
*
  1
*
  0
XRECORD
  5
B3
102
{ACAD_REACTORS
330
16
102
}
330
16
100
AcDbXrecord
280
     1
  1
CLIM soufflage
  1
*T_cls*
  1
*
  1
*
 70
     0
  1
*
  1
*
  0
XRECORD
  5
B4
102
{ACAD_REACTORS
330
16
102
}
330
16
100
AcDbXrecord
280
     1
  1
CLIMATISATION
  1
*T_cl*
  1
*
  1
*
 70
     0
  1
*
  1
*
  0
XRECORD
  5
B5
102
{ACAD_REACTORS
330
16
102
}
330
16
100
AcDbXrecord
280
     1
  1
cloison
  1
*clois*
  1
*
  1
*
 70
     0
  1
*
  1
*
  0
XRECORD
  5
B6
102
{ACAD_REACTORS
330
16
102
}
330
16
100
AcDbXrecord
280
     1
  1
CO2_H
  1
co2_h*
  1
*
  1
*
 70
     0
  1
*
  1
*
  0
XRECORD
  5
B7
102
{ACAD_REACTORS
330
16
102
}
330
16
100
AcDbXrecord
280
     1
  1
CO_A1
  1
coa1*
  1
*
  1
*
 70
     0
  1
*
  1
*
  0
XRECORD
  5
B8
102
{ACAD_REACTORS
330
16
102
}
330
16
100
AcDbXrecord
280
     1
  1
CO_A2
  1
co_a2*
  1
*
  1
*
 70
     0
  1
*
  1
*
  0
XRECORD
  5
B9
102
{ACAD_REACTORS
330
16
102
}
330
16
100
AcDbXrecord
280
     1
  1
CO_B1
  1
co_b1*
  1
*
  1
*
 70
     0
  1
*
  1
*
  0
XRECORD
  5
BA
102
{ACAD_REACTORS
330
16
102
}
330
16
100
AcDbXrecord
280
     1
  1
CO_B2
  1
co_b2*
  1
*
  1
*
 70
     0
  1
*
  1
*
  0
XRECORD
  5
BB
102
{ACAD_REACTORS
330
16
102
}
330
16
100
AcDbXrecord
280
     1
  1
CO_C1
  1
co_c1*
  1
*
  1
*
 70
     0
  1
*
  1
*
  0
XRECORD
  5
BC
102
{ACAD_REACTORS
330
16
102
}
330
16
100
AcDbXrecord
280
     1
  1
CO_C2
  1
co_c2*
  1
*
  1
*
 70
     0
  1
*
  1
*
  0
XRECORD
  5
BD
102
{ACAD_REACTORS
330
16
102
}
330
16
100
AcDbXrecord
280
     1
  1
co_f1
  1
co_fac1*
  1
*
  1
*
 70
     0
  1
*
  1
*
  0
XRECORD
  5
BE
102
{ACAD_REACTORS
330
16
102
}
330
16
100
AcDbXrecord
280
     1
  1
CO_H
  1
co_h*
  1
*
  1
*
 70
     0
  1
*
  1
*
  0
XRECORD
  5
BF
102
{ACAD_REACTORS
330
16
102
}
330
16
100
AcDbXrecord
280
     1
  1
COA1
  1
coa1*
  1
*
  1
*
 70
     0
  1
*
  1
*
  0
XRECORD
  5
C0
102
{ACAD_REACTORS
330
16
102
}
330
16
100
AcDbXrecord
280
     1
  1
coa2
  1
co_a2*
  1
*
  1
*
 70
     0
  1
*
  1
*
  0
XRECORD
  5
C1
102
{ACAD_REACTORS
330
16
102
}
330
16
100
AcDbXrecord
280
     1
  1
COA4
  1
co_a4*
  1
*
  1
*
 70
     0
  1
*
  1
*
  0
XRECORD
  5
C2
102
{ACAD_REACTORS
330
16
102
}
330
16
100
AcDbXrecord
280
     1
  1
COCOS
  1
*COCOS
  1
*
  1
*
 70
     0
  1
*
  1
*
  0
XRECORD
  5
C3
102
{ACAD_REACTORS
330
16
102
}
330
16
100
AcDbXrecord
280
     1
  1
COD
  1
*COD*
  1
*
  1
*
 70
     0
  1
*
  1
*
  0
XRECORD
  5
C4
102
{ACAD_REACTORS
330
16
102
}
330
16
100
AcDbXrecord
280
     1
  1
color21
  1
*
  1
21
  1
*
 70
     0
  1
*
  1
*
  0
XRECORD
  5
C5
102
{ACAD_REACTORS
330
16
102
}
330
16
100
AcDbXrecord
280
     1
  1
comp
  1
*comp*
  1
*
  1
*
 70
     0
  1
*
  1
*
  0
XRECORD
  5
C6
102
{ACAD_REACTORS
330
16
102
}
330
16
100
AcDbXrecord
280
     1
  1
CONSTRUCTION
  1
CONST*
  1
*
  1
*
 70
     0
  1
*
  1
*
  0
XRECORD
  5
C7
102
{ACAD_REACTORS
330
16
102
}
330
16
100
AcDbXrecord
280
     1
  1
cor 1
  1
*
  1
*
  1
*
 70
     0
  1
0.09 mm
  1
*
  0
XRECORD
  5
C8
102
{ACAD_REACTORS
330
16
102
}
330
16
100
AcDbXrecord
280
     1
  1
cor 9
  1
*
  1
9
  1
*
 70
     0
  1
*
  1
*
  0
XRECORD
  5
C9
102
{ACAD_REACTORS
330
16
102
}
330
16
100
AcDbXrecord
280
     1
  1
cor9
  1
*
  1
8,9
  1
*
 70
     0
  1
*
  1
*
  0
XRECORD
  5
CA
102
{ACAD_REACTORS
330
16
102
}
330
16
100
AcDbXrecord
280
     1
  1
CORPO E
  1
ZE*
  1
*
  1
*
 70
     0
  1
*
  1
*
  0
XRECORD
  5
CB
102
{ACAD_REACTORS
330
16
102
}
330
16
100
AcDbXrecord
280
     1
  1
cot
  1
*cot*
  1
*
  1
*
 70
     0
  1
*
  1
*
  0
XRECORD
  5
CC
102
{ACAD_REACTORS
330
16
102
}
330
16
100
AcDbXrecord
280
     1
  1
cotas
  1
*cot*
  1
*
  1
*
 70
     0
  1
*
  1
*
  0
XRECORD
  5
CD
102
{ACAD_REACTORS
330
16
102
}
330
16
100
AcDbXrecord
280
     1
  1
cotation
  1
5*
  1
*
  1
*
 70
     0
  1
*
  1
*
  0
XRECORD
  5
CE
102
{ACAD_REACTORS
330
16
102
}
330
16
100
AcDbXrecord
280
     1
  1
cotes
  1
*cot*
  1
*
  1
*
 70
     0
  1
*
  1
*
  0
XRECORD
  5
CF
102
{ACAD_REACTORS
330
16
102
}
330
16
100
AcDbXrecord
280
     1
  1
coul
  1
*coul
  1
*
  1
*
 70
     0
  1
*
  1
*
  0
XRECORD
  5
D0
102
{ACAD_REACTORS
330
16
102
}
330
16
100
AcDbXrecord
280
     1
  1
couleur
  1
coul*
  1
*
  1
*
 70
     0
  1
*
  1
*
  0
XRECORD
  5
D1
102
{ACAD_REACTORS
330
16
102
}
330
16
100
AcDbXrecord
280
     1
  1
cour
  1
cour_*
  1
*
  1
*
 70
     0
  1
*
  1
*
  0
XRECORD
  5
D2
102
{ACAD_REACTORS
330
16
102
}
330
16
100
AcDbXrecord
280
     1
  1
cpa inutilizada
  1
*
  1
*
  1
*
 70
     4
  1
*
  1
*
  0
XRECORD
  5
D3
102
{ACAD_REACTORS
330
16
102
}
330
16
100
AcDbXrecord
280
     1
  1
crt
  1
*crt*
  1
*
  1
*
 70
     0
  1
*
  1
*
  0
XRECORD
  5
D4
102
{ACAD_REACTORS
330
16
102
}
330
16
100
AcDbXrecord
280
     1
  1
CTA
  1
*CTA*
  1
*
  1
*
 70
     0
  1
*
  1
*
  0
XRECORD
  5
D5
102
{ACAD_REACTORS
330
16
102
}
330
16
100
AcDbXrecord
280
     1
  1
cuisine
  1
cu*
  1
*
  1
*
 70
     0
  1
*
  1
*
  0
XRECORD
  5
D6
102
{ACAD_REACTORS
330
16
102
}
330
16
100
AcDbXrecord
280
     1
  1
CV
  1
chv*,CV*
  1
*
  1
*
 70
     0
  1
*
  1
*
  0
XRECORD
  5
D7
102
{ACAD_REACTORS
330
16
102
}
330
16
100
AcDbXrecord
280
     1
  1
CV-Variante
  1
chvariante*
  1
*
  1
*
 70
     0
  1
*
  1
*
  0
XRECORD
  5
D8
102
{ACAD_REACTORS
330
16
102
}
330
16
100
AcDbXrecord
280
     1
  1
cvc
  1
cvc*
  1
*
  1
*
 70
     0
  1
*
  1
*
  0
XRECORD
  5
D9
102
{ACAD_REACTORS
330
16
102
}
330
16
100
AcDbXrecord
280
     1
  1
cyan
  1
*
  1
cyan
  1
*
 70
     0
  1
*
  1
*
  0
XRECORD
  5
DA
102
{ACAD_REACTORS
330
16
102
}
330
16
100
AcDbXrecord
280
     1
  1
DD
  1
*
  1
9
  1
*
 70
     0
  1
*
  1
*
  0
XRECORD
  5
DB
102
{ACAD_REACTORS
330
16
102
}
330
16
100
AcDbXrecord
280
     1
  1
Defpoints
  1
*defpoints*
  1
*
  1
*
 70
     0
  1
*
  1
*
  0
XRECORD
  5
DC
102
{ACAD_REACTORS
330
16
102
}
330
16
100
AcDbXrecord
280
     1
  1
DEMOLITION
  1
DEM*
  1
*
  1
*
 70
     0
  1
*
  1
*
  0
XRECORD
  5
DD
102
{ACAD_REACTORS
330
16
102
}
330
16
100
AcDbXrecord
280
     1
  1
des
  1
procvr??rb|ocd*
  1
*
  1
*
 70
     0
  1
*
  1
*
  0
XRECORD
  5
DE
102
{ACAD_REACTORS
330
16
102
}
330
16
100
AcDbXrecord
280
     1
  1
desact
  1
*
  1
*
  1
*
 70
     3
  1
*
  1
*
  0
XRECORD
  5
DF
102
{ACAD_REACTORS
330
16
102
}
330
16
100
AcDbXrecord
280
     1
  1
descat
  1
*
  1
*
  1
*
 70
     3
  1
*
  1
*
  0
XRECORD
  5
E0
102
{ACAD_REACTORS
330
16
102
}
330
16
100
AcDbXrecord
280
     1
  1
desenfumage
  1
des*
  1
*
  1
*
 70
     0
  1
*
  1
*
  0
XRECORD
  5
E1
102
{ACAD_REACTORS
330
16
102
}
330
16
100
AcDbXrecord
280
     1
  1
Deutsch
  1
*deutsch*
  1
*
  1
*
 70
     0
  1
*
  1
*
  0
XRECORD
  5
E2
102
{ACAD_REACTORS
330
16
102
}
330
16
100
AcDbXrecord
280
     1
  1
DoOr
  1
*door*
  1
*
  1
*
 70
     0
  1
*
  1
*
  0
XRECORD
  5
E3
102
{ACAD_REACTORS
330
16
102
}
330
16
100
AcDbXrecord
280
     1
  1
Désactiver-geler
  1
*
  1
*
  1
*
 70
     7
  1
*
  1
*
  0
XRECORD
  5
E4
102
{ACAD_REACTORS
330
16
102
}
330
16
100
AcDbXrecord
280
     1
  1
désactivé
  1
*
  1
*
  1
*
 70
     3
  1
*
  1
*
  0
XRECORD
  5
E5
102
{ACAD_REACTORS
330
16
102
}
330
16
100
AcDbXrecord
280
     1
  1
e
  1
e*
  1
*
  1
*
 70
     0
  1
*
  1
*
  0
XRECORD
  5
E6
102
{ACAD_REACTORS
330
16
102
}
330
16
100
AcDbXrecord
280
     1
  1
ECLAIRAGE
  1
*ECL*
  1
*
  1
*
 70
     0
  1
*
  1
*
  0
XRECORD
  5
E7
102
{ACAD_REACTORS
330
16
102
}
330
16
100
AcDbXrecord
280
     1
  1
efi
  1
*efi*
  1
*
  1
*
 70
     0
  1
*
  1
*
  0
XRECORD
  5
E8
102
{ACAD_REACTORS
330
16
102
}
330
16
100
AcDbXrecord
280
     1
  1
EIXOS
  1
*EIXOS
  1
*
  1
*
 70
     0
  1
*
  1
*
  0
XRECORD
  5
E9
102
{ACAD_REACTORS
330
16
102
}
330
16
100
AcDbXrecord
280
     1
  1
El
  1
El*
  1
*
  1
*
 70
     0
  1
*
  1
*
  0
XRECORD
  5
EA
102
{ACAD_REACTORS
330
16
102
}
330
16
100
AcDbXrecord
280
     1
  1
elev
  1
*ele*
  1
*
  1
*
 70
     0
  1
*
  1
*
  0
XRECORD
  5
EB
102
{ACAD_REACTORS
330
16
102
}
330
16
100
AcDbXrecord
280
     1
  1
elh
  1
elh?18,elh?25,elh?15
  1
*
  1
*
 70
     0
  1
*
  1
*
  0
XRECORD
  5
EC
102
{ACAD_REACTORS
330
16
102
}
330
16
100
AcDbXrecord
280
     1
  1
elh1
  1
elh1*
  1
*
  1
*
 70
     0
  1
*
  1
*
  0
XRECORD
  5
ED
102
{ACAD_REACTORS
330
16
102
}
330
16
100
AcDbXrecord
280
     1
  1
elh2
  1
elh2*
  1
*
  1
*
 70
     0
  1
*
  1
*
  0
XRECORD
  5
EE
102
{ACAD_REACTORS
330
16
102
}
330
16
100
AcDbXrecord
280
     1
  1
elh3
  1
elh3*
  1
*
  1
*
 70
     0
  1
*
  1
*
  0
XRECORD
  5
EF
102
{ACAD_REACTORS
330
16
102
}
330
16
100
AcDbXrecord
280
     1
  1
elh4
  1
elh4*
  1
*
  1
*
 70
     0
  1
*
  1
*
  0
XRECORD
  5
F0
102
{ACAD_REACTORS
330
16
102
}
330
16
100
AcDbXrecord
280
     1
  1
elh5
  1
elh5*
  1
*
  1
*
 70
     0
  1
*
  1
*
  0
XRECORD
  5
F1
102
{ACAD_REACTORS
330
16
102
}
330
16
100
AcDbXrecord
280
     1
  1
elh6
  1
elh6*
  1
*
  1
*
 70
     0
  1
*
  1
*
  0
XRECORD
  5
F2
102
{ACAD_REACTORS
330
16
102
}
330
16
100
AcDbXrecord
280
     1
  1
elh7
  1
elh7*
  1
*
  1
*
 70
     0
  1
*
  1
*
  0
XRECORD
  5
F3
102
{ACAD_REACTORS
330
16
102
}
330
16
100
AcDbXrecord
280
     1
  1
elh8
  1
elh8*
  1
*
  1
*
 70
     0
  1
*
  1
*
  0
XRECORD
  5
F4
102
{ACAD_REACTORS
330
16
102
}
330
16
100
AcDbXrecord
280
     1
  1
elh9
  1
EL_H9*
  1
*
  1
*
 70
     0
  1
*
  1
*
  0
XRECORD
  5
F5
102
{ACAD_REACTORS
330
16
102
}
330
16
100
AcDbXrecord
280
     1
  1
Englisch
  1
*englisch*
  1
*
  1
*
 70
     0
  1
*
  1
*
  0
XRECORD
  5
F6
102
{ACAD_REACTORS
330
16
102
}
330
16
100
AcDbXrecord
280
     1
  1
ep_remp
  1
*remp_ep*
  1
*
  1
*
 70
     0
  1
*
  1
*
  0
XRECORD
  5
F7
102
{ACAD_REACTORS
330
16
102
}
330
16
100
AcDbXrecord
280
     1
  1
ep_trait
  1
*epaisseur
  1
*
  1
*
 70
     0
  1
*
  1
*
  0
XRECORD
  5
F8
102
{ACAD_REACTORS
330
16
102
}
330
16
100
AcDbXrecord
280
     1
  1
ESGOTOS
  1
ESG*
  1
*
  1
*
 70
     0
  1
*
  1
*
  0
XRECORD
  5
F9
102
{ACAD_REACTORS
330
16
102
}
330
16
100
AcDbXrecord
280
     1
  1
est
  1
*est
  1
*
  1
*
 70
     0
  1
*
  1
*
  0
XRECORD
  5
FA
102
{ACAD_REACTORS
330
16
102
}
330
16
100
AcDbXrecord
280
     1
  1
etage
  1
*coes*
  1
*
  1
*
 70
     0
  1
*
  1
*
  0
XRECORD
  5
FB
102
{ACAD_REACTORS
330
16
102
}
330
16
100
AcDbXrecord
280
     1
  1
ETAN
  1
*ETAN*
  1
*
  1
*
 70
     0
  1
*
  1
*
  0
XRECORD
  5
FC
102
{ACAD_REACTORS
330
16
102
}
330
16
100
AcDbXrecord
280
     1
  1
execpilj
  1
*ZJ*
  1
*
  1
*
 70
     0
  1
*
  1
*
  0
XRECORD
  5
FD
102
{ACAD_REACTORS
330
16
102
}
330
16
100
AcDbXrecord
280
     1
  1
Existant
  1
*_EX
  1
*
  1
*
 70
     0
  1
*
  1
*
  0
XRECORD
  5
FE
102
{ACAD_REACTORS
330
16
102
}
330
16
100
AcDbXrecord
280
     1
  1
extr
  1
T_cle*
  1
*
  1
*
 70
     0
  1
*
  1
*
  0
XRECORD
  5
FF
102
{ACAD_REACTORS
330
16
102
}
330
16
100
AcDbXrecord
280
     1
  1
extr01
  1
T_cle1*
  1
*
  1
*
 70
     0
  1
*
  1
*
  0
XRECORD
  5
100
102
{ACAD_REACTORS
330
16
102
}
330
16
100
AcDbXrecord
280
     1
  1
extr02
  1
T_cle2*
  1
*
  1
*
 70
     0
  1
*
  1
*
  0
XRECORD
  5
101
102
{ACAD_REACTORS
330
16
102
}
330
16
100
AcDbXrecord
280
     1
  1
extr03
  1
T_cle3*
  1
*
  1
*
 70
     0
  1
*
  1
*
  0
XRECORD
  5
102
102
{ACAD_REACTORS
330
16
102
}
330
16
100
AcDbXrecord
280
     1
  1
extr04
  1
T_cle4*
  1
*
  1
*
 70
     0
  1
*
  1
*
  0
XRECORD
  5
103
102
{ACAD_REACTORS
330
16
102
}
330
16
100
AcDbXrecord
280
     1
  1
extr05
  1
*T_cle5*
  1
*
  1
*
 70
     0
  1
*
  1
*
  0
XRECORD
  5
104
102
{ACAD_REACTORS
330
16
102
}
330
16
100
AcDbXrecord
280
     1
  1
extrDIV
  1
T_cleDIV*
  1
*
  1
*
 70
     0
  1
*
  1
*
  0
XRECORD
  5
105
102
{ACAD_REACTORS
330
16
102
}
330
16
100
AcDbXrecord
280
     1
  1
f
  1
*
  1
*
  1
*
 70
     5
  1
*
  1
*
  0
XRECORD
  5
106
102
{ACAD_REACTORS
330
16
102
}
330
16
100
AcDbXrecord
280
     1
  1
fa4
  1
fa4*
  1
*
  1
*
 70
     0
  1
*
  1
*
  0
XRECORD
  5
107
102
{ACAD_REACTORS
330
16
102
}
330
16
100
AcDbXrecord
280
     1
  1
FA_A2
  1
FA_A2*
  1
*
  1
*
 70
     0
  1
*
  1
*
  0
XRECORD
  5
108
102
{ACAD_REACTORS
330
16
102
}
330
16
100
AcDbXrecord
280
     1
  1
FA_B1
  1
fa_b1*
  1
*
  1
*
 70
     0
  1
*
  1
*
  0
XRECORD
  5
109
102
{ACAD_REACTORS
330
16
102
}
330
16
100
AcDbXrecord
280
     1
  1
FAC_1_COU_B
  1
fac_1_cou*
  1
*
  1
*
 70
     0
  1
*
  1
*
  0
XRECORD
  5
10A
102
{ACAD_REACTORS
330
16
102
}
330
16
100
AcDbXrecord
280
     1
  1
FAC_A1
  1
fac_a1*,FAC_A2*
  1
*
  1
*
 70
     0
  1
*
  1
*
  0
XRECORD
  5
10B
102
{ACAD_REACTORS
330
16
102
}
330
16
100
AcDbXrecord
280
     1
  1
FAC_A2
  1
fac_a2*
  1
*
  1
*
 70
     0
  1
*
  1
*
  0
XRECORD
  5
10C
102
{ACAD_REACTORS
330
16
102
}
330
16
100
AcDbXrecord
280
     1
  1
FAC_A3
  1
FAC_A3*
  1
*
  1
*
 70
     0
  1
*
  1
*
  0
XRECORD
  5
10D
102
{ACAD_REACTORS
330
16
102
}
330
16
100
AcDbXrecord
280
     1
  1
FAC_A4
  1
fac_a4*
  1
*
  1
*
 70
     0
  1
*
  1
*
  0
XRECORD
  5
10E
102
{ACAD_REACTORS
330
16
102
}
330
16
100
AcDbXrecord
280
     1
  1
FAC_B1
  1
faC_b1*
  1
*
  1
*
 70
     0
  1
*
  1
*
  0
XRECORD
  5
10F
102
{ACAD_REACTORS
330
16
102
}
330
16
100
AcDbXrecord
280
     1
  1
FAC_B2
  1
FAC_B2*
  1
*
  1
*
 70
     0
  1
*
  1
*
  0
XRECORD
  5
110
102
{ACAD_REACTORS
330
16
102
}
330
16
100
AcDbXrecord
280
     1
  1
FAC_C1
  1
FAC_C1*
  1
*
  1
*
 70
     0
  1
*
  1
*
  0
XRECORD
  5
111
102
{ACAD_REACTORS
330
16
102
}
330
16
100
AcDbXrecord
280
     1
  1
FAC_C2
  1
FAC_C2*
  1
*
  1
*
 70
     0
  1
*
  1
*
  0
XRECORD
  5
112
102
{ACAD_REACTORS
330
16
102
}
330
16
100
AcDbXrecord
280
     1
  1
FAC_H1_COUR
  1
FAC_H1_COU*
  1
*
  1
*
 70
     0
  1
*
  1
*
  0
XRECORD
  5
113
102
{ACAD_REACTORS
330
16
102
}
330
16
100
AcDbXrecord
280
     1
  1
FAC_H1_RUE
  1
FAC_H1_RU*
  1
*
  1
*
 70
     0
  1
*
  1
*
  0
XRECORD
  5
114
102
{ACAD_REACTORS
330
16
102
}
330
16
100
AcDbXrecord
280
     1
  1
faux plaf
  1
*a_fp*
  1
*
  1
*
 70
     0
  1
*
  1
*
  0
XRECORD
  5
115
102
{ACAD_REACTORS
330
16
102
}
330
16
100
AcDbXrecord
280
     1
  1
ff
  1
07_*
  1
*
  1
*
 70
     0
  1
*
  1
*
  0
XRECORD
  5
116
102
{ACAD_REACTORS
330
16
102
}
330
16
100
AcDbXrecord
280
     1
  1
fin
  1
*fin*
  1
*
  1
*
 70
     0
  1
*
  1
*
  0
XRECORD
  5
117
102
{ACAD_REACTORS
330
16
102
}
330
16
100
AcDbXrecord
280
     1
  1
FLUIDES
  1
gaz
  1
*
  1
*
 70
     0
  1
*
  1
*
  0
XRECORD
  5
118
102
{ACAD_REACTORS
330
16
102
}
330
16
100
AcDbXrecord
280
     1
  1
fo
  1
fo*
  1
*
  1
*
 70
     0
  1
*
  1
*
  0
XRECORD
  5
119
102
{ACAD_REACTORS
330
16
102
}
330
16
100
AcDbXrecord
280
     1
  1
FO-AB
  1
FO-AB*
  1
*
  1
*
 70
     0
  1
*
  1
*
  0
XRECORD
  5
11A
102
{ACAD_REACTORS
330
16
102
}
330
16
100
AcDbXrecord
280
     1
  1
FO-SGS
  1
*SGS*
  1
*
  1
*
 70
     0
  1
*
  1
*
  0
XRECORD
  5
11B
102
{ACAD_REACTORS
330
16
102
}
330
16
100
AcDbXrecord
280
     1
  1
FO-SGX
  1
*SGX*
  1
*
  1
*
 70
     0
  1
*
  1
*
  0
XRECORD
  5
11C
102
{ACAD_REACTORS
330
16
102
}
330
16
100
AcDbXrecord
280
     1
  1
FOLHA
  1
L*
  1
*
  1
*
 70
     0
  1
*
  1
*
  0
XRECORD
  5
11D
102
{ACAD_REACTORS
330
16
102
}
330
16
100
AcDbXrecord
280
     1
  1
FOLHAS
  1
*FOLHA*
  1
*
  1
*
 70
     0
  1
*
  1
*
  0
XRECORD
  5
11E
102
{ACAD_REACTORS
330
16
102
}
330
16
100
AcDbXrecord
280
     1
  1
FORCE
  1
*FOR*
  1
*
  1
*
 70
     0
  1
*
  1
*
  0
XRECORD
  5
11F
102
{ACAD_REACTORS
330
16
102
}
330
16
100
AcDbXrecord
280
     1
  1
FPT
  1
*FPT*
  1
*
  1
*
 70
     0
  1
*
  1
*
  0
XRECORD
  5
120
102
{ACAD_REACTORS
330
16
102
}
330
16
100
AcDbXrecord
280
     1
  1
frees
  1
*
  1
*
  1
*
 70
     4
  1
*
  1
*
  0
XRECORD
  5
121
102
{ACAD_REACTORS
330
16
102
}
330
16
100
AcDbXrecord
280
     1
  1
FREEZE
  1
*
  1
*
  1
*
 70
     4
  1
*
  1
*
  0
XRECORD
  5
122
102
{ACAD_REACTORS
330
16
102
}
330
16
100
AcDbXrecord
280
     1
  1
G
  1
*G*
  1
*
  1
*
 70
     0
  1
*
  1
*
  0
XRECORD
  5
123
102
{ACAD_REACTORS
330
16
102
}
330
16
100
AcDbXrecord
280
     1
  1
gaines verticales
  1
T_CL*_vert
  1
*
  1
*
 70
     0
  1
*
  1
*
  0
XRECORD
  5
124
102
{ACAD_REACTORS
330
16
102
}
330
16
100
AcDbXrecord
280
     1
  1
gele
  1
*
  1
*
  1
*
 70
     4
  1
*
  1
*
  0
XRECORD
  5
125
102
{ACAD_REACTORS
330
16
102
}
330
16
100
AcDbXrecord
280
     1
  1
geler
  1
*
  1
*
  1
*
 70
     4
  1
*
  1
*
  0
XRECORD
  5
126
102
{ACAD_REACTORS
330
16
102
}
330
16
100
AcDbXrecord
280
     1
  1
gelé
  1
z*
  1
*
  1
*
 70
     0
  1
*
  1
*
  0
XRECORD
  5
127
102
{ACAD_REACTORS
330
16
102
}
330
16
100
AcDbXrecord
280
     1
  1
geometrie
  1
*geo*
  1
*
  1
*
 70
     0
  1
*
  1
*
  0
XRECORD
  5
128
102
{ACAD_REACTORS
330
16
102
}
330
16
100
AcDbXrecord
280
     1
  1
gpo
  1
gp0*
  1
*
  1
*
 70
     0
  1
*
  1
*
  0
XRECORD
  5
129
102
{ACAD_REACTORS
330
16
102
}
330
16
100
AcDbXrecord
280
     1
  1
gril
  1
1*
  1
*
  1
*
 70
     0
  1
*
  1
*
  0
XRECORD
  5
12A
102
{ACAD_REACTORS
330
16
102
}
330
16
100
AcDbXrecord
280
     1
  1
gris8
  1
*
  1
8
  1
*
 70
     0
  1
*
  1
*
  0
XRECORD
  5
12B
102
{ACAD_REACTORS
330
16
102
}
330
16
100
AcDbXrecord
280
     1
  1
gris9
  1
*
  1
9
  1
*
 70
     0
  1
*
  1
*
  0
XRECORD
  5
12C
102
{ACAD_REACTORS
330
16
102
}
330
16
100
AcDbXrecord
280
     1
  1
GrundrisseA
  1
*Gru_*
  1
*
  1
*
 70
     0
  1
*
  1
*
  0
XRECORD
  5
12D
102
{ACAD_REACTORS
330
16
102
}
330
16
100
AcDbXrecord
280
     1
  1
géo
  1
*
  1
7
  1
*
 70
     0
  1
*
  1
*
  0
XRECORD
  5
12E
102
{ACAD_REACTORS
330
16
102
}
330
16
100
AcDbXrecord
280
     1
  1
H
  1
*h
  1
*
  1
*
 70
     0
  1
*
  1
*
  0
XRECORD
  5
12F
102
{ACAD_REACTORS
330
16
102
}
330
16
100
AcDbXrecord
280
     1
  1
ha
  1
*ha*
  1
*
  1
*
 70
     0
  1
*
  1
*
  0
XRECORD
  5
130
102
{ACAD_REACTORS
330
16
102
}
330
16
100
AcDbXrecord
280
     1
  1
HACHURES
  1
*HAC*
  1
*
  1
*
 70
     0
  1
*
  1
*
  0
XRECORD
  5
131
102
{ACAD_REACTORS
330
16
102
}
330
16
100
AcDbXrecord
280
     1
  1
hand
  1
*pl_hand*
  1
*
  1
*
 70
     0
  1
*
  1
*
  0
XRECORD
  5
132
102
{ACAD_REACTORS
330
16
102
}
330
16
100
AcDbXrecord
280
     1
  1
hat
  1
*hat*
  1
*
  1
*
 70
     0
  1
*
  1
*
  0
XRECORD
  5
133
102
{ACAD_REACTORS
330
16
102
}
330
16
100
AcDbXrecord
280
     1
  1
hh
  1
*
  1
*
  1
*
 70
     0
  1
*
  1
*
  0
XRECORD
  5
134
102
{ACAD_REACTORS
330
16
102
}
330
16
100
AcDbXrecord
280
     1
  1
Hilfs
  1
*hilfs*
  1
*
  1
*
 70
     0
  1
*
  1
*
  0
XRECORD
  5
135
102
{ACAD_REACTORS
330
16
102
}
330
16
100
AcDbXrecord
280
     1
  1
hilfsk
  1
*hilfsk*
  1
*
  1
*
 70
     0
  1
*
  1
*
  0
XRECORD
  5
136
102
{ACAD_REACTORS
330
16
102
}
330
16
100
AcDbXrecord
280
     1
  1
hydro
  1
och*
  1
*
  1
*
 70
     0
  1
*
  1
*
  0
XRECORD
  5
137
102
{ACAD_REACTORS
330
16
102
}
330
16
100
AcDbXrecord
280
     1
  1
il
  1
*il*
  1
*
  1
*
 70
     0
  1
*
  1
*
  0
XRECORD
  5
138
102
{ACAD_REACTORS
330
16
102
}
330
16
100
AcDbXrecord
280
     1
  1
ILUM
  1
*ILUM*
  1
*
  1
*
 70
     0
  1
*
  1
*
  0
XRECORD
  5
139
102
{ACAD_REACTORS
330
16
102
}
330
16
100
AcDbXrecord
280
     1
  1
image
  1
im*
  1
*
  1
*
 70
     0
  1
*
  1
*
  0
XRECORD
  5
13A
102
{ACAD_REACTORS
330
16
102
}
330
16
100
AcDbXrecord
280
     1
  1
import
  1
e1*
  1
*
  1
*
 70
     0
  1
*
  1
*
  0
XRECORD
  5
13B
102
{ACAD_REACTORS
330
16
102
}
330
16
100
AcDbXrecord
280
     1
  1
INACTIF
  1
*
  1
*
  1
*
 70
     3
  1
*
  1
*
  0
XRECORD
  5
13C
102
{ACAD_REACTORS
330
16
102
}
330
16
100
AcDbXrecord
280
     1
  1
incendie
  1
si*
  1
*
  1
*
 70
     0
  1
*
  1
*
  0
XRECORD
  5
13D
102
{ACAD_REACTORS
330
16
102
}
330
16
100
AcDbXrecord
280
     1
  1
ind
  1
*
  1
*
  1
*
 70
     0
  1
*
  1
*
  0
XRECORD
  5
13E
102
{ACAD_REACTORS
330
16
102
}
330
16
100
AcDbXrecord
280
     1
  1
isometrix
  1
iso*
  1
*
  1
*
 70
     0
  1
*
  1
*
  0
XRECORD
  5
13F
102
{ACAD_REACTORS
330
16
102
}
330
16
100
AcDbXrecord
280
     1
  1
jaune
  1
*
  1
yellow
  1
*
 70
     0
  1
*
  1
*
  0
XRECORD
  5
140
102
{ACAD_REACTORS
330
16
102
}
330
16
100
AcDbXrecord
280
     1
  1
joint
  1
*jd*
  1
*
  1
*
 70
     0
  1
*
  1
*
  0
XRECORD
  5
141
102
{ACAD_REACTORS
330
16
102
}
330
16
100
AcDbXrecord
280
     1
  1
Layers do Projecto
  1
_*
  1
*
  1
*
 70
     0
  1
*
  1
*
  0
XRECORD
  5
142
102
{ACAD_REACTORS
330
16
102
}
330
16
100
AcDbXrecord
280
     1
  1
LOCKS
  1
*
  1
*
  1
*
 70
   256
  1
*
  1
*
  0
XRECORD
  5
143
102
{ACAD_REACTORS
330
16
102
}
330
16
100
AcDbXrecord
280
     1
  1
lolo
  1
*a_chas_ncl
  1
*
  1
*
 70
     0
  1
*
  1
*
  0
XRECORD
  5
144
102
{ACAD_REACTORS
330
16
102
}
330
16
100
AcDbXrecord
280
     1
  1
LOOP7
  1
7*
  1
*
  1
*
 70
     0
  1
*
  1
*
  0
XRECORD
  5
145
102
{ACAD_REACTORS
330
16
102
}
330
16
100
AcDbXrecord
280
     1
  1
ls
  1
*lsd
  1
*
  1
*
 70
     0
  1
*
  1
*
  0
XRECORD
  5
146
102
{ACAD_REACTORS
330
16
102
}
330
16
100
AcDbXrecord
280
     1
  1
LUI
  1
*
  1
*
  1
*
 70
     0
  1
0.09mm
  1
*
  0
XRECORD
  5
147
102
{ACAD_REACTORS
330
16
102
}
330
16
100
AcDbXrecord
280
     1
  1
lumi
  1
luminaire
  1
*
  1
*
 70
     0
  1
*
  1
*
  0
XRECORD
  5
148
102
{ACAD_REACTORS
330
16
102
}
330
16
100
AcDbXrecord
280
     1
  1
Main
  1
CB?0*
  1
*
  1
*
 70
     0
  1
*
  1
*
  0
XRECORD
  5
149
102
{ACAD_REACTORS
330
16
102
}
330
16
100
AcDbXrecord
280
     1
  1
MODI
  1
*modi
  1
*
  1
*
 70
     0
  1
*
  1
*
  0
XRECORD
  5
14A
102
{ACAD_REACTORS
330
16
102
}
330
16
100
AcDbXrecord
280
     1
  1
mur
  1
mur*
  1
*
  1
*
 70
     0
  1
*
  1
*
  0
XRECORD
  5
14B
102
{ACAD_REACTORS
330
16
102
}
330
16
100
AcDbXrecord
280
     1
  1
MURS_VITR
  1
A_MURS_VITR*
  1
*
  1
*
 70
     0
  1
*
  1
*
  0
XRECORD
  5
14C
102
{ACAD_REACTORS
330
16
102
}
330
16
100
AcDbXrecord
280
     1
  1
Murs_Vitrs
  1
A_MURS_VI*
  1
*
  1
*
 70
     0
  1
*
  1
*
  0
XRECORD
  5
14D
102
{ACAD_REACTORS
330
16
102
}
330
16
100
AcDbXrecord
280
     1
  1
N
  1
n*
  1
*
  1
*
 70
     0
  1
*
  1
*
  0
XRECORD
  5
14E
102
{ACAD_REACTORS
330
16
102
}
330
16
100
AcDbXrecord
280
     1
  1
n-clav
  1
*n-clav*
  1
*
  1
*
 70
     0
  1
*
  1
*
  0
XRECORD
  5
14F
102
{ACAD_REACTORS
330
16
102
}
330
16
100
AcDbXrecord
280
     1
  1
Nur sichtbare
  1
*
  1
*
  1
*
 70
    13
  1
*
  1
*
  0
XRECORD
  5
150
102
{ACAD_REACTORS
330
16
102
}
330
16
100
AcDbXrecord
280
     1
  1
NV
  1
??-NV
  1
*
  1
*
 70
     0
  1
*
  1
*
  0
XRECORD
  5
151
102
{ACAD_REACTORS
330
16
102
}
330
16
100
AcDbXrecord
280
     1
  1
o
  1
o*
  1
*
  1
*
 70
     0
  1
*
  1
*
  0
XRECORD
  5
152
102
{ACAD_REACTORS
330
16
102
}
330
16
100
AcDbXrecord
280
     1
  1
Off
  1
*
  1
*
  1
*
 70
     3
  1
*
  1
*
  0
XRECORD
  5
153
102
{ACAD_REACTORS
330
16
102
}
330
16
100
AcDbXrecord
280
     1
  1
on
  1
*
  1
*
  1
*
 70
     1
  1
*
  1
*
  0
XRECORD
  5
154
102
{ACAD_REACTORS
330
16
102
}
330
16
100
AcDbXrecord
280
     1
  1
OPERATION
  1
OP3*
  1
*
  1
*
 70
     0
  1
*
  1
*
  0
XRECORD
  5
155
102
{ACAD_REACTORS
330
16
102
}
330
16
100
AcDbXrecord
280
     1
  1
OPERATION1
  1
OP1*
  1
*
  1
*
 70
     0
  1
*
  1
*
  0
XRECORD
  5
156
102
{ACAD_REACTORS
330
16
102
}
330
16
100
AcDbXrecord
280
     1
  1
OPERATION2
  1
OP2*
  1
*
  1
*
 70
     0
  1
*
  1
*
  0
XRECORD
  5
157
102
{ACAD_REACTORS
330
16
102
}
330
16
100
AcDbXrecord
280
     1
  1
OPERATION3
  1
OP3*
  1
*
  1
*
 70
     0
  1
*
  1
*
  0
XRECORD
  5
158
102
{ACAD_REACTORS
330
16
102
}
330
16
100
AcDbXrecord
280
     1
  1
P
  1
?P
  1
*
  1
*
 70
     0
  1
*
  1
*
  0
XRECORD
  5
159
102
{ACAD_REACTORS
330
16
102
}
330
16
100
AcDbXrecord
280
     1
  1
parte A
  1
za*,0
  1
*
  1
*
 70
     0
  1
*
  1
*
  0
XRECORD
  5
15A
102
{ACAD_REACTORS
330
16
102
}
330
16
100
AcDbXrecord
280
     1
  1
Parte B
  1
*zb*
  1
*
  1
*
 70
     0
  1
*
  1
*
  0
XRECORD
  5
15B
102
{ACAD_REACTORS
330
16
102
}
330
16
100
AcDbXrecord
280
     1
  1
Parte C
  1
zc*
  1
*
  1
*
 70
     0
  1
*
  1
*
  0
XRECORD
  5
15C
102
{ACAD_REACTORS
330
16
102
}
330
16
100
AcDbXrecord
280
     1
  1
Parte D
  1
*zd*,0
  1
*
  1
*
 70
     0
  1
*
  1
*
  0
XRECORD
  5
15D
102
{ACAD_REACTORS
330
16
102
}
330
16
100
AcDbXrecord
280
     1
  1
Parte E
  1
*ZE*,0,L-
  1
*
  1
*
 70
     0
  1
*
  1
*
  0
XRECORD
  5
15E
102
{ACAD_REACTORS
330
16
102
}
330
16
100
AcDbXrecord
280
     1
  1
Parte F
  1
*ZF*,0,L-
  1
*
  1
*
 70
     0
  1
*
  1
*
  0
XRECORD
  5
15F
102
{ACAD_REACTORS
330
16
102
}
330
16
100
AcDbXrecord
280
     1
  1
parte g
  1
zg*,0
  1
*
  1
*
 70
     0
  1
*
  1
*
  0
XRECORD
  5
160
102
{ACAD_REACTORS
330
16
102
}
330
16
100
AcDbXrecord
280
     1
  1
parte H
  1
ZH*
  1
*
  1
*
 70
     0
  1
*
  1
*
  0
XRECORD
  5
161
102
{ACAD_REACTORS
330
16
102
}
330
16
100
AcDbXrecord
280
     1
  1
parte H2
  1
*ZH2-*
  1
*
  1
*
 70
     0
  1
*
  1
*
  0
XRECORD
  5
162
102
{ACAD_REACTORS
330
16
102
}
330
16
100
AcDbXrecord
280
     1
  1
parte i
  1
zi*,0
  1
*
  1
*
 70
     0
  1
*
  1
*
  0
XRECORD
  5
163
102
{ACAD_REACTORS
330
16
102
}
330
16
100
AcDbXrecord
280
     1
  1
parte J
  1
zj*,0
  1
*
  1
*
 70
     0
  1
*
  1
*
  0
XRECORD
  5
164
102
{ACAD_REACTORS
330
16
102
}
330
16
100
AcDbXrecord
280
     1
  1
pass
  1
*pass*
  1
*
  1
*
 70
     0
  1
*
  1
*
  0
XRECORD
  5
165
102
{ACAD_REACTORS
330
16
102
}
330
16
100
AcDbXrecord
280
     1
  1
passerelle
  1
2*
  1
*
  1
*
 70
     0
  1
*
  1
*
  0
XRECORD
  5
166
102
{ACAD_REACTORS
330
16
102
}
330
16
100
AcDbXrecord
280
     1
  1
pav
  1
*pav*
  1
*
  1
*
 70
     0
  1
*
  1
*
  0
XRECORD
  5
167
102
{ACAD_REACTORS
330
16
102
}
330
16
100
AcDbXrecord
280
     1
  1
paysagistes
  1
P*
  1
*
  1
*
 70
     0
  1
*
  1
*
  0
XRECORD
  5
168
102
{ACAD_REACTORS
330
16
102
}
330
16
100
AcDbXrecord
280
     1
  1
PB
  1
*PB*
  1
*
  1
*
 70
     0
  1
*
  1
*
  0
XRECORD
  5
169
102
{ACAD_REACTORS
330
16
102
}
330
16
100
AcDbXrecord
280
     1
  1
pea
  1
pea*
  1
*
  1
*
 70
     4
  1
*
  1
*
  0
XRECORD
  5
16A
102
{ACAD_REACTORS
330
16
102
}
330
16
100
AcDbXrecord
280
     1
  1
pea2
  1
pea*
  1
*
  1
*
 70
  3072
  1
*
  1
*
  0
XRECORD
  5
16B
102
{ACAD_REACTORS
330
16
102
}
330
16
100
AcDbXrecord
280
     1
  1
pea3
  1
pea
  1
*
  1
*
 70
     4
  1
*
  1
*
  0
XRECORD
  5
16C
102
{ACAD_REACTORS
330
16
102
}
330
16
100
AcDbXrecord
280
     1
  1
pena
  1
PENA*
  1
*
  1
*
 70
     0
  1
*
  1
*
  0
XRECORD
  5
16D
102
{ACAD_REACTORS
330
16
102
}
330
16
100
AcDbXrecord
280
     1
  1
penacon
  1
PENAcon*
  1
*
  1
*
 70
     0
  1
*
  1
*
  0
XRECORD
  5
16E
102
{ACAD_REACTORS
330
16
102
}
330
16
100
AcDbXrecord
280
     1
  1
penagelé
  1
zPENA*
  1
*
  1
*
 70
     0
  1
*
  1
*
  0
XRECORD
  5
16F
102
{ACAD_REACTORS
330
16
102
}
330
16
100
AcDbXrecord
280
     1
  1
penamé
  1
PENAmé*
  1
*
  1
*
 70
     0
  1
*
  1
*
  0
XRECORD
  5
170
102
{ACAD_REACTORS
330
16
102
}
330
16
100
AcDbXrecord
280
     1
  1
penasol
  1
PENAs*
  1
*
  1
*
 70
     0
  1
*
  1
*
  0
XRECORD
  5
171
102
{ACAD_REACTORS
330
16
102
}
330
16
100
AcDbXrecord
280
     1
  1
penaT
  1
PENAT*
  1
*
  1
*
 70
     0
  1
*
  1
*
  0
XRECORD
  5
172
102
{ACAD_REACTORS
330
16
102
}
330
16
100
AcDbXrecord
280
     1
  1
PH
  1
*PH*
  1
*
  1
*
 70
     0
  1
*
  1
*
  0
XRECORD
  5
173
102
{ACAD_REACTORS
330
16
102
}
330
16
100
AcDbXrecord
280
     1
  1
phasage
  1
01-*
  1
*
  1
*
 70
     0
  1
*
  1
*
  0
XRECORD
  5
174
102
{ACAD_REACTORS
330
16
102
}
330
16
100
AcDbXrecord
280
     1
  1
phase
  1
phas*
  1
*
  1
*
 70
     0
  1
*
  1
*
  0
XRECORD
  5
175
102
{ACAD_REACTORS
330
16
102
}
330
16
100
AcDbXrecord
280
     1
  1
PISO-1
  1
P-1*
  1
*
  1
*
 70
     0
  1
*
  1
*
  0
XRECORD
  5
176
102
{ACAD_REACTORS
330
16
102
}
330
16
100
AcDbXrecord
280
     1
  1
PISO0
  1
P0*
  1
*
  1
*
 70
     0
  1
*
  1
*
  0
XRECORD
  5
177
102
{ACAD_REACTORS
330
16
102
}
330
16
100
AcDbXrecord
280
     1
  1
PISO1
  1
P1*
  1
*
  1
*
 70
     0
  1
*
  1
*
  0
XRECORD
  5
178
102
{ACAD_REACTORS
330
16
102
}
330
16
100
AcDbXrecord
280
     1
  1
PL
  1
PL*
  1
*
  1
*
 70
     0
  1
*
  1
*
  0
XRECORD
  5
179
102
{ACAD_REACTORS
330
16
102
}
330
16
100
AcDbXrecord
280
     1
  1
Place
  1
Place*
  1
*
  1
*
 70
     0
  1
*
  1
*
  0
XRECORD
  5
17A
102
{ACAD_REACTORS
330
16
102
}
330
16
100
AcDbXrecord
280
     1
  1
plan03
  1
PENA03*
  1
*
  1
*
 70
     0
  1
*
  1
*
  0
XRECORD
  5
17B
102
{ACAD_REACTORS
330
16
102
}
330
16
100
AcDbXrecord
280
     1
  1
PLAN_MURS
  1
*murs
  1
*
  1
*
 70
     0
  1
*
  1
*
  0
XRECORD
  5
17C
102
{ACAD_REACTORS
330
16
102
}
330
16
100
AcDbXrecord
280
     1
  1
planches
  1
*pl*
  1
*
  1
*
 70
     0
  1
*
  1
*
  0
XRECORD
  5
17D
102
{ACAD_REACTORS
330
16
102
}
330
16
100
AcDbXrecord
280
     1
  1
plr
  1
*pl*
  1
*
  1
*
 70
     0
  1
*
  1
*
  0
XRECORD
  5
17E
102
{ACAD_REACTORS
330
16
102
}
330
16
100
AcDbXrecord
280
     1
  1
plr_remp
  1
*plr_remp*
  1
*
  1
*
 70
     0
  1
*
  1
*
  0
XRECORD
  5
17F
102
{ACAD_REACTORS
330
16
102
}
330
16
100
AcDbXrecord
280
     1
  1
points
  1
*poin*.*
  1
*
  1
*
 70
     0
  1
*
  1
*
  0
XRECORD
  5
180
102
{ACAD_REACTORS
330
16
102
}
330
16
100
AcDbXrecord
280
     1
  1
pol
  1
*pol*
  1
*
  1
*
 70
     0
  1
*
  1
*
  0
XRECORD
  5
181
102
{ACAD_REACTORS
330
16
102
}
330
16
100
AcDbXrecord
280
     1
  1
POLY
  1
*PL_*
  1
*
  1
*
 70
     0
  1
*
  1
*
  0
XRECORD
  5
182
102
{ACAD_REACTORS
330
16
102
}
330
16
100
AcDbXrecord
280
     1
  1
por
  1
*por*
  1
*
  1
*
 70
     0
  1
*
  1
*
  0
XRECORD
  5
183
102
{ACAD_REACTORS
330
16
102
}
330
16
100
AcDbXrecord
280
     1
  1
PORTAS
  1
*POR*
  1
*
  1
*
 70
     0
  1
*
  1
*
  0
XRECORD
  5
184
102
{ACAD_REACTORS
330
16
102
}
330
16
100
AcDbXrecord
280
     1
  1
porte
  1
*port*
  1
*
  1
*
 70
     0
  1
*
  1
*
  0
XRECORD
  5
185
102
{ACAD_REACTORS
330
16
102
}
330
16
100
AcDbXrecord
280
     1
  1
poteau
  1
*murs_pot
  1
*
  1
*
 70
     0
  1
*
  1
*
  0
XRECORD
  5
186
102
{ACAD_REACTORS
330
16
102
}
330
16
100
AcDbXrecord
280
     1
  1
PROTECTION
  1
*a_protec*
  1
*
  1
*
 70
     0
  1
*
  1
*
  0
XRECORD
  5
187
102
{ACAD_REACTORS
330
16
102
}
330
16
100
AcDbXrecord
280
     1
  1
R
  1
r*
  1
*
  1
*
 70
     0
  1
*
  1
*
  0
XRECORD
  5
188
102
{ACAD_REACTORS
330
16
102
}
330
16
100
AcDbXrecord
280
     1
  1
RAST
  1
*RAST*
  1
*
  1
*
 70
     0
  1
*
  1
*
  0
XRECORD
  5
189
102
{ACAD_REACTORS
330
16
102
}
330
16
100
AcDbXrecord
280
     1
  1
rdc
  1
*rdc*
  1
*
  1
*
 70
     0
  1
*
  1
*
  0
XRECORD
  5
18A
102
{ACAD_REACTORS
330
16
102
}
330
16
100
AcDbXrecord
280
     1
  1
rdj
  1
*rdj*
  1
*
  1
*
 70
     0
  1
*
  1
*
  0
XRECORD
  5
18B
102
{ACAD_REACTORS
330
16
102
}
330
16
100
AcDbXrecord
280
     1
  1
reb
  1
*reb*
  1
*
  1
*
 70
     0
  1
*
  1
*
  0
XRECORD
  5
18C
102
{ACAD_REACTORS
330
16
102
}
330
16
100
AcDbXrecord
280
     1
  1
region
  1
*reg*
  1
*
  1
*
 70
     0
  1
*
  1
*
  0
XRECORD
  5
18D
102
{ACAD_REACTORS
330
16
102
}
330
16
100
AcDbXrecord
280
     1
  1
repart
  1
1*
  1
*
  1
*
 70
     0
  1
*
  1
*
  0
XRECORD
  5
18E
102
{ACAD_REACTORS
330
16
102
}
330
16
100
AcDbXrecord
280
     1
  1
reseaux
  1
y*
  1
*
  1
*
 70
     0
  1
*
  1
*
  0
XRECORD
  5
18F
102
{ACAD_REACTORS
330
16
102
}
330
16
100
AcDbXrecord
280
     1
  1
rn
  1
??-rn
  1
*
  1
*
 70
     0
  1
*
  1
*
  0
XRECORD
  5
190
102
{ACAD_REACTORS
330
16
102
}
330
16
100
AcDbXrecord
280
     1
  1
rouge
  1
*
  1
1
  1
*
 70
     0
  1
*
  1
*
  0
XRECORD
  5
191
102
{ACAD_REACTORS
330
16
102
}
330
16
100
AcDbXrecord
280
     1
  1
rouge 240
  1
*
  1
240
  1
*
 70
     0
  1
*
  1
*
  0
XRECORD
  5
192
102
{ACAD_REACTORS
330
16
102
}
330
16
100
AcDbXrecord
280
     1
  1
RRR
  1
*
  1
253
  1
*
 70
     0
  1
*
  1
*
  0
XRECORD
  5
193
102
{ACAD_REACTORS
330
16
102
}
330
16
100
AcDbXrecord
280
     1
  1
s
  1
*s_voiles
  1
*
  1
*
 70
     0
  1
*
  1
*
  0
XRECORD
  5
194
102
{ACAD_REACTORS
330
16
102
}
330
16
100
AcDbXrecord
280
     1
  1
SANS XREF
  1
B*
  1
*
  1
*
 70
     0
  1
*
  1
*
  0
XRECORD
  5
195
102
{ACAD_REACTORS
330
16
102
}
330
16
100
AcDbXrecord
280
     1
  1
sh
  1
*hand
  1
*
  1
*
 70
     0
  1
*
  1
*
  0
XRECORD
  5
196
102
{ACAD_REACTORS
330
16
102
}
330
16
100
AcDbXrecord
280
     1
  1
si
  1
si*
  1
*
  1
*
 70
     0
  1
*
  1
*
  0
XRECORD
  5
197
102
{ACAD_REACTORS
330
16
102
}
330
16
100
AcDbXrecord
280
     1
  1
site
  1
*
  1
251
  1
*
 70
     0
  1
*
  1
*
  0
XRECORD
  5
198
102
{ACAD_REACTORS
330
16
102
}
330
16
100
AcDbXrecord
280
     1
  1
sm
  1
sm*
  1
*
  1
*
 70
     0
  1
*
  1
*
  0
XRECORD
  5
199
102
{ACAD_REACTORS
330
16
102
}
330
16
100
AcDbXrecord
280
     1
  1
SOL
  1
*SOL*
  1
*
  1
*
 70
     0
  1
*
  1
*
  0
XRECORD
  5
19A
102
{ACAD_REACTORS
330
16
102
}
330
16
100
AcDbXrecord
280
     1
  1
solid10
  1
*solid*10*
  1
*
  1
*
 70
     0
  1
*
  1
*
  0
XRECORD
  5
19B
102
{ACAD_REACTORS
330
16
102
}
330
16
100
AcDbXrecord
280
     1
  1
solid30
  1
*solid*30*
  1
*
  1
*
 70
     0
  1
*
  1
*
  0
XRECORD
  5
19C
102
{ACAD_REACTORS
330
16
102
}
330
16
100
AcDbXrecord
280
     1
  1
SOLIDS
  1
_SOLID*
  1
*
  1
*
 70
     0
  1
*
  1
*
  0
XRECORD
  5
19D
102
{ACAD_REACTORS
330
16
102
}
330
16
100
AcDbXrecord
280
     1
  1
souff
  1
T_cls*
  1
*
  1
*
 70
     0
  1
*
  1
*
  0
XRECORD
  5
19E
102
{ACAD_REACTORS
330
16
102
}
330
16
100
AcDbXrecord
280
     1
  1
souff01
  1
T_cls1*
  1
*
  1
*
 70
     0
  1
*
  1
*
  0
XRECORD
  5
19F
102
{ACAD_REACTORS
330
16
102
}
330
16
100
AcDbXrecord
280
     1
  1
SOUFF02
  1
T_clS2*
  1
*
  1
*
 70
     0
  1
*
  1
*
  0
XRECORD
  5
1A0
102
{ACAD_REACTORS
330
16
102
}
330
16
100
AcDbXrecord
280
     1
  1
SOUFF03
  1
T_clS3*
  1
*
  1
*
 70
     0
  1
*
  1
*
  0
XRECORD
  5
1A1
102
{ACAD_REACTORS
330
16
102
}
330
16
100
AcDbXrecord
280
     1
  1
SOUFF05
  1
T_clS5*
  1
*
  1
*
 70
     0
  1
*
  1
*
  0
XRECORD
  5
1A2
102
{ACAD_REACTORS
330
16
102
}
330
16
100
AcDbXrecord
280
     1
  1
souff06
  1
*T_cls6*
  1
*
  1
*
 70
     0
  1
*
  1
*
  0
XRECORD
  5
1A3
102
{ACAD_REACTORS
330
16
102
}
330
16
100
AcDbXrecord
280
     1
  1
souff403
  1
T_cls4*
  1
*
  1
*
 70
     0
  1
*
  1
*
  0
XRECORD
  5
1A4
102
{ACAD_REACTORS
330
16
102
}
330
16
100
AcDbXrecord
280
     1
  1
soussol
  1
*ss*
  1
*
  1
*
 70
     0
  1
*
  1
*
  0
XRECORD
  5
1A5
102
{ACAD_REACTORS
330
16
102
}
330
16
100
AcDbXrecord
280
     1
  1
sp
  1
*s_potea
  1
*
  1
*
 70
     0
  1
*
  1
*
  0
XRECORD
  5
1A6
102
{ACAD_REACTORS
330
16
102
}
330
16
100
AcDbXrecord
280
     1
  1
Spanisch
  1
*spanisch*
  1
*
  1
*
 70
     0
  1
*
  1
*
  0
XRECORD
  5
1A7
102
{ACAD_REACTORS
330
16
102
}
330
16
100
AcDbXrecord
280
     1
  1
SPECIFIQUE
  1
OCA??2*
  1
*
  1
*
 70
     0
  1
*
  1
*
  0
XRECORD
  5
1A8
102
{ACAD_REACTORS
330
16
102
}
330
16
100
AcDbXrecord
280
     1
  1
stef
  1
procvr??rb|stef*
  1
*
  1
*
 70
     0
  1
*
  1
*
  0
XRECORD
  5
1A9
102
{ACAD_REACTORS
330
16
102
}
330
16
100
AcDbXrecord
280
     1
  1
sty
  1
sty*
  1
*
  1
*
 70
     0
  1
*
  1
*
  0
XRECORD
  5
1AA
102
{ACAD_REACTORS
330
16
102
}
330
16
100
AcDbXrecord
280
     1
  1
surete
  1
su*
  1
*
  1
*
 70
     0
  1
*
  1
*
  0
XRECORD
  5
1AB
102
{ACAD_REACTORS
330
16
102
}
330
16
100
AcDbXrecord
280
     1
  1
surf
  1
*hach
  1
*
  1
*
 70
     0
  1
*
  1
*
  0
XRECORD
  5
1AC
102
{ACAD_REACTORS
330
16
102
}
330
16
100
AcDbXrecord
280
     1
  1
surfaces
  1
*su*
  1
*
  1
*
 70
     0
  1
*
  1
*
  0
XRECORD
  5
1AD
102
{ACAD_REACTORS
330
16
102
}
330
16
100
AcDbXrecord
280
     1
  1
sy
  1
sy*
  1
*
  1
*
 70
     0
  1
*
  1
*
  0
XRECORD
  5
1AE
102
{ACAD_REACTORS
330
16
102
}
330
16
100
AcDbXrecord
280
     1
  1
TE
  1
??-TE*
  1
*
  1
*
 70
     0
  1
*
  1
*
  0
XRECORD
  5
1AF
102
{ACAD_REACTORS
330
16
102
}
330
16
100
AcDbXrecord
280
     1
  1
tec
  1
*tec
  1
*
  1
*
 70
     0
  1
*
  1
*
  0
XRECORD
  5
1B0
102
{ACAD_REACTORS
330
16
102
}
330
16
100
AcDbXrecord
280
     1
  1
temp
  1
?.san*
  1
*
  1
*
 70
     0
  1
*
  1
*
  0
XRECORD
  5
1B1
102
{ACAD_REACTORS
330
16
102
}
330
16
100
AcDbXrecord
280
     1
  1
terrasse
  1
*ter*
  1
*
  1
*
 70
     0
  1
*
  1
*
  0
XRECORD
  5
1B2
102
{ACAD_REACTORS
330
16
102
}
330
16
100
AcDbXrecord
280
     1
  1
Text
  1
*text*
  1
*
  1
*
 70
     0
  1
*
  1
*
  0
XRECORD
  5
1B3
102
{ACAD_REACTORS
330
16
102
}
330
16
100
AcDbXrecord
280
     1
  1
TEXTE
  1
*TEXT*
  1
*
  1
*
 70
     0
  1
*
  1
*
  0
XRECORD
  5
1B4
102
{ACAD_REACTORS
330
16
102
}
330
16
100
AcDbXrecord
280
     1
  1
Textes
  1
*txt*
  1
*
  1
*
 70
     0
  1
*
  1
*
  0
XRECORD
  5
1B5
102
{ACAD_REACTORS
330
16
102
}
330
16
100
AcDbXrecord
280
     1
  1
tmp
  1
*tmp
  1
*
  1
*
 70
     0
  1
*
  1
*
  0
XRECORD
  5
1B6
102
{ACAD_REACTORS
330
16
102
}
330
16
100
AcDbXrecord
280
     1
  1
topo
  1
*
  1
*
  1
*
 70
     0
  1
*
  1
*
  0
XRECORD
  5
1B7
102
{ACAD_REACTORS
330
16
102
}
330
16
100
AcDbXrecord
280
     1
  1
Total
  1
*
  1
*
  1
*
 70
     0
  1
*
  1
*
  0
XRECORD
  5
1B8
102
{ACAD_REACTORS
330
16
102
}
330
16
100
AcDbXrecord
280
     1
  1
toto
  1
?p,?n,?z
  1
*
  1
*
 70
     0
  1
*
  1
*
  0
XRECORD
  5
1B9
102
{ACAD_REACTORS
330
16
102
}
330
16
100
AcDbXrecord
280
     1
  1
tr
  1
*tr
  1
*
  1
*
 70
     0
  1
*
  1
*
  0
XRECORD
  5
1BA
102
{ACAD_REACTORS
330
16
102
}
330
16
100
AcDbXrecord
280
     1
  1
trace
  1
*
  1
*
  1
*
 70
  1024
  1
*
  1
*
  0
XRECORD
  5
1BB
102
{ACAD_REACTORS
330
16
102
}
330
16
100
AcDbXrecord
280
     1
  1
tracer
  1
*
  1
*
  1
*
 70
  1024
  1
*
  1
*
  0
XRECORD
  5
1BC
102
{ACAD_REACTORS
330
16
102
}
330
16
100
AcDbXrecord
280
     1
  1
TRAME
  1
*TRAM*
  1
*
  1
*
 70
     0
  1
*
  1
*
  0
XRECORD
  5
1BD
102
{ACAD_REACTORS
330
16
102
}
330
16
100
AcDbXrecord
280
     1
  1
travail_V7
  1
_*
  1
*
  1
*
 70
     0
  1
*
  1
*
  0
XRECORD
  5
1BE
102
{ACAD_REACTORS
330
16
102
}
330
16
100
AcDbXrecord
280
     1
  1
TRPATRIM
  1
tp_*
  1
*
  1
*
 70
     0
  1
*
  1
*
  0
XRECORD
  5
1BF
102
{ACAD_REACTORS
330
16
102
}
330
16
100
AcDbXrecord
280
     1
  1
TTE
  1
*TTE*
  1
*
  1
*
 70
     0
  1
*
  1
*
  0
XRECORD
  5
1C0
102
{ACAD_REACTORS
330
16
102
}
330
16
100
AcDbXrecord
280
     1
  1
txt
  1
*txt
  1
*
  1
*
 70
     0
  1
*
  1
*
  0
XRECORD
  5
1C1
102
{ACAD_REACTORS
330
16
102
}
330
16
100
AcDbXrecord
280
     1
  1
verriere
  1
*verriere*
  1
*
  1
*
 70
     0
  1
*
  1
*
  0
XRECORD
  5
1C2
102
{ACAD_REACTORS
330
16
102
}
330
16
100
AcDbXrecord
280
     1
  1
vert
  1
*
  1
green
  1
*
 70
     0
  1
*
  1
*
  0
XRECORD
  5
1C3
102
{ACAD_REACTORS
330
16
102
}
330
16
100
AcDbXrecord
280
     1
  1
vert 90
  1
*
  1
90
  1
*
 70
     0
  1
*
  1
*
  0
XRECORD
  5
1C4
102
{ACAD_REACTORS
330
16
102
}
330
16
100
AcDbXrecord
280
     1
  1
vide
  1
--jc-Vide
  1
*
  1
*
 70
     0
  1
*
  1
*
  0
XRECORD
  5
1C5
102
{ACAD_REACTORS
330
16
102
}
330
16
100
AcDbXrecord
280
     1
  1
vo
  1
??-VO
  1
*
  1
*
 70
     0
  1
*
  1
*
  0
XRECORD
  5
1C6
102
{ACAD_REACTORS
330
16
102
}
330
16
100
AcDbXrecord
280
     1
  1
wall
  1
*wall*
  1
*
  1
*
 70
     0
  1
*
  1
*
  0
XRECORD
  5
1C7
102
{ACAD_REACTORS
330
16
102
}
330
16
100
AcDbXrecord
280
     1
  1
wilmotte
  1
W*
  1
*
  1
*
 70
     0
  1
*
  1
*
  0
XRECORD
  5
1C8
102
{ACAD_REACTORS
330
16
102
}
330
16
100
AcDbXrecord
280
     1
  1
wilmotte_invisible
  1
W*
  1
*
  1
*
 70
     3
  1
*
  1
*
  0
XRECORD
  5
1C9
102
{ACAD_REACTORS
330
16
102
}
330
16
100
AcDbXrecord
280
     1
  1
wilmotte_visible
  1
W*
  1
*
  1
*
 70
    13
  1
*
  1
*
  0
XRECORD
  5
1CA
102
{ACAD_REACTORS
330
16
102
}
330
16
100
AcDbXrecord
280
     1
  1
work
  1
*
  1
*
  1
*
 70
     0
  1
*
  1
*
  0
XRECORD
  5
1CB
102
{ACAD_REACTORS
330
16
102
}
330
16
100
AcDbXrecord
280
     1
  1
XFFF
  1
XFFF*
  1
*
  1
*
 70
     0
  1
*
  1
*
  0
XRECORD
  5
1CC
102
{ACAD_REACTORS
330
16
102
}
330
16
100
AcDbXrecord
280
     1
  1
xref
  1
-*
  1
*
  1
*
 70
     0
  1
*
  1
*
  0
XRECORD
  5
1CD
102
{ACAD_REACTORS
330
16
102
}
330
16
100
AcDbXrecord
280
     1
  1
xref-des
  1
procvr0?n3|ocd*
  1
*
  1
*
 70
     0
  1
*
  1
*
  0
XRECORD
  5
1CE
102
{ACAD_REACTORS
330
16
102
}
330
16
100
AcDbXrecord
280
     1
  1
z1-des
  1
procvr01ss|ocd*
  1
*
  1
*
 70
     0
  1
*
  1
*
  0
XRECORD
  5
1CF
102
{ACAD_REACTORS
330
16
102
}
330
16
100
AcDbXrecord
280
     1
  1
z2-des
  1
procvr02ss|ocd*
  1
*
  1
*
 70
     0
  1
*
  1
*
  0
XRECORD
  5
1D0
102
{ACAD_REACTORS
330
16
102
}
330
16
100
AcDbXrecord
280
     1
  1
z3-des
  1
procvr03ss|ocd*
  1
*
  1
*
 70
     0
  1
*
  1
*
  0
XRECORD
  5
1D1
102
{ACAD_REACTORS
330
16
102
}
330
16
100
AcDbXrecord
280
     1
  1
za
  1
*za
  1
*
  1
*
 70
     0
  1
*
  1
*
  0
XRECORD
  5
1D2
102
{ACAD_REACTORS
330
16
102
}
330
16
100
AcDbXrecord
280
     1
  1
ZG
  1
*Z-G*
  1
*
  1
*
 70
     0
  1
*
  1
*
  0
XRECORD
  5
1D3
102
{ACAD_REACTORS
330
16
102
}
330
16
100
AcDbXrecord
280
     1
  1
zone-vdi
  1
zo*
  1
*
  1
*
 70
     0
  1
*
  1
*
  0
XRECORD
  5
1D4
102
{ACAD_REACTORS
330
16
102
}
330
16
100
AcDbXrecord
280
     1
  1
zones
  1
z*
  1
*
  1
*
 70
     0
  1
*
  1
*
  0
XRECORD
  5
1D5
102
{ACAD_REACTORS
330
16
102
}
330
16
100
AcDbXrecord
280
     1
  1
ztt-des
  1
procvr??ss|ocd*
  1
*
  1
*
 70
     0
  1
*
  1
*
  0
DICTIONARY
  5
2ED
330
E
100
AcDbDictionary
280
     1
281
     1
  3
ACAD_XREC_ROUNDTRIP
360
2EE
  0
DICTIONARY
  5
2EF
330
13
100
AcDbDictionary
280
     1
281
     1
  3
ACAD_XREC_ROUNDTRIP
360
2F0
  0
DICTIONARY
  5
2F3
330
1EE
100
AcDbDictionary
280
     1
281
     1
  3
ACAD_XREC_ROUNDTRIP
360
2F4
  0
DICTIONARY
  5
2F1
330
1ED
100
AcDbDictionary
280
     1
281
     1
  3
ACAD_XREC_ROUNDTRIP
360
2F2
  0
DICTIONARY
  5
2EB
330
A
100
AcDbDictionary
280
     1
281
     1
  3
ACAD_XREC_ROUNDTRIP
360
2EC
  0
DICTIONARY
  5
2F5
330
1F3
100
AcDbDictionary
280
     1
281
     1
  3
ACAD_XREC_ROUNDTRIP
360
2F6
  0
XRECORD
  5
2EE
102
{ACAD_REACTORS
330
2ED
102
}
330
2ED
100
AcDbXrecord
280
     1
102
SHADEPLOT
 70
     0
102
SHADEPLOTRESLEVEL
 70
     2
102
SHADEPLOTCUSTOMDPI
 70
   300
  0
XRECORD
  5
2F0
102
{ACAD_REACTORS
330
2EF
102
}
330
2EF
100
AcDbXrecord
280
     1
102
SHADEPLOT
 70
     0
102
SHADEPLOTRESLEVEL
 70
     2
102
SHADEPLOTCUSTOMDPI
 70
   300
  0
XRECORD
  5
2F4
102
{ACAD_REACTORS
330
2F3
102
}
330
2F3
100
AcDbXrecord
280
     1
102
MATERIAL
148
0.0
149
0.0
149
0.0
 93
        0
 94
       63
282
     0
 72
     1
 77
     1
171
     1
175
     1
179
     1
273
     0
  0
XRECORD
  5
2F2
102
{ACAD_REACTORS
330
2F1
102
}
330
2F1
100
AcDbXrecord
280
     1
102
MATERIAL
148
0.0
149
0.0
149
0.0
 93
        0
 94
       63
282
     0
 72
     1
 77
     1
171
     1
175
     1
179
     1
273
     0
  0
XRECORD
  5
2EC
102
{ACAD_REACTORS
330
2EB
102
}
330
2EB
100
AcDbXrecord
280
     1
102
MATERIAL
148
0.0
149
0.0
149
0.0
 93
        0
 94
       63
282
     0
 72
     1
 77
     1
171
     1
175
     1
179
     1
273
     0
  0
XRECORD
  5
2F6
102
{ACAD_REACTORS
330
2F5
102
}
330
2F5
100
AcDbXrecord
280
     1
102
ACAD_ROUNDTRIP_PRE2007_TABLESTYLE
 90
      512
 91
        0
  1

 92
      512
 93
        0
  2

 94
      512
 95
        0
  3

  0
ENDSEC
  0
EOF
