  0
SECTION
  2
HEADER
  9
$ACADVER
  1
AC1015
  9
$ACADMAINTVER
 70
     6
  9
$DWGCODEPAGE
  3
ANSI_1252
  9
$INSBASE
 10
0.0
 20
0.0
 30
0.0
  9
$EXTMIN
 10
-0.0410510220115157
 20
-0.0219942081769204
 30
-0.000000000000013
  9
$EXTMAX
 10
943.1588055455663
 20
442.3826547663203
 30
0.0000000000000023
  9
$LIMMIN
 10
-20.0
 20
-0.0073260073260073
  9
$LIMMAX
 10
930.250000000451
 20
355.7518315018315
  9
$ORTHOMODE
 70
     1
  9
$REGENMODE
 70
     1
  9
$FILLMODE
 70
     1
  9
$QTEXTMODE
 70
     0
  9
$MIRRTEXT
 70
     1
  9
$LTSCALE
 40
10.0
  9
$ATTMODE
 70
     1
  9
$TEXTSIZE
 40
12.87400009165412
  9
$TRACEWID
 40
0.05
  9
$TEXTSTYLE
  7
Standard
  9
$CLAYER
  8
0
  9
$CELTYPE
  6
ByBlock
  9
$CECOLOR
 62
     4
  9
$CELTSCALE
 40
1.0
  9
$DISPSILH
 70
     0
  9
$DIMSCALE
 40
1.0
  9
$DIMASZ
 40
1.25
  9
$DIMEXO
 40
0.0
  9
$DIMDLI
 40
0.38
  9
$DIMRND
 40
0.0
  9
$DIMDLE
 40
0.0
  9
$DIMEXE
 40
0.75
  9
$DIMTP
 40
0.0
  9
$DIMTM
 40
0.0
  9
$DIMTXT
 40
2.5
  9
$DIMCEN
 40
0.09
  9
$DIMTSZ
 40
0.0
  9
$DIMTOL
 70
     0
  9
$DIMLIM
 70
     0
  9
$DIMTIH
 70
     0
  9
$DIMTOH
 70
     0
  9
$DIMSE1
 70
     0
  9
$DIMSE2
 70
     0
  9
$DIMTAD
 70
     1
  9
$DIMZIN
 70
     0
  9
$DIMBLK
  1

  9
$DIMASO
 70
     1
  9
$DIMSHO
 70
     1
  9
$DIMPOST
  1

  9
$DIMAPOST
  1

  9
$DIMALT
 70
     0
  9
$DIMALTD
 70
     2
  9
$DIMALTF
 40
25.4
  9
$DIMLFAC
 40
1.0
  9
$DIMTOFL
 70
     0
  9
$DIMTVP
 40
0.0
  9
$DIMTIX
 70
     0
  9
$DIMSOXD
 70
     0
  9
$DIMSAH
 70
     0
  9
$DIMBLK1
  1

  9
$DIMBLK2
  1

  9
$DIMSTYLE
  2
Standard
  9
$DIMCLRD
 70
     7
  9
$DIMCLRE
 70
     7
  9
$DIMCLRT
 70
     7
  9
$DIMTFAC
 40
0.8
  9
$DIMGAP
 40
1.25
  9
$DIMJUST
 70
     0
  9
$DIMSD1
 70
     0
  9
$DIMSD2
 70
     0
  9
$DIMTOLJ
 70
     1
  9
$DIMTZIN
 70
     0
  9
$DIMALTZ
 70
     0
  9
$DIMALTTZ
 70
     0
  9
$DIMUPT
 70
     0
  9
$DIMDEC
 70
     2
  9
$DIMTDEC
 70
     4
  9
$DIMALTU
 70
     2
  9
$DIMALTTD
 70
     2
  9
$DIMTXSTY
  7
Standard
  9
$DIMAUNIT
 70
     0
  9
$DIMADEC
 70
     0
  9
$DIMALTRND
 40
0.0
  9
$DIMAZIN
 70
     0
  9
$DIMDSEP
 70
    46
  9
$DIMATFIT
 70
     3
  9
$DIMFRAC
 70
     0
  9
$DIMLDRBLK
  1

  9
$DIMLUNIT
 70
     2
  9
$DIMLWD
 70
     0
  9
$DIMLWE
 70
     0
  9
$DIMTMOVE
 70
     0
  9
$LUNITS
 70
     2
  9
$LUPREC
 70
     4
  9
$SKETCHINC
 40
0.1
  9
$FILLETRAD
 40
0.0
  9
$AUNITS
 70
     0
  9
$AUPREC
 70
     0
  9
$MENU
  1
acad
  9
$ELEVATION
 40
0.0
  9
$PELEVATION
 40
0.0
  9
$THICKNESS
 40
0.0
  9
$LIMCHECK
 70
     0
  9
$CHAMFERA
 40
0.0
  9
$CHAMFERB
 40
0.0
  9
$CHAMFERC
 40
0.0
  9
$CHAMFERD
 40
0.0
  9
$SKPOLY
 70
     0
  9
$TDCREATE
 40
2455524.477025463
  9
$TDUCREATE
 40
2455524.39369213
  9
$TDUPDATE
 40
2456210.396178507
  9
$TDUUPDATE
 40
2456210.312845174
  9
$TDINDWG
 40
0.3084458681
  9
$TDUSRTIMER
 40
2456210.311924502
  9
$USRTIMER
 70
     1
  9
$ANGBASE
 50
0.0
  9
$ANGDIR
 70
     0
  9
$PDMODE
 70
     0
  9
$PDSIZE
 40
0.0
  9
$PLINEWID
 40
0.0
  9
$SPLFRAME
 70
     0
  9
$SPLINETYPE
 70
     6
  9
$SPLINESEGS
 70
     8
  9
$HANDSEED
  5
138F4
  9
$SURFTAB1
 70
     6
  9
$SURFTAB2
 70
     6
  9
$SURFTYPE
 70
     6
  9
$SURFU
 70
     6
  9
$SURFV
 70
     6
  9
$UCSBASE
  2

  9
$UCSNAME
  2

  9
$UCSORG
 10
0.0
 20
0.0
 30
0.0
  9
$UCSXDIR
 10
1.0
 20
0.0
 30
0.0
  9
$UCSYDIR
 10
0.0
 20
1.0
 30
0.0
  9
$UCSORTHOREF
  2

  9
$UCSORTHOVIEW
 70
     0
  9
$UCSORGTOP
 10
0.0
 20
0.0
 30
0.0
  9
$UCSORGBOTTOM
 10
0.0
 20
0.0
 30
0.0
  9
$UCSORGLEFT
 10
0.0
 20
0.0
 30
0.0
  9
$UCSORGRIGHT
 10
0.0
 20
0.0
 30
0.0
  9
$UCSORGFRONT
 10
0.0
 20
0.0
 30
0.0
  9
$UCSORGBACK
 10
0.0
 20
0.0
 30
0.0
  9
$PUCSBASE
  2

  9
$PUCSNAME
  2

  9
$PUCSORG
 10
0.0
 20
0.0
 30
0.0
  9
$PUCSXDIR
 10
1.0
 20
0.0
 30
0.0
  9
$PUCSYDIR
 10
0.0
 20
1.0
 30
0.0
  9
$PUCSORTHOREF
  2

  9
$PUCSORTHOVIEW
 70
     0
  9
$PUCSORGTOP
 10
0.0
 20
0.0
 30
0.0
  9
$PUCSORGBOTTOM
 10
0.0
 20
0.0
 30
0.0
  9
$PUCSORGLEFT
 10
0.0
 20
0.0
 30
0.0
  9
$PUCSORGRIGHT
 10
0.0
 20
0.0
 30
0.0
  9
$PUCSORGFRONT
 10
0.0
 20
0.0
 30
0.0
  9
$PUCSORGBACK
 10
0.0
 20
0.0
 30
0.0
  9
$USERI1
 70
     0
  9
$USERI2
 70
     0
  9
$USERI3
 70
     0
  9
$USERI4
 70
     0
  9
$USERI5
 70
     0
  9
$USERR1
 40
0.0
  9
$USERR2
 40
0.0
  9
$USERR3
 40
0.0
  9
$USERR4
 40
0.0
  9
$USERR5
 40
0.0
  9
$WORLDVIEW
 70
     1
  9
$SHADEDGE
 70
     3
  9
$SHADEDIF
 70
    70
  9
$TILEMODE
 70
     1
  9
$MAXACTVP
 70
    16
  9
$PINSBASE
 10
0.0
 20
0.0
 30
0.0
  9
$PLIMCHECK
 70
     0
  9
$PEXTMIN
 10
1.000000000000000E+20
 20
1.000000000000000E+20
 30
1.000000000000000E+20
  9
$PEXTMAX
 10
-1.000000000000000E+20
 20
-1.000000000000000E+20
 30
-1.000000000000000E+20
  9
$PLIMMIN
 10
0.0
 20
0.0
  9
$PLIMMAX
 10
0.0
 20
0.0
  9
$UNITMODE
 70
     0
  9
$VISRETAIN
 70
     0
  9
$PLINEGEN
 70
     1
  9
$PSLTSCALE
 70
     0
  9
$TREEDEPTH
 70
  3020
  9
$CMLSTYLE
  2
Standard
  9
$CMLJUST
 70
     0
  9
$CMLSCALE
 40
1.0
  9
$PROXYGRAPHICS
 70
     0
  9
$MEASUREMENT
 70
     1
  9
$CELWEIGHT
370
     0
  9
$ENDCAPS
280
     0
  9
$JOINSTYLE
280
     0
  9
$LWDISPLAY
290
     0
  9
$INSUNITS
 70
     0
  9
$HYPERLINKBASE
  1

  9
$STYLESHEET
  1

  9
$XEDIT
290
     1
  9
$CEPSNTYPE
380
     0
  9
$PSTYLEMODE
290
     1
  9
$FINGERPRINTGUID
  2

  9
$VERSIONGUID
  2
{88641DA1-C701-4DD6-8242-96EDDD3D625A}
  9
$EXTNAMES
290
     1
  9
$PSVPSCALE
 40
0.0
  9
$OLESTARTUP
290
     0
  0
ENDSEC
  0
SECTION
  2
CLASSES
  0
CLASS
  1
LWPOLYLINE
  2
AcDbPolyline
  3
AutoCAD 2000
 90
        0
280
     0
281
     1
  0
CLASS
  1
IMAGE
  2
AcDbRasterImage
  3
ISM
 90
      127
280
     0
281
     1
  0
CLASS
  1
OLE2FRAME
  2
AcDbOle2Frame
  3
AutoCAD 2000
 90
        0
280
     0
281
     1
  0
CLASS
  1
HATCH
  2
AcDbHatch
  3
AutoCAD 2000
 90
        0
280
     0
281
     1
  0
CLASS
  1
DICTIONARYVAR
  2
AcDbDictionaryVar
  3
ObjectDBX Classes
 90
        0
280
     0
281
     0
  0
CLASS
  1
RASTERVARIABLES
  2
AcDbRasterVariables
  3
ISM
 90
        0
280
     0
281
     0
  0
CLASS
  1
IMAGEDEF
  2
AcDbRasterImageDef
  3
ISM
 90
        0
280
     0
281
     0
  0
CLASS
  1
IMAGEDEF_REACTOR
  2
AcDbRasterImageDefReactor
  3
ISM
 90
        1
280
     0
281
     0
  0
CLASS
  1
IDBUFFER
  2
AcDbIdBuffer
  3
ObjectDBX Classes
 90
        0
280
     0
281
     0
  0
CLASS
  1
SPATIAL_FILTER
  2
AcDbSpatialFilter
  3
ObjectDBX Classes
 90
        0
280
     0
281
     0
  0
CLASS
  1
XRECORD
  2
AcDbXrecord
  3
AutoCAD 2000
 90
        0
280
     0
281
     0
  0
CLASS
  1
SORTENTSTABLE
  2
AcDbSortentsTable
  3
ObjectDBX Classes
 90
        0
280
     0
281
     0
  0
CLASS
  1
LAYER_INDEX
  2
AcDbLayerIndex
  3
ObjectDBX Classes
 90
        0
280
     0
281
     0
  0
CLASS
  1
SPATIAL_INDEX
  2
AcDbSpatialIndex
  3
AutoCAD 2000
 90
        0
280
     0
281
     0
  0
CLASS
  1
OBJECT_PTR
  2
CAseDLPNTableRecord
  3
ASE-LPNTableRecord
 90
        1
280
     0
281
     0
  0
CLASS
  1
LAYOUT
  2
AcDbLayout
  3
ObjectDBX Classes
 90
        0
280
     0
281
     0
  0
CLASS
  1
PLOTSETTINGS
  2
AcDbPlotSettings
  3
ObjectDBX Classes
 90
        0
280
     0
281
     0
  0
CLASS
  1
ACDBDICTIONARYWDFLT
  2
AcDbDictionaryWithDefault
  3
ObjectDBX Classes
 90
        0
280
     0
281
     0
  0
CLASS
  1
ACDBPLACEHOLDER
  2
AcDbPlaceHolder
  3
ObjectDBX Classes
 90
        0
280
     0
281
     0
  0
CLASS
  1
VBA_PROJECT
  2
AcDbVbaProject
  3
ObjectDBX Classes
 90
        0
280
     0
281
     0
  0
CLASS
  1
WIPEOUT
  2
AcDbWipeout
  3
WipeOut|AutoCAD Express Tool|expresstools@autodesk.com
 90
      127
280
     0
281
     1
  0
CLASS
  1
WIPEOUTVARIABLES
  2
AcDbWipeoutVariables
  3
WipeOut|AutoCAD Express Tool|expresstools@autodesk.com
 90
        0
280
     0
281
     0
  0
CLASS
  1
RTEXT
  2
RText
  3
RText|AutoCAD Express Tool|expresstools@autodesk.com
 90
        0
280
     0
281
     1
  0
CLASS
  1
ARCALIGNEDTEXT
  2
AcDbArcAlignedText
  3
ATEXT|AutoCAD Express Tool|expresstools@autodesk.com
 90
        0
280
     0
281
     1
  0
CLASS
  1
MATERIAL
  2
AcDbMaterial
  3
ObjectDBX Classes
 90
     1153
280
     0
281
     0
  0
CLASS
  1
VISUALSTYLE
  2
AcDbVisualStyle
  3
ObjectDBX Classes
 90
     4095
280
     0
281
     0
  0
CLASS
  1
TABLESTYLE
  2
AcDbTableStyle
  3
ObjectDBX Classes
 90
     4095
280
     0
281
     0
  0
CLASS
  1
SCALE
  2
AcDbScale
  3
ObjectDBX Classes
 90
     1153
280
     0
281
     0
  0
CLASS
  1
MLEADERSTYLE
  2
AcDbMLeaderStyle
  3
ACDB_MLEADERSTYLE_CLASS
 90
     4095
280
     0
281
     0
  0
CLASS
  1
CELLSTYLEMAP
  2
AcDbCellStyleMap
  3
ObjectDBX Classes
 90
     1152
280
     0
281
     0
  0
CLASS
  1
DIMASSOC
  2
AcDbDimAssoc
  3
"AcDbDimAssoc|Product Desc:     AcDim ARX App For Dimension|Company:          Autodesk, Inc.|WEB Address:      www.autodesk.com"
 90
        0
280
     0
281
     0
  0
ENDSEC
  0
SECTION
  2
TABLES
  0
TABLE
  2
VPORT
  5
7
330
0
100
AcDbSymbolTable
 70
     1
  0
VPORT
  5
15
330
7
100
AcDbSymbolTableRecord
100
AcDbViewportTableRecord
  2
*ACTIVE
 70
     0
 10
0.0
 20
0.0
 11
1.0
 21
1.0
 12
56.07551125704718
 22
160.0256187293421
 13
0.0
 23
0.0
 14
1.0
 24
1.0
 15
0.0
 25
0.0
 16
0.0
 26
0.0
 36
1.0
 17
0.0
 27
0.0
 37
0.0
 40
415.7207982739367
 41
2.274173806609547
 42
50.0
 43
0.0
 44
0.0
 50
0.0
 51
0.0
 71
    16
 72
   100
 73
     1
 74
     1
 75
     0
 76
     0
 77
     0
 78
     0
281
     0
 65
     0
110
0.0
120
0.0
130
0.0
111
1.0
121
0.0
131
0.0
112
0.0
122
1.0
132
0.0
 79
     0
146
0.0
  0
ENDTAB
  0
TABLE
  2
LTYPE
  5
4
330
0
100
AcDbSymbolTable
 70
     6
  0
LTYPE
  5
11
330
4
100
AcDbSymbolTableRecord
100
AcDbLinetypeTableRecord
  2
ByBlock
 70
     0
  3

 72
    65
 73
     0
 40
0.0
  0
LTYPE
  5
12
330
4
100
AcDbSymbolTableRecord
100
AcDbLinetypeTableRecord
  2
ByLayer
 70
     0
  3

 72
    65
 73
     0
 40
0.0
  0
LTYPE
  5
13
330
4
100
AcDbSymbolTableRecord
100
AcDbLinetypeTableRecord
  2
Continuous
 70
     0
  3
Solid line
 72
    65
 73
     0
 40
0.0
  0
LTYPE
  5
3CD
330
4
100
AcDbSymbolTableRecord
100
AcDbLinetypeTableRecord
  2
CENTER
 70
     0
  3
____ _ ____ _ ____ _ ____ _ ____ _ ____ _ ____
 72
    65
 73
     4
 40
2.0
 49
1.25
 74
     0
 49
-0.25
 74
     0
 49
0.25
 74
     0
 49
-0.25
 74
     0
  0
LTYPE
  5
8266
330
4
100
AcDbSymbolTableRecord
100
AcDbLinetypeTableRecord
  2
________________
 70
     0
  3

 72
    65
 73
     0
 40
0.0
  0
LTYPE
  5
8269
330
4
100
AcDbSymbolTableRecord
100
AcDbLinetypeTableRecord
  2
_..__..__..__.._
 70
     0
  3

 72
    65
 73
     2
 40
1.8
 49
0.8999999999999999
 74
     0
 49
-0.8999999999999999
 74
     0
  0
LTYPE
  5
8384
330
4
100
AcDbSymbolTableRecord
100
AcDbLinetypeTableRecord
  2
______....__....
 70
     0
  3

 72
    65
 73
     4
 40
7.2
 49
2.7
 74
     0
 49
-1.8
 74
     0
 49
0.8999999999999999
 74
     0
 49
-1.8
 74
     0
  0
LTYPE
  5
BDC7
330
4
100
AcDbSymbolTableRecord
100
AcDbLinetypeTableRecord
  2
HIDDEN
 70
     0
  3
Hidden __ __ __ __ __ __ __ __ __ __ __ __ __ __
 72
    65
 73
     2
 40
1.905
 49
1.27
 74
     0
 49
-0.635
 74
     0
  0
ENDTAB
  0
TABLE
  2
LAYER
  5
2
330
0
100
AcDbSymbolTable
 70
     2
  0
LAYER
  5
14
102
{ACAD_XDICTIONARY
360
A84
102
}
330
2
100
AcDbSymbolTableRecord
100
AcDbLayerTableRecord
  2
0
 70
     0
 62
     7
  6
Continuous
370
    -3
390
1D
  0
LAYER
  5
D11
330
2
100
AcDbSymbolTableRecord
100
AcDbLayerTableRecord
  2
Defpoints
 70
     0
 62
     7
  6
Continuous
290
     0
370
    -3
390
1D
  0
ENDTAB
  0
TABLE
  2
STYLE
  5
3
330
0
100
AcDbSymbolTable
 70
     8
  0
STYLE
  5
17
330
3
100
AcDbSymbolTableRecord
100
AcDbTextStyleTableRecord
  2
Standard
 70
     0
 40
0.0
 41
1.0
 50
0.0
 71
     0
 42
12.87400009165412
  3
I011000D.TTF
  4

1001
ACAD
1000
IsonormD
1071
        0
  0
STYLE
  5
BDCB
330
3
100
AcDbSymbolTableRecord
100
AcDbTextStyleTableRecord
  2
SLDTEXTSTYLE0
 70
     0
 40
0.0
 41
0.605
 50
0.0
 71
     0
 42
0.2
  3
TXT
  4

  0
STYLE
  5
BDCC
330
3
100
AcDbSymbolTableRecord
100
AcDbTextStyleTableRecord
  2
SLDTEXTSTYLE1
 70
     0
 40
0.0
 41
0.435157749412572
 50
0.0
 71
     0
 42
0.2
  3
TXT
  4

  0
STYLE
  5
BDCD
330
3
100
AcDbSymbolTableRecord
100
AcDbTextStyleTableRecord
  2
SLDTEXTSTYLE2
 70
     0
 40
0.0
 41
0.609090909090909
 50
0.0
 71
     0
 42
0.2
  3
TXT
  4

  0
STYLE
  5
BDCE
330
3
100
AcDbSymbolTableRecord
100
AcDbTextStyleTableRecord
  2
SLDTEXTSTYLE3
 70
     0
 40
0.0
 41
0.7
 50
0.0
 71
     0
 42
0.2
  3
TXT
  4

  0
STYLE
  5
BDCF
330
3
100
AcDbSymbolTableRecord
100
AcDbTextStyleTableRecord
  2
SLDTEXTSTYLE4
 70
     0
 40
0.0
 41
0.57
 50
0.0
 71
     0
 42
0.2
  3
TXT
  4

  0
STYLE
  5
BDD0
330
3
100
AcDbSymbolTableRecord
100
AcDbTextStyleTableRecord
  2
SLDTEXTSTYLE5
 70
     0
 40
0.0
 41
0.75
 50
0.0
 71
     0
 42
0.2
  3
TXT
  4

  0
STYLE
  5
116FD
330
3
100
AcDbSymbolTableRecord
100
AcDbTextStyleTableRecord
  2
SLDTEXTSTYLE6
 70
     0
 40
0.0
 41
0.7
 50
0.0
 71
     0
 42
0.2
  3
TXT
  4
bigfont
  0
ENDTAB
  0
TABLE
  2
VIEW
  5
5
330
0
100
AcDbSymbolTable
 70
     0
  0
ENDTAB
  0
TABLE
  2
UCS
  5
6
330
0
100
AcDbSymbolTable
 70
     0
  0
ENDTAB
  0
TABLE
  2
APPID
  5
8
330
0
100
AcDbSymbolTable
 70
     6
  0
APPID
  5
16
330
8
100
AcDbSymbolTableRecord
100
AcDbRegAppTableRecord
  2
ACAD
 70
     0
  0
APPID
  5
26
330
8
100
AcDbSymbolTableRecord
100
AcDbRegAppTableRecord
  2
TopSolid'Draft
 70
     0
  0
APPID
  5
6E5
330
8
100
AcDbSymbolTableRecord
100
AcDbRegAppTableRecord
  2
ACAD_MLEADERVER
 70
     0
  0
APPID
  5
A7A
330
8
100
AcDbSymbolTableRecord
100
AcDbRegAppTableRecord
  2
ACAD_EXEMPT_FROM_CAD_STANDARDS
 70
     0
  0
APPID
  5
A82
330
8
100
AcDbSymbolTableRecord
100
AcDbRegAppTableRecord
  2
DCO15
 70
     0
  0
APPID
  5
160D
330
8
100
AcDbSymbolTableRecord
100
AcDbRegAppTableRecord
  2
ACAD_PSEXT
 70
     0
  0
ENDTAB
  0
TABLE
  2
DIMSTYLE
  5
9
330
0
100
AcDbSymbolTable
 70
     2
100
AcDbDimStyleTable
  0
DIMSTYLE
105
18
330
9
100
AcDbSymbolTableRecord
100
AcDbDimStyleTableRecord
  2
Standard
 70
     0
 41
1.25
 42
0.0
 44
0.75
 73
     0
 74
     0
 77
     1
140
2.5
146
0.8
147
1.25
176
     7
177
     7
271
     2
178
     7
271
     2
340
17
  0
DIMSTYLE
105
BDC9
330
9
100
AcDbSymbolTableRecord
100
AcDbDimStyleTableRecord
  2
ISO-25
 70
     0
 41
2.5
 42
0.625
 43
3.75
 44
1.25
 73
     0
 74
     0
 77
     1
 78
     8
140
2.5
141
2.5
143
0.03937007874016
147
0.625
171
     3
172
     1
178
     0
271
     2
272
     2
274
     3
278
    44
283
     0
284
     8
340
17
  0
ENDTAB
  0
TABLE
  2
BLOCK_RECORD
  5
1
330
0
100
AcDbSymbolTable
 70
     9
  0
BLOCK_RECORD
  5
A
102
{ACAD_XDICTIONARY
360
941
102
}
330
1
100
AcDbSymbolTableRecord
100
AcDbBlockTableRecord
  2
*MODEL_SPACE
340
20
  0
BLOCK_RECORD
  5
B
330
1
100
AcDbSymbolTableRecord
100
AcDbBlockTableRecord
  2
*PAPER_SPACE
340
21
  0
BLOCK_RECORD
  5
5758
330
1
100
AcDbSymbolTableRecord
100
AcDbBlockTableRecord
  2
d
340
0
310
2800000020000000200000000100080000000000000400000000000000000000000000000000000000000000000080000080000000808000800000008000800080800000C0C0C000C0DCC000F0CAA6000020400000206000002080000020A0000020C0000020E00000400000004020000040400000406000004080000040A0
310
000040C0000040E00000600000006020000060400000606000006080000060A0000060C0000060E00000800000008020000080400000806000008080000080A0000080C0000080E00000A0000000A0200000A0400000A0600000A0800000A0A00000A0C00000A0E00000C0000000C0200000C0400000C0600000C0800000C0
310
A00000C0C00000C0E00000E0000000E0200000E0400000E0600000E0800000E0A00000E0C00000E0E00040000000400020004000400040006000400080004000A0004000C0004000E00040200000402020004020400040206000402080004020A0004020C0004020E000404000004040200040404000404060004040800040
310
40A0004040C0004040E00040600000406020004060400040606000406080004060A0004060C0004060E00040800000408020004080400040806000408080004080A0004080C0004080E00040A0000040A0200040A0400040A0600040A0800040A0A00040A0C00040A0E00040C0000040C0200040C0400040C0600040C08000
310
40C0A00040C0C00040C0E00040E0000040E0200040E0400040E0600040E0800040E0A00040E0C00040E0E00080000000800020008000400080006000800080008000A0008000C0008000E00080200000802020008020400080206000802080008020A0008020C0008020E00080400000804020008040400080406000804080
310
008040A0008040C0008040E00080600000806020008060400080606000806080008060A0008060C0008060E00080800000808020008080400080806000808080008080A0008080C0008080E00080A0000080A0200080A0400080A0600080A0800080A0A00080A0C00080A0E00080C0000080C0200080C0400080C0600080C0
310
800080C0A00080C0C00080C0E00080E0000080E0200080E0400080E0600080E0800080E0A00080E0C00080E0E000C0000000C0002000C0004000C0006000C0008000C000A000C000C000C000E000C0200000C0202000C0204000C0206000C0208000C020A000C020C000C020E000C0400000C0402000C0404000C0406000C0
310
408000C040A000C040C000C040E000C0600000C0602000C0604000C0606000C0608000C060A000C060C000C060E000C0800000C0802000C0804000C0806000C0808000C080A000C080C000C080E000C0A00000C0A02000C0A04000C0A06000C0A08000C0A0A000C0A0C000C0A0E000C0C00000C0C02000C0C04000C0C06000
310
C0C08000C0C0A000F0FBFF00A4A0A000808080000000FF0000FF000000FFFF00FF000000FF00FF00FFFF0000FFFFFF00FFFFFFFFFFFFFFFFFFFFFFFFFFFFFFFFFFFFFFFFFFFFFFFFFFFFFFFFFFFFFFFFFFFFFFFFFFFFFFFFFFFFFFFF00FF00FFFFFFFFFFFFFFFFFFFFFFFFFFFFFFFFFFFFFFFFFFFFFFFFFFFFFFFFFF00FF00
310
FFFFFFFFFFFFFFFFFFFFFFFFFFFFFFFFFFFFFFFFFFFFFFFFFFFFFFFFFF00FF00FFFFFFFFFFFFFFFFFFFFFFFFFFFFFFFFFFFFFFFFFFFFFFFFFFFFFFFFFF00FF00FFFFFFFFFFFFFFFFFFFFFFFFFFFFFFFFFFFFFFFFFFFFFFFFFFFFFFFFFF00FF00FFFFFFFFFFFFFFFFFFFFFFFFFFFFFFFFFFFFFFFFFFFFFFFFFFFFFFFFFF00FF
310
00FFFFFFFFFFFFFFFFFFFFFFFFFFFFFFFFFFFFFFFFFFFFFFFFFFFFFFFFFF00FF00FFFFFFFFFFFFFFFFFFFFFFFFFFFFFFFFFFFFFFFFFFFFFFFFFFFFFFFFFF00FF00FFFFFFFFFFFFFFFFFFFFFFFFFFFFFFFFFFFFFFFFFFFFFFFFFFFFFFFFFF00FF00FFFFFFFFFFFFFFFFFFFFFFFFFFFFFFFFFFFFFFFFFFFFFFFFFFFFFFFFFF00
310
FF00FFFFFFFFFFFFFFFFFFFFFFFFFFFFFFFFFFFFFFFFFFFFFFFFFFFFFFFFFF00FF00FFFFFFFFFFFFFFFFFFFFFFFFFFFFFFFFFFFFFFFFFFFFFFFFFFFFFFFF0000FF00FFFFFFFF0000FFFFFFFFFFFFFFFFFFFFFFFFFFFFFFFFFFFFFFFFFFFF0000FF00FFFFFFFFFF00FFFFFFFFFFFFFFFFFFFFFFFFFFFFFFFFFFFFFFFFFFFF00
310
00FF00FFFFFFFFFF00FFFFFFFFFFFFFFFFFFFFFFFFFFFFFFFFFFFFFFFFFF000000FF00FFFFFFFFFF0000FFFFFFFFFFFFFFFFFFFFFFFFFFFFFFFFFFFFFFFFF9F9F9FF00FFFFFFFFFF0000FFFFFFFFFFFFFFFFFFFFFFFFFFFFFFFFFFFFFFFF0000000000FFFFFFFFFF0000FFFFFFFFFFFFFFFFFFFFFFFFFFFFFFFFFFFFFFFF00
310
00000000FFFFFFFFFF0000FFFFFFFFFFFFFFFFFFFFFFFFFFFFFFFFFFFFFFFF0000000000FFFFFFFFFF0000FFFFFFFFFFFFFFFFFFFFFFFFFFFFFFFFFFFFFFFF00000000FFFFFFFFFFFF0000FFFFFFFFFFFFFFFFFFFFFFFFFFFFFFFFFFFFFFFF00000000FFFFFFFFFFFF0000FFFFFFFFFFFFFFFFFFFFFFFFFFFFFFFFFFFFFFFF
310
00FF0000FFFFFFFFFFFFFF00FFFFFFFFFFFFFFFFFFFFFFFFFFFFFFFFFFFFFFFF000000000000FFFFFF000000FFFFFFFFFFFFFFFFFFFFFFFFFFFFFFFFFFFFFFFF000000FF0000FFFFFF000000FFFFFFFFFFFFFFFFFFFFFFFFFFFFFFFFFFFFFFFF000000FF00FFFFFFFFFF0000FFFFFFFFFFFFFFFFFFFFFFFFFFFFFFFFFFFFFF
310
FF00F9F9F9F9F9FFFFFFFFFF00FFFFFFFFFFFFFFFFFFFFFFFFFFFFFFFFFFFFFFFF000000FF00FFFFFFFFFFFF00FFFFFFFFFFFFFFFFFFFFFFFFFFFFFFFFFFFFFFFF000000FF00FFFFFFFFFFFF00FFFFFFFFFFFFFFFFFFFFFFFFFFFFFFFFFFFFFFFF000000FF0000FFFFFF000000FFFFFFFFFFFFFFFFFFFFFFFFFFFFFFFFFFFF
310
FFFFFFFF00000000FFFFFFFFFFFFFFFFFFFFFFFFFFFFFFFFFFFFFFFFFFFFFFFFFFFFFFFFFFFFFFFFFFFFFFFFFFFFFFFFFFFFFFFFFFFFFFFF
  0
BLOCK_RECORD
  5
837C
330
1
100
AcDbSymbolTableRecord
100
AcDbBlockTableRecord
  2
D_FRAME_VIEW@806
340
0
  0
BLOCK_RECORD
  5
8399
330
1
100
AcDbSymbolTableRecord
100
AcDbBlockTableRecord
  2
D_FRAME_VIEW@410
340
0
  0
BLOCK_RECORD
  5
1383A
330
1
100
AcDbSymbolTableRecord
100
AcDbBlockTableRecord
  2
*D3
340
0
  0
BLOCK_RECORD
  5
13881
330
1
100
AcDbSymbolTableRecord
100
AcDbBlockTableRecord
  2
*D4
340
0
  0
BLOCK_RECORD
  5
13890
330
1
100
AcDbSymbolTableRecord
100
AcDbBlockTableRecord
  2
*D5
340
0
  0
BLOCK_RECORD
  5
1389F
330
1
100
AcDbSymbolTableRecord
100
AcDbBlockTableRecord
  2
*D6
340
0
  0
BLOCK_RECORD
  5
138B0
330
1
100
AcDbSymbolTableRecord
100
AcDbBlockTableRecord
  2
*D7
340
0
  0
BLOCK_RECORD
  5
138BF
330
1
100
AcDbSymbolTableRecord
100
AcDbBlockTableRecord
  2
*D8
340
0
  0
ENDTAB
  0
ENDSEC
  0
SECTION
  2
BLOCKS
  0
BLOCK
  5
D
330
A
100
AcDbEntity
  8
0
100
AcDbBlockBegin
  2
*MODEL_SPACE
 70
     0
 10
0.0
 20
0.0
 30
0.0
  3
*MODEL_SPACE
  1

  0
ENDBLK
  5
E
330
A
100
AcDbEntity
  8
0
100
AcDbBlockEnd
  0
BLOCK
  5
F
330
B
100
AcDbEntity
 67
     1
  8
0
100
AcDbBlockBegin
  2
*PAPER_SPACE
 70
     0
 10
0.0
 20
0.0
 30
0.0
  3
*PAPER_SPACE
  1

  0
ENDBLK
  5
10
330
B
100
AcDbEntity
 67
     1
  8
0
100
AcDbBlockEnd
  0
BLOCK
  5
5759
330
5758
100
AcDbEntity
  8
0
 62
     6
370
     0
100
AcDbBlockBegin
  2
d
 70
     0
 10
0.0
 20
0.0
 30
0.0
  3
d
  1

  0
LINE
  5
575B
330
5758
100
AcDbEntity
  8
0
  6
Continuous
 62
     7
370
     0
100
AcDbLine
 10
722.4348093990802
 20
-800.826930411269
 30
0.0
 11
722.43480939908
 21
-712.826930411269
 31
0.0
  0
LINE
  5
575C
330
5758
100
AcDbEntity
  8
0
  6
Continuous
 62
     7
370
     0
100
AcDbLine
 10
723.4348093990802
 20
-711.8269304112689
 30
0.0
 11
731.4348093990802
 21
-711.8269304112689
 31
0.0
  0
LINE
  5
575D
330
5758
100
AcDbEntity
  8
0
  6
Continuous
 62
     7
370
     0
100
AcDbLine
 10
731.4348093990802
 20
-801.826930411269
 30
0.0
 11
732.4348093990802
 21
-800.8269304112689
 31
0.0
  0
LINE
  5
575E
330
5758
100
AcDbEntity
  8
0
  6
Continuous
 62
     7
370
     0
100
AcDbLine
 10
732.4348093990802
 20
-712.8269304112689
 30
0.0
 11
732.4348093990802
 21
-800.8269304112689
 31
0.0
  0
LINE
  5
575F
330
5758
100
AcDbEntity
  8
0
  6
Continuous
 62
     7
370
     0
100
AcDbLine
 10
732.4348093990802
 20
-712.8269304112689
 30
0.0
 11
731.4348093990802
 21
-711.8269304112689
 31
0.0
  0
LINE
  5
5760
330
5758
100
AcDbEntity
  8
0
  6
Continuous
 62
     7
370
     0
100
AcDbLine
 10
723.4348093990802
 20
-711.8269304112689
 30
0.0
 11
722.43480939908
 21
-712.826930411269
 31
0.0
  0
LINE
  5
5761
330
5758
100
AcDbEntity
  8
0
  6
Continuous
 62
     7
370
     0
100
AcDbLine
 10
722.4348093990802
 20
-800.826930411269
 30
0.0
 11
723.4348093990802
 21
-801.826930411269
 31
0.0
  0
LINE
  5
5762
330
5758
100
AcDbEntity
  8
0
  6
Continuous
 62
     7
370
     0
100
AcDbLine
 10
713.634809409805
 20
-668.2269304263922
 30
0.0
 11
713.634809409805
 21
-668.0812472754044
 31
0.0
  0
LINE
  5
5763
330
5758
100
AcDbEntity
  8
0
  6
Continuous
 62
     7
370
     0
100
AcDbLine
 10
711.9348094098052
 20
-668.226930426393
 30
0.0
 11
713.634809409805
 21
-668.2269304263922
 31
0.0
  0
LINE
  5
5764
330
5758
100
AcDbEntity
  8
0
  6
Continuous
 62
     7
370
     0
100
AcDbLine
 10
711.9348094098082
 20
-674.226930426393
 30
0.0
 11
711.9348094098052
 21
-668.226930426393
 31
0.0
  0
ARC
  5
5765
330
5758
100
AcDbEntity
  8
0
  6
Continuous
 62
     7
370
     0
100
AcDbCircle
 10
712.9348094098082
 20
-674.2269304263925
 30
0.0
 40
1.000000000000001
100
AcDbArc
 50
180.0000000000261
 51
270.0000000000259
  0
LINE
  5
5766
330
5758
100
AcDbEntity
  8
0
  6
Continuous
 62
     7
370
     0
100
AcDbLine
 10
717.810545345468
 20
-675.22693042639
 30
0.0
 11
712.9348094098086
 21
-675.2269304263925
 31
0.0
  0
LINE
  5
5767
330
5758
100
AcDbEntity
  8
0
  6
Continuous
 62
     7
370
     0
100
AcDbLine
 10
721.4348094098088
 20
-675.5269304263883
 30
0.0
 11
719.6348093947047
 21
-673.7269304112858
 31
0.0
  0
LINE
  5
5768
330
5758
100
AcDbEntity
  8
0
  6
Continuous
 62
     7
370
     0
100
AcDbLine
 10
721.4348094098093
 20
-676.5269304263883
 30
0.0
 11
721.4348094098088
 21
-675.5269304263883
 31
0.0
  0
LINE
  5
5769
330
5758
100
AcDbEntity
  8
0
  6
Continuous
 62
     7
370
     0
100
AcDbLine
 10
712.9348094098093
 20
-676.5269304263925
 30
0.0
 11
721.4348094098093
 21
-676.5269304263883
 31
0.0
  0
ARC
  5
576A
330
5758
100
AcDbEntity
  8
0
  6
Continuous
 62
     7
370
     0
100
AcDbCircle
 10
712.9348094098098
 20
-677.5269304263926
 30
0.0
 40
1.000000000000001
100
AcDbArc
 50
90.00000000002606
 51
180.0000000000261
  0
LINE
  5
576B
330
5758
100
AcDbEntity
  8
0
  6
Continuous
 62
     7
370
     0
100
AcDbLine
 10
711.9348094098123
 20
-682.526930426393
 30
0.0
 11
711.9348094098098
 21
-677.526930426393
 31
0.0
  0
LINE
  5
576C
330
5758
100
AcDbEntity
  8
0
  6
Continuous
 62
     7
370
     0
100
AcDbLine
 10
713.6348094098123
 20
-682.5269304263921
 30
0.0
 11
711.9348094098123
 21
-682.526930426393
 31
0.0
  0
LINE
  5
576D
330
5758
100
AcDbEntity
  8
0
  6
Continuous
 62
     7
370
     0
100
AcDbLine
 10
713.6348094098123
 20
-682.5769304263921
 30
0.0
 11
713.6348094098123
 21
-682.5269304263921
 31
0.0
  0
ARC
  5
576E
330
5758
100
AcDbEntity
  8
0
  6
Continuous
 62
     7
370
     0
100
AcDbCircle
 10
707.6348094098123
 20
-682.5769304263952
 30
0.0
 40
6.000000000000021
100
AcDbArc
 50
333.0032986675416
 51
0.0000000000260551
  0
LINE
  5
576F
330
5758
100
AcDbEntity
  8
0
  6
Continuous
 62
     9
370
     0
100
AcDbLine
 10
712.981005370589
 20
-685.3005656348942
 30
0.0
 11
709.4348094098136
 21
-685.300565634896
 31
0.0
  0
LINE
  5
5770
330
5758
100
AcDbEntity
  8
0
  6
Continuous
 62
     7
370
     0
100
AcDbLine
 10
709.4348094098032
 20
-664.1532952178926
 30
0.0
 11
709.4348094098136
 21
-685.300565634896
 31
0.0
  0
LINE
  5
5771
330
5758
100
AcDbEntity
  8
0
  6
Continuous
 62
     9
370
     0
100
AcDbLine
 10
712.2555657218929
 20
-664.1532952178912
 30
0.0
 11
709.4348094098032
 21
-664.1532952178926
 31
0.0
  0
LINE
  5
5772
330
5758
100
AcDbEntity
  8
0
  6
Continuous
 62
     7
370
     0
100
AcDbLine
 10
709.4348094102618
 20
-661.6482358011181
 30
0.0
 11
709.4348094102631
 21
-664.1532952178926
 31
0.0
  0
LINE
  5
5773
330
5758
100
AcDbEntity
  8
0
  6
Continuous
 62
     7
370
     0
100
AcDbLine
 10
709.4348094102736
 20
-685.300565634896
 30
0.0
 11
709.4348094102752
 21
-688.300565634896
 31
0.0
  0
ARC
  5
5774
330
5758
100
AcDbEntity
  8
0
  6
Continuous
 62
     7
370
     0
100
AcDbCircle
 10
707.6342275491613
 20
-682.5762426293745
 30
0.0
 40
6.000830685006342
100
AcDbArc
 50
287.4609327031985
 51
332.9999690954166
  0
LINE
  5
5775
330
5758
100
AcDbEntity
  8
0
  6
Continuous
 62
     7
370
     0
100
AcDbLine
 10
733.4348094225925
 20
-711.826930411286
 30
0.0
 11
732.4348094225925
 21
-711.826930411286
 31
0.0
  0
LINE
  5
5776
330
5758
100
AcDbEntity
  8
0
  6
Continuous
 62
     7
370
     0
100
AcDbLine
 10
733.4348094225925
 20
-729.826930411286
 30
0.0
 11
732.4348094225925
 21
-729.826930411286
 31
0.0
  0
LINE
  5
5777
330
5758
100
AcDbEntity
  8
0
  6
Continuous
 62
     7
370
     0
100
AcDbLine
 10
732.4348094225925
 20
-711.826930411286
 30
0.0
 11
732.4348094225925
 21
-712.8269304347813
 31
0.0
  0
ARC
  5
5778
330
5758
100
AcDbEntity
  8
0
  6
Continuous
 62
     7
370
     0
100
AcDbCircle
 10
703.2348093990126
 20
-669.5269304272456
 30
0.0
 40
10.50000000000001
100
AcDbArc
 50
0.0000000036086319
 51
46.80371844482355
  0
ARC
  5
5779
330
5758
100
AcDbEntity
  8
0
  6
Continuous
 62
     7
370
     0
100
AcDbCircle
 10
709.73755745223
 20
-662.6013064296276
 30
0.0
 40
0.9999999999999896
100
AcDbArc
 50
46.80371844482355
 51
177.1629028825587
  0
ARC
  5
577A
330
5758
100
AcDbEntity
  8
0
  6
Continuous
 62
     7
370
     0
100
AcDbCircle
 10
956.4348093993465
 20
-674.8269304112858
 30
0.0
 40
248.0000000000001
100
AcDbArc
 50
177.1629028825587
 51
183.0274111596394
  0
ARC
  5
577B
330
5758
100
AcDbEntity
  8
0
  6
Continuous
 62
     7
370
     0
100
AcDbCircle
 10
709.7795270043289
 20
-687.8719166755203
 30
0.0
 40
1.000000000000009
100
AcDbArc
 50
183.0274111596459
 51
308.756786706612
  0
ARC
  5
577C
330
5758
100
AcDbEntity
  8
0
  6
Continuous
 62
     7
370
     0
100
AcDbCircle
 10
713.0348094004244
 20
-691.9269304266278
 30
0.0
 40
4.19999999999999
100
AcDbArc
 50
48.20995686789524
 51
128.7567867066192
  0
ARC
  5
577D
330
5758
100
AcDbEntity
  8
0
  6
Continuous
 62
     7
370
     0
100
AcDbCircle
 10
715.1672987164916
 20
-689.5410366073519
 30
0.0
 40
0.9999999999999954
100
AcDbArc
 50
300.0000000036105
 51
48.20995686789524
  0
ARC
  5
577E
330
5758
100
AcDbEntity
  8
0
  6
Continuous
 62
     7
370
     0
100
AcDbCircle
 10
715.1672987164916
 20
-689.5410366073519
 30
0.0
 40
0.9999999999999699
100
AcDbArc
 50
228.2099568678952
 51
300.0000000036105
  0
ARC
  5
577F
330
5758
100
AcDbEntity
  8
0
  6
Continuous
 62
     7
370
     0
100
AcDbCircle
 10
713.0348094004244
 20
-691.9269304266278
 30
0.0
 40
2.199999999999986
100
AcDbArc
 50
48.20995686789524
 51
311.790043139329
  0
ARC
  5
5780
330
5758
100
AcDbEntity
  8
0
  6
Continuous
 62
     7
370
     0
100
AcDbCircle
 10
715.1672987167924
 20
-694.3128242456348
 30
0.0
 40
0.9999999999999883
100
AcDbArc
 50
60.00000000360933
 51
131.790043139329
  0
ARC
  5
5781
330
5758
100
AcDbEntity
  8
0
  6
Continuous
 62
     7
370
     0
100
AcDbCircle
 10
715.1672987167924
 20
-694.3128242456348
 30
0.0
 40
0.9999999999999961
100
AcDbArc
 50
311.7900431393221
 51
60.00000000360933
  0
ARC
  5
5782
330
5758
100
AcDbEntity
  8
0
  6
Continuous
 62
     7
370
     0
100
AcDbCircle
 10
713.0348094004244
 20
-691.9269304266278
 30
0.0
 40
4.200000000000013
100
AcDbArc
 50
239.280605640107
 51
311.790043139329
  0
ARC
  5
5783
330
5758
100
AcDbEntity
  8
0
  6
Continuous
 62
     7
370
     0
100
AcDbCircle
 10
710.3784728878427
 20
-696.3972633372649
 30
0.0
 40
0.9999999999999911
100
AcDbArc
 50
59.28060564010706
 51
185.0099811870734
  0
ARC
  5
5784
330
5758
100
AcDbEntity
  8
0
  6
Continuous
 62
     7
370
     0
100
AcDbCircle
 10
956.4348093993465
 20
-674.8269304112858
 30
0.0
 40
247.9999999999999
100
AcDbArc
 50
185.0099811870799
 51
187.5842439348671
  0
ARC
  5
5785
330
5758
100
AcDbEntity
  8
0
  6
Continuous
 62
     7
370
     0
100
AcDbCircle
 10
711.5955968556982
 20
-707.4269304267185
 30
0.0
 40
1.000000000000001
100
AcDbArc
 50
187.5842439348671
 51
270.0000000036086
  0
LINE
  5
5786
330
5758
100
AcDbEntity
  8
0
  6
Continuous
 62
     7
370
     0
100
AcDbLine
 10
715.9348094014645
 20
-708.426930426445
 30
0.0
 11
711.5955968557614
 21
-708.4269304267185
 31
0.0
  0
ARC
  5
5787
330
5758
100
AcDbEntity
  8
0
  6
Continuous
 62
     7
370
     0
100
AcDbCircle
 10
715.9348094014958
 20
-708.926930426445
 30
0.0
 40
0.5000000000000004
100
AcDbArc
 50
0.0000000036151457
 51
90.00000000360863
  0
ARC
  5
5788
330
5758
100
AcDbEntity
  8
0
  6
Continuous
 62
     7
370
     0
100
AcDbCircle
 10
715.9348094015274
 20
-709.426930426445
 30
0.0
 40
0.5000000000000004
100
AcDbArc
 50
270.0000000036086
 51
0.0000000036086319
  0
LINE
  5
5789
330
5758
100
AcDbEntity
  8
0
  6
Continuous
 62
     7
370
     0
100
AcDbLine
 10
712.0871267851692
 20
-709.9269304266875
 30
0.0
 11
715.934809401559
 21
-709.926930426445
 31
0.0
  0
ARC
  5
578A
330
5758
100
AcDbEntity
  8
0
  6
Continuous
 62
     7
370
     0
100
AcDbCircle
 10
712.0871267852322
 20
-710.9269304266875
 30
0.0
 40
0.999999999999992
100
AcDbArc
 50
90.00000000360863
 51
188.4041015744509
  0
ARC
  5
578B
330
5758
100
AcDbEntity
  8
0
  6
Continuous
 62
     7
370
     0
100
AcDbCircle
 10
956.4348093993465
 20
-674.8269304112858
 30
0.0
 40
248.0000000000001
100
AcDbArc
 50
188.4041015744509
 51
195.0412366785616
  0
ARC
  5
578C
330
5758
100
AcDbEntity
  8
0
  6
Continuous
 62
     7
370
     0
100
AcDbCircle
 10
717.8972023054703
 20
-738.9269304263213
 30
0.0
 40
1.000000000000001
100
AcDbArc
 50
195.0412366785553
 51
270.0000000036086
  0
LINE
  5
578D
330
5758
100
AcDbEntity
  8
0
  6
Continuous
 62
     7
370
     0
100
AcDbLine
 10
719.4348094034499
 20
-739.9269304262243
 30
0.0
 11
717.8972023055335
 21
-739.9269304263213
 31
0.0
  0
ARC
  5
578E
330
5758
100
AcDbEntity
  8
0
  6
Continuous
 62
     7
370
     0
100
AcDbCircle
 10
719.4348094034815
 20
-740.4269304262243
 30
0.0
 40
0.5000000000000004
100
AcDbArc
 50
0.0000000036151457
 51
90.00000000361514
  0
LINE
  5
578F
330
5758
100
AcDbEntity
  8
0
  6
Continuous
 62
     7
370
     0
100
AcDbLine
 10
719.9348094035445
 20
-741.4269304261928
 30
0.0
 11
719.9348094034815
 21
-740.4269304261928
 31
0.0
  0
ARC
  5
5790
330
5758
100
AcDbEntity
  8
0
  6
Continuous
 62
     7
370
     0
100
AcDbCircle
 10
719.4348094035445
 20
-741.4269304262243
 30
0.0
 40
0.5000000000000004
100
AcDbArc
 50
270.0000000036086
 51
0.0000000036086319
  0
LINE
  5
5791
330
5758
100
AcDbEntity
  8
0
  6
Continuous
 62
     7
370
     0
100
AcDbLine
 10
715.9879545686665
 20
-741.9269304264417
 30
0.0
 11
719.4348094035761
 21
-741.9269304262243
 31
0.0
  0
ARC
  5
5792
330
5758
100
AcDbEntity
  8
0
  6
Continuous
 62
     7
370
     0
100
AcDbCircle
 10
715.9879545686351
 20
-741.4269304264417
 30
0.0
 40
0.5000000000000168
100
AcDbArc
 50
195.4818952636828
 51
270.0000000036086
  0
ARC
  5
5793
330
5758
100
AcDbEntity
  8
0
  6
Continuous
 62
     7
370
     0
100
AcDbCircle
 10
956.4348093993465
 20
-674.8269304112858
 30
0.0
 40
250.0
100
AcDbArc
 50
172.5385138860311
 51
195.4818952636828
  0
ARC
  5
5794
330
5758
100
AcDbEntity
  8
0
  6
Continuous
 62
     7
370
     0
100
AcDbCircle
 10
709.0474815084249
 20
-642.4269304268792
 30
0.0
 40
0.5000000000000004
100
AcDbArc
 50
90.00000000360863
 51
172.5385138860182
  0
LINE
  5
5795
330
5758
100
AcDbEntity
  8
0
  6
Continuous
 62
     7
370
     0
100
AcDbLine
 10
710.626774540802
 20
-641.9269304267796
 30
0.0
 11
709.0474815083933
 21
-641.9269304268792
 31
0.0
  0
LINE
  5
5796
330
5758
100
AcDbEntity
  8
0
  6
Continuous
 62
     7
370
     0
100
AcDbLine
 10
720.6348093972729
 20
-641.9269304261487
 30
0.0
 11
710.626774540802
 21
-641.9269304267796
 31
0.0
  0
ARC
  5
5797
330
5758
100
AcDbEntity
  8
0
  6
Continuous
 62
     7
370
     0
100
AcDbCircle
 10
720.6348093973359
 20
-642.9269304261487
 30
0.0
 40
1.000000000000001
100
AcDbArc
 50
0.0000000036086319
 51
90.00000000360863
  0
LINE
  5
5798
330
5758
100
AcDbEntity
  8
0
  6
Continuous
 62
     7
370
     0
100
AcDbLine
 10
721.6348093973988
 20
-643.9269304260857
 30
0.0
 11
721.6348093973359
 21
-642.9269304260857
 31
0.0
  0
ARC
  5
5799
330
5758
100
AcDbEntity
  8
0
  6
Continuous
 62
     7
370
     0
100
AcDbCircle
 10
720.6348093973988
 20
-643.9269304261487
 30
0.0
 40
1.000000000000001
100
AcDbArc
 50
270.0000000036086
 51
0.0000000036086319
  0
LINE
  5
579A
330
5758
100
AcDbEntity
  8
0
  6
Continuous
 62
     7
370
     0
100
AcDbLine
 10
719.434809397462
 20
-644.9269304262244
 30
0.0
 11
720.6348093974618
 21
-644.9269304261488
 31
0.0
  0
ARC
  5
579B
330
5758
100
AcDbEntity
  8
0
  6
Continuous
 62
     7
370
     0
100
AcDbCircle
 10
719.4348093974304
 20
-644.4269304262244
 30
0.0
 40
0.5000000000000004
100
AcDbArc
 50
180.0000000036152
 51
270.0000000036151
  0
LINE
  5
579C
330
5758
100
AcDbEntity
  8
0
  6
Continuous
 62
     7
370
     0
100
AcDbLine
 10
718.9348093973988
 20
-643.9269304262559
 30
0.0
 11
718.9348093974304
 21
-644.4269304262559
 31
0.0
  0
LINE
  5
579D
330
5758
100
AcDbEntity
  8
0
  6
Continuous
 62
     7
370
     0
100
AcDbLine
 10
710.8088946408325
 20
-643.9269304267682
 30
0.0
 11
718.4348093990568
 21
-643.9269304262874
 31
0.0
  0
LINE
  5
579E
330
5758
100
AcDbEntity
  8
0
  6
Continuous
 62
     7
370
     0
100
AcDbLine
 10
718.4348093990568
 20
-643.9269304262874
 30
0.0
 11
718.9348093973988
 21
-643.9269304262559
 31
0.0
  0
ARC
  5
579F
330
5758
100
AcDbEntity
  8
0
  6
Continuous
 62
     7
370
     0
100
AcDbCircle
 10
710.8088946408641
 20
-644.4269304267682
 30
0.0
 40
0.5000000000000004
100
AcDbArc
 50
90.00000000360863
 51
172.9446409158001
  0
ARC
  5
57A0
330
5758
100
AcDbEntity
  8
0
  6
Continuous
 62
     7
370
     0
100
AcDbCircle
 10
956.4348093993465
 20
-674.8269304112858
 30
0.0
 40
248.0
100
AcDbArc
 50
172.9446409158001
 51
176.2612656412376
  0
ARC
  5
57A1
330
5758
100
AcDbEntity
  8
0
  6
Continuous
 62
     7
370
     0
100
AcDbCircle
 10
709.4615478889009
 20
-658.6882161225624
 30
0.0
 40
0.4999999999999765
100
AcDbArc
 50
176.2612656412376
 51
240.1230413481088
  0
ARC
  5
57A2
330
5758
100
AcDbEntity
  8
0
  6
Continuous
 62
     7
370
     0
100
AcDbCircle
 10
703.2348093990126
 20
-669.5269304272456
 30
0.0
 40
12.00000000000002
100
AcDbArc
 50
0.0000000036086319
 51
60.12304134810875
  0
ARC
  5
57A3
330
5758
100
AcDbEntity
  8
0
  6
Continuous
 62
     7
370
     0
100
AcDbCircle
 10
715.234809399044
 20
-670.0269304264892
 30
0.0
 40
0.5000000000000004
100
AcDbArc
 50
0.0000000036086319
 51
90.00000000360212
  0
ARC
  5
57A4
330
5758
100
AcDbEntity
  8
0
  6
Continuous
 62
     7
370
     0
100
AcDbCircle
 10
715.2348093990756
 20
-670.5269304264892
 30
0.0
 40
0.5000000000000282
100
AcDbArc
 50
270.0000000036086
 51
0.0000000036151457
  0
LINE
  5
57A5
330
5758
100
AcDbEntity
  8
0
  6
Continuous
 62
     7
370
     0
100
AcDbLine
 10
713.734809399107
 20
-671.0269304265837
 30
0.0
 11
715.234809399107
 21
-671.0269304264892
 31
0.0
  0
LINE
  5
57A6
330
5758
100
AcDbEntity
  8
0
  6
Continuous
 62
     7
370
     0
100
AcDbLine
 10
713.734809399107
 20
-671.0269304265837
 30
0.0
 11
713.7348093990126
 21
-669.5269304265837
 31
0.0
  0
LINE
  5
57A7
330
5758
100
AcDbEntity
  8
0
  6
Continuous
 62
     7
370
     0
100
AcDbLine
 10
732.4348093897381
 20
-711.8269304112881
 30
0.0
 11
732.4348093897381
 21
-712.826930401927
 31
0.0
  0
LINE
  5
57A8
330
5758
100
AcDbEntity
  8
0
  6
Continuous
 62
     7
370
     0
100
AcDbLine
 10
733.4348093897381
 20
-729.8269304112881
 30
0.0
 11
732.4348093897381
 21
-729.8269304112881
 31
0.0
  0
LINE
  5
57A9
330
5758
100
AcDbEntity
  8
0
  6
Continuous
 62
     7
370
     0
100
AcDbLine
 10
733.4348093897381
 20
-711.8269304112881
 30
0.0
 11
732.4348093897381
 21
-711.8269304112881
 31
0.0
  0
LINE
  5
57AA
330
5758
100
AcDbEntity
  8
0
  6
Continuous
 62
     7
370
     0
100
AcDbLine
 10
720.4348094374081
 20
-719.826930411286
 30
0.0
 11
720.4348094374081
 21
-715.826930411286
 31
0.0
  0
LINE
  5
57AB
330
5758
100
AcDbEntity
  8
0
  6
Continuous
 62
     7
370
     0
100
AcDbLine
 10
711.4348094374081
 20
-713.2846996955443
 30
0.0
 11
711.4348094374081
 21
-711.826930411286
 31
0.0
  0
LINE
  5
57AC
330
5758
100
AcDbEntity
  8
0
  6
Continuous
 62
     7
370
     0
100
AcDbLine
 10
720.4348094374081
 20
-715.826930411286
 30
0.0
 11
720.4348094374081
 21
-711.826930411286
 31
0.0
  0
LINE
  5
57AD
330
5758
100
AcDbEntity
  8
0
  6
Continuous
 62
     9
370
     0
100
AcDbLine
 10
721.9348094374081
 20
-718.826930411286
 30
0.0
 11
721.9348094374081
 21
-715.826930411286
 31
0.0
  0
LINE
  5
57AE
330
5758
100
AcDbEntity
  8
0
  6
Continuous
 62
     9
370
     0
100
AcDbLine
 10
721.9348094374081
 20
-715.826930411286
 30
0.0
 11
721.9348094374081
 21
-712.826930411286
 31
0.0
  0
LINE
  5
57AF
330
5758
100
AcDbEntity
  8
0
  6
Continuous
 62
     7
370
     0
100
AcDbLine
 10
735.1848094067434
 20
-655.826930411286
 30
0.0
 11
735.1848094067434
 21
-663.826930411286
 31
0.0
  0
LINE
  5
57B0
330
5758
100
AcDbEntity
  8
0
  6
Continuous
 62
     7
370
     0
100
AcDbLine
 10
721.0598094067434
 20
-655.826930411286
 30
0.0
 11
721.0598094067434
 21
-663.826930411286
 31
0.0
  0
LINE
  5
57B1
330
5758
100
AcDbEntity
  8
0
  6
Continuous
 62
     7
370
     0
100
AcDbLine
 10
720.4348094067434
 20
-657.0769304112858
 30
0.0
 11
720.4348094067434
 21
-662.5769304112858
 31
0.0
  0
ARC
  5
57B2
330
5758
100
AcDbEntity
  8
0
  6
Continuous
 62
     7
370
     0
100
AcDbCircle
 10
719.7348093990756
 20
-649.3269304112858
 30
0.0
 40
1.000000000000001
100
AcDbArc
 50
90.0
 51
180.0
  0
LINE
  5
57B3
330
5758
100
AcDbEntity
  8
0
  6
Continuous
 62
     7
370
     0
100
AcDbLine
 10
718.7348093990756
 20
-653.4269304112859
 30
0.0
 11
718.7348093990756
 21
-649.3269304112858
 31
0.0
  0
ARC
  5
57B4
330
5758
100
AcDbEntity
  8
0
  6
Continuous
 62
     7
370
     0
100
AcDbCircle
 10
718.2348093990756
 20
-653.4269304112859
 30
0.0
 40
0.5000000000000004
100
AcDbArc
 50
270.0
 51
0.0
  0
LINE
  5
57B5
330
5758
100
AcDbEntity
  8
0
  6
Continuous
 62
     7
370
     0
100
AcDbLine
 10
716.2348093990756
 20
-653.926930411286
 30
0.0
 11
718.2348093990756
 21
-653.926930411286
 31
0.0
  0
ARC
  5
57B6
330
5758
100
AcDbEntity
  8
0
  6
Continuous
 62
     7
370
     0
100
AcDbCircle
 10
716.2348093990756
 20
-653.4269304112859
 30
0.0
 40
0.5000000000000004
100
AcDbArc
 50
180.0
 51
270.0
  0
LINE
  5
57B7
330
5758
100
AcDbEntity
  8
0
  6
Continuous
 62
     7
370
     0
100
AcDbLine
 10
715.7348093990756
 20
-646.9168799049471
 30
0.0
 11
715.7348093990756
 21
-653.4269304112859
 31
0.0
  0
ARC
  5
57B8
330
5758
100
AcDbEntity
  8
0
  6
Continuous
 62
     7
370
     0
100
AcDbCircle
 10
716.7348093990756
 20
-646.9168799049471
 30
0.0
 40
1.000000000000016
100
AcDbArc
 50
135.0
 51
180.0
  0
LINE
  5
57B9
330
5758
100
AcDbEntity
  8
0
  6
Continuous
 62
     7
370
     0
100
AcDbLine
 10
718.2226773647196
 20
-644.01479837693
 30
0.0
 11
716.0277026178892
 21
-646.2097731237606
 31
0.0
  0
ARC
  5
57BA
330
5758
100
AcDbEntity
  8
0
  6
Continuous
 62
     7
370
     0
100
AcDbCircle
 10
718.4348093990757
 20
-644.2269304112859
 30
0.0
 40
0.299999999999967
100
AcDbArc
 50
0.0
 51
135.0
  0
LINE
  5
57BB
330
5758
100
AcDbEntity
  8
0
  6
Continuous
 62
     7
370
     0
100
AcDbLine
 10
718.7348093990756
 20
-645.3269304112858
 30
0.0
 11
718.7348093990756
 21
-644.2269304112859
 31
0.0
  0
ARC
  5
57BC
330
5758
100
AcDbEntity
  8
0
  6
Continuous
 62
     7
370
     0
100
AcDbCircle
 10
719.2348093990756
 20
-645.3269304112858
 30
0.0
 40
0.500000000000056
100
AcDbArc
 50
180.0
 51
270.0
  0
LINE
  5
57BD
330
5758
100
AcDbEntity
  8
0
  6
Continuous
 62
     7
370
     0
100
AcDbLine
 10
721.4348093990757
 20
-645.8269304112858
 30
0.0
 11
719.2348093990756
 21
-645.826930411286
 31
0.0
  0
ARC
  5
57BE
330
5758
100
AcDbEntity
  8
0
  6
Continuous
 62
     7
370
     0
100
AcDbCircle
 10
721.4348093990757
 20
-645.3269304112858
 30
0.0
 40
0.5000000000000004
100
AcDbArc
 50
270.0
 51
0.0
  0
LINE
  5
57BF
330
5758
100
AcDbEntity
  8
0
  6
Continuous
 62
     7
370
     0
100
AcDbLine
 10
721.9348093990757
 20
-642.8269304112858
 30
0.0
 11
721.9348093990757
 21
-645.3269304112858
 31
0.0
  0
ARC
  5
57C0
330
5758
100
AcDbEntity
  8
0
  6
Continuous
 62
     7
370
     0
100
AcDbCircle
 10
723.9348093990757
 20
-642.8269304112858
 30
0.0
 40
2.000000000000002
100
AcDbArc
 50
90.0
 51
180.0
  0
LINE
  5
57C1
330
5758
100
AcDbEntity
  8
0
  6
Continuous
 62
     7
370
     0
100
AcDbLine
 10
739.9348093990757
 20
-640.8269304112858
 30
0.0
 11
723.9348093990757
 21
-640.8269304112858
 31
0.0
  0
ARC
  5
57C2
330
5758
100
AcDbEntity
  8
0
  6
Continuous
 62
     7
370
     0
100
AcDbCircle
 10
739.9348093990757
 20
-642.8269304112858
 30
0.0
 40
2.000000000000002
100
AcDbArc
 50
0.0
 51
90.0
  0
LINE
  5
57C3
330
5758
100
AcDbEntity
  8
0
  6
Continuous
 62
     7
370
     0
100
AcDbLine
 10
741.9348093990757
 20
-644.8269304112858
 30
0.0
 11
741.9348093990757
 21
-642.8269304112858
 31
0.0
  0
ARC
  5
57C4
330
5758
100
AcDbEntity
  8
0
  6
Continuous
 62
     7
370
     0
100
AcDbCircle
 10
740.9348093990757
 20
-644.8269304112858
 30
0.0
 40
1.000000000000001
100
AcDbArc
 50
270.0
 51
0.0
  0
LINE
  5
57C5
330
5758
100
AcDbEntity
  8
0
  6
Continuous
 62
     7
370
     0
100
AcDbLine
 10
739.7348093990756
 20
-645.8269304112858
 30
0.0
 11
740.9348093990757
 21
-645.8269304112858
 31
0.0
  0
ARC
  5
57C6
330
5758
100
AcDbEntity
  8
0
  6
Continuous
 62
     7
370
     0
100
AcDbCircle
 10
739.7348093990756
 20
-645.5269304112859
 30
0.0
 40
0.3000000000000225
100
AcDbArc
 50
180.0
 51
270.0
  0
LINE
  5
57C7
330
5758
100
AcDbEntity
  8
0
  6
Continuous
 62
     7
370
     0
100
AcDbLine
 10
739.4348093990757
 20
-643.8269304112858
 30
0.0
 11
739.4348093990757
 21
-645.5269304112859
 31
0.0
  0
ARC
  5
57C8
330
5758
100
AcDbEntity
  8
0
  6
Continuous
 62
     7
370
     0
100
AcDbCircle
 10
738.9348093990757
 20
-643.8269304112858
 30
0.0
 40
0.5000000000000004
100
AcDbArc
 50
0.0
 51
90.0
  0
LINE
  5
57C9
330
5758
100
AcDbEntity
  8
0
  6
Continuous
 62
     7
370
     0
100
AcDbLine
 10
732.9348093990757
 20
-643.3269304112858
 30
0.0
 11
738.9348093990757
 21
-643.3269304112858
 31
0.0
  0
ARC
  5
57CA
330
5758
100
AcDbEntity
  8
0
  6
Continuous
 62
     7
370
     0
100
AcDbCircle
 10
732.9348093990757
 20
-643.8269304112858
 30
0.0
 40
0.5000000000000004
100
AcDbArc
 50
90.0
 51
180.0
  0
LINE
  5
57CB
330
5758
100
AcDbEntity
  8
0
  6
Continuous
 62
     7
370
     0
100
AcDbLine
 10
732.4348093990757
 20
-676.326930411286
 30
0.0
 11
732.4348093990757
 21
-643.8269304112858
 31
0.0
  0
ARC
  5
57CC
330
5758
100
AcDbEntity
  8
0
  6
Continuous
 62
     7
370
     0
100
AcDbCircle
 10
732.9348093990757
 20
-676.326930411286
 30
0.0
 40
0.5000000000000004
100
AcDbArc
 50
180.0
 51
270.0
  0
LINE
  5
57CD
330
5758
100
AcDbEntity
  8
0
  6
Continuous
 62
     7
370
     0
100
AcDbLine
 10
738.9348093990757
 20
-676.826930411286
 30
0.0
 11
732.9348093990757
 21
-676.826930411286
 31
0.0
  0
ARC
  5
57CE
330
5758
100
AcDbEntity
  8
0
  6
Continuous
 62
     7
370
     0
100
AcDbCircle
 10
738.9348093990757
 20
-676.326930411286
 30
0.0
 40
0.5000000000000004
100
AcDbArc
 50
270.0
 51
0.0
  0
LINE
  5
57CF
330
5758
100
AcDbEntity
  8
0
  6
Continuous
 62
     7
370
     0
100
AcDbLine
 10
739.4348093990757
 20
-674.6269304112859
 30
0.0
 11
739.4348093990757
 21
-676.326930411286
 31
0.0
  0
ARC
  5
57D0
330
5758
100
AcDbEntity
  8
0
  6
Continuous
 62
     7
370
     0
100
AcDbCircle
 10
739.7348093990756
 20
-674.6269304112859
 30
0.0
 40
0.3000000000000225
100
AcDbArc
 50
90.0
 51
180.0
  0
LINE
  5
57D1
330
5758
100
AcDbEntity
  8
0
  6
Continuous
 62
     7
370
     0
100
AcDbLine
 10
740.9348093990757
 20
-674.326930411286
 30
0.0
 11
739.7348093990756
 21
-674.326930411286
 31
0.0
  0
ARC
  5
57D2
330
5758
100
AcDbEntity
  8
0
  6
Continuous
 62
     7
370
     0
100
AcDbCircle
 10
740.9348093990757
 20
-675.326930411286
 30
0.0
 40
1.000000000000001
100
AcDbArc
 50
0.0
 51
90.0
  0
LINE
  5
57D3
330
5758
100
AcDbEntity
  8
0
  6
Continuous
 62
     7
370
     0
100
AcDbLine
 10
741.9348093990757
 20
-677.326930411286
 30
0.0
 11
741.9348093990757
 21
-675.326930411286
 31
0.0
  0
ARC
  5
57D4
330
5758
100
AcDbEntity
  8
0
  6
Continuous
 62
     7
370
     0
100
AcDbCircle
 10
739.9348093990757
 20
-677.326930411286
 30
0.0
 40
2.000000000000002
100
AcDbArc
 50
270.0
 51
0.0
  0
LINE
  5
57D5
330
5758
100
AcDbEntity
  8
0
  6
Continuous
 62
     7
370
     0
100
AcDbLine
 10
729.4348093990757
 20
-679.326930411286
 30
0.0
 11
739.9348093990757
 21
-679.326930411286
 31
0.0
  0
ARC
  5
57D6
330
5758
100
AcDbEntity
  8
0
  6
Continuous
 62
     7
370
     0
100
AcDbCircle
 10
729.4348093990757
 20
-681.326930411286
 30
0.0
 40
1.999999999999974
100
AcDbArc
 50
90.0
 51
180.0
  0
LINE
  5
57D7
330
5758
100
AcDbEntity
  8
0
  6
Continuous
 62
     7
370
     0
100
AcDbLine
 10
727.4348093990757
 20
-702.326930411286
 30
0.0
 11
727.4348093990757
 21
-681.326930411286
 31
0.0
  0
ARC
  5
57D8
330
5758
100
AcDbEntity
  8
0
  6
Continuous
 62
     7
370
     0
100
AcDbCircle
 10
728.4348093990757
 20
-702.326930411286
 30
0.0
 40
1.000000000000001
100
AcDbArc
 50
180.0
 51
270.0
  0
LINE
  5
57D9
330
5758
100
AcDbEntity
  8
0
  6
Continuous
 62
     7
370
     0
100
AcDbLine
 10
734.9348093990757
 20
-703.326930411286
 30
0.0
 11
728.4348093990757
 21
-703.326930411286
 31
0.0
  0
ARC
  5
57DA
330
5758
100
AcDbEntity
  8
0
  6
Continuous
 62
     7
370
     0
100
AcDbCircle
 10
734.9348093990757
 20
-704.326930411286
 30
0.0
 40
1.000000000000001
100
AcDbArc
 50
0.0
 51
90.0
  0
LINE
  5
57DB
330
5758
100
AcDbEntity
  8
0
  6
Continuous
 62
     7
370
     0
100
AcDbLine
 10
735.9348093990757
 20
-730.5269304112859
 30
0.0
 11
735.9348093990757
 21
-704.326930411286
 31
0.0
  0
ARC
  5
57DC
330
5758
100
AcDbEntity
  8
0
  6
Continuous
 62
     7
370
     0
100
AcDbCircle
 10
735.6348093990757
 20
-730.5269304112859
 30
0.0
 40
0.2999999999999947
100
AcDbArc
 50
270.0
 51
0.0
  0
LINE
  5
57DD
330
5758
100
AcDbEntity
  8
0
  6
Continuous
 62
     7
370
     0
100
AcDbLine
 10
733.7348093990756
 20
-730.826930411286
 30
0.0
 11
735.6348093990757
 21
-730.826930411286
 31
0.0
  0
ARC
  5
57DE
330
5758
100
AcDbEntity
  8
0
  6
Continuous
 62
     7
370
     0
100
AcDbCircle
 10
733.7348093990756
 20
-730.5269304112859
 30
0.0
 40
0.2999999999999947
100
AcDbArc
 50
180.0
 51
270.0
  0
LINE
  5
57DF
330
5758
100
AcDbEntity
  8
0
  6
Continuous
 62
     7
370
     0
100
AcDbLine
 10
733.4348093990757
 20
-706.326930411286
 30
0.0
 11
733.4348093990757
 21
-730.5269304112859
 31
0.0
  0
ARC
  5
57E0
330
5758
100
AcDbEntity
  8
0
  6
Continuous
 62
     7
370
     0
100
AcDbCircle
 10
732.9348093990757
 20
-706.326930411286
 30
0.0
 40
0.5000000000000004
100
AcDbArc
 50
0.0
 51
90.0
  0
LINE
  5
57E1
330
5758
100
AcDbEntity
  8
0
  6
Continuous
 62
     7
370
     0
100
AcDbLine
 10
719.4348093990757
 20
-705.826930411286
 30
0.0
 11
732.9348093990757
 21
-705.826930411286
 31
0.0
  0
ARC
  5
57E2
330
5758
100
AcDbEntity
  8
0
  6
Continuous
 62
     7
370
     0
100
AcDbCircle
 10
719.4348093990757
 20
-706.326930411286
 30
0.0
 40
0.5000000000000004
100
AcDbArc
 50
90.0
 51
180.0
  0
LINE
  5
57E3
330
5758
100
AcDbEntity
  8
0
  6
Continuous
 62
     7
370
     0
100
AcDbLine
 10
718.9348093990757
 20
-730.5269304112859
 30
0.0
 11
718.9348093990757
 21
-706.326930411286
 31
0.0
  0
ARC
  5
57E4
330
5758
100
AcDbEntity
  8
0
  6
Continuous
 62
     7
370
     0
100
AcDbCircle
 10
718.6348093990757
 20
-730.5269304112859
 30
0.0
 40
0.299999999999967
100
AcDbArc
 50
270.0
 51
0.0
  0
LINE
  5
57E5
330
5758
100
AcDbEntity
  8
0
  6
Continuous
 62
     7
370
     0
100
AcDbLine
 10
716.7348093990756
 20
-730.826930411286
 30
0.0
 11
718.6348093990757
 21
-730.826930411286
 31
0.0
  0
ARC
  5
57E6
330
5758
100
AcDbEntity
  8
0
  6
Continuous
 62
     7
370
     0
100
AcDbCircle
 10
716.7348093990756
 20
-730.5269304112859
 30
0.0
 40
0.2999999999999947
100
AcDbArc
 50
180.0
 51
270.0
  0
LINE
  5
57E7
330
5758
100
AcDbEntity
  8
0
  6
Continuous
 62
     7
370
     0
100
AcDbLine
 10
716.4348093990757
 20
-704.326930411286
 30
0.0
 11
716.4348093990757
 21
-730.5269304112859
 31
0.0
  0
ARC
  5
57E8
330
5758
100
AcDbEntity
  8
0
  6
Continuous
 62
     7
370
     0
100
AcDbCircle
 10
717.4348093990757
 20
-704.326930411286
 30
0.0
 40
1.000000000000001
100
AcDbArc
 50
90.0
 51
180.0
  0
LINE
  5
57E9
330
5758
100
AcDbEntity
  8
0
  6
Continuous
 62
     7
370
     0
100
AcDbLine
 10
723.9348093990757
 20
-703.326930411286
 30
0.0
 11
717.4348093990757
 21
-703.326930411286
 31
0.0
  0
ARC
  5
57EA
330
5758
100
AcDbEntity
  8
0
  6
Continuous
 62
     7
370
     0
100
AcDbCircle
 10
723.9348093990757
 20
-702.326930411286
 30
0.0
 40
1.000000000000001
100
AcDbArc
 50
270.0
 51
0.0
  0
LINE
  5
57EB
330
5758
100
AcDbEntity
  8
0
  6
Continuous
 62
     7
370
     0
100
AcDbLine
 10
724.9348093990757
 20
-675.7269304112858
 30
0.0
 11
724.9348093990757
 21
-702.326930411286
 31
0.0
  0
ARC
  5
57EC
330
5758
100
AcDbEntity
  8
0
  6
Continuous
 62
     7
370
     0
100
AcDbCircle
 10
722.9348093990757
 20
-675.7269304112858
 30
0.0
 40
2.000000000000002
100
AcDbArc
 50
0.0
 51
90.0
  0
LINE
  5
57ED
330
5758
100
AcDbEntity
  8
0
  6
Continuous
 62
     7
370
     0
100
AcDbLine
 10
719.2348093990756
 20
-673.7269304112858
 30
0.0
 11
722.9348093990757
 21
-673.7269304112858
 31
0.0
  0
ARC
  5
57EE
330
5758
100
AcDbEntity
  8
0
  6
Continuous
 62
     7
370
     0
100
AcDbCircle
 10
719.2348093990756
 20
-674.2269304112859
 30
0.0
 40
0.5000000000000004
100
AcDbArc
 50
90.0
 51
180.0
  0
LINE
  5
57EF
330
5758
100
AcDbEntity
  8
0
  6
Continuous
 62
     7
370
     0
100
AcDbLine
 10
718.7348093990756
 20
-675.4269304112859
 30
0.0
 11
718.7348093990756
 21
-674.2269304112859
 31
0.0
  0
ARC
  5
57F0
330
5758
100
AcDbEntity
  8
0
  6
Continuous
 62
     7
370
     0
100
AcDbCircle
 10
718.4348093990757
 20
-675.4269304112859
 30
0.0
 40
0.3000000000000028
100
AcDbArc
 50
224.9999999999908
 51
0.0
  0
LINE
  5
57F1
330
5758
100
AcDbEntity
  8
0
  6
Continuous
 62
     7
370
     0
100
AcDbLine
 10
716.0277026178892
 20
-673.4440876988112
 30
0.0
 11
718.2226773647196
 21
-675.6390624456418
 31
0.0
  0
ARC
  5
57F2
330
5758
100
AcDbEntity
  8
0
  6
Continuous
 62
     7
370
     0
100
AcDbCircle
 10
716.7348093990756
 20
-672.7369809176247
 30
0.0
 40
1.000000000000001
100
AcDbArc
 50
180.0
 51
225.0
  0
LINE
  5
57F3
330
5758
100
AcDbEntity
  8
0
  6
Continuous
 62
     7
370
     0
100
AcDbLine
 10
715.7348093990756
 20
-666.2269304112859
 30
0.0
 11
715.7348093990756
 21
-672.7369809176247
 31
0.0
  0
ARC
  5
57F4
330
5758
100
AcDbEntity
  8
0
  6
Continuous
 62
     7
370
     0
100
AcDbCircle
 10
716.2348093990756
 20
-666.2269304112859
 30
0.0
 40
0.5000000000000004
100
AcDbArc
 50
90.0
 51
180.0
  0
LINE
  5
57F5
330
5758
100
AcDbEntity
  8
0
  6
Continuous
 62
     7
370
     0
100
AcDbLine
 10
718.2348093990756
 20
-665.7269304112859
 30
0.0
 11
716.2348093990756
 21
-665.7269304112859
 31
0.0
  0
ARC
  5
57F6
330
5758
100
AcDbEntity
  8
0
  6
Continuous
 62
     7
370
     0
100
AcDbCircle
 10
718.2348093990756
 20
-666.2269304112859
 30
0.0
 40
0.5000000000000004
100
AcDbArc
 50
0.0
 51
90.0
  0
LINE
  5
57F7
330
5758
100
AcDbEntity
  8
0
  6
Continuous
 62
     7
370
     0
100
AcDbLine
 10
718.7348093990756
 20
-670.2269304112859
 30
0.0
 11
718.7348093990756
 21
-666.2269304112859
 31
0.0
  0
ARC
  5
57F8
330
5758
100
AcDbEntity
  8
0
  6
Continuous
 62
     7
370
     0
100
AcDbCircle
 10
719.7348093990756
 20
-670.2269304112859
 30
0.0
 40
1.000000000000001
100
AcDbArc
 50
180.0
 51
270.0
  0
LINE
  5
57F9
330
5758
100
AcDbEntity
  8
0
  6
Continuous
 62
     7
370
     0
100
AcDbLine
 10
722.9348093990757
 20
-671.2269304112859
 30
0.0
 11
719.7348093990756
 21
-671.2269304112859
 31
0.0
  0
ARC
  5
57FA
330
5758
100
AcDbEntity
  8
0
  6
Continuous
 62
     7
370
     0
100
AcDbCircle
 10
722.9348093990757
 20
-669.2269304112859
 30
0.0
 40
2.000000000000002
100
AcDbArc
 50
270.0
 51
0.0
  0
LINE
  5
57FB
330
5758
100
AcDbEntity
  8
0
  6
Continuous
 62
     7
370
     0
100
AcDbLine
 10
724.9348093990757
 20
-651.5266778795917
 30
0.0
 11
724.9348093990757
 21
-669.2269304112859
 31
0.0
  0
ARC
  5
57FC
330
5758
100
AcDbEntity
  8
0
  6
Continuous
 62
     7
370
     0
100
AcDbCircle
 10
724.4348093990757
 20
-651.5266778795917
 30
0.0
 40
0.4999999999999983
100
AcDbArc
 50
0.0
 51
45.0
  0
LINE
  5
57FD
330
5758
100
AcDbEntity
  8
0
  6
Continuous
 62
     7
370
     0
100
AcDbLine
 10
722.0886153213632
 20
-648.4733770206926
 30
0.0
 11
724.788362789669
 21
-651.1731244889984
 31
0.0
  0
ARC
  5
57FE
330
5758
100
AcDbEntity
  8
0
  6
Continuous
 62
     7
370
     0
100
AcDbCircle
 10
721.7350619307699
 20
-648.8269304112858
 30
0.0
 40
0.5000000000000004
100
AcDbArc
 50
45.0
 51
90.0
  0
LINE
  5
57FF
330
5758
100
AcDbEntity
  8
0
  6
Continuous
 62
     7
370
     0
100
AcDbLine
 10
719.7348093990756
 20
-648.3269304112858
 30
0.0
 11
721.7350619307699
 21
-648.3269304112858
 31
0.0
  0
LINE
  5
5800
330
5758
100
AcDbEntity
  8
0
  6
Continuous
 62
     7
370
     0
100
AcDbLine
 10
771.5348094217563
 20
-682.5769304090131
 30
0.0
 11
771.5348094217586
 21
-682.5269304090132
 31
0.0
  0
LINE
  5
5801
330
5758
100
AcDbEntity
  8
0
  6
Continuous
 62
     7
370
     0
100
AcDbLine
 10
771.5348094217586
 20
-682.5269304090132
 30
0.0
 11
773.2348094217587
 21
-682.5269304090896
 31
0.0
  0
LINE
  5
5802
330
5758
100
AcDbEntity
  8
0
  6
Continuous
 62
     7
370
     0
100
AcDbLine
 10
773.2348094217587
 20
-682.5269304090896
 30
0.0
 11
773.2348094219831
 21
-677.5269304090896
 31
0.0
  0
ARC
  5
5803
330
5758
100
AcDbEntity
  8
0
  6
Continuous
 62
     7
370
     0
100
AcDbCircle
 10
772.2348094219831
 20
-677.5269304090447
 30
0.0
 40
1.000000000000001
100
AcDbArc
 50
359.999999997427
 51
89.99999999742705
  0
LINE
  5
5804
330
5758
100
AcDbEntity
  8
0
  6
Continuous
 62
     7
370
     0
100
AcDbLine
 10
772.2348094220281
 20
-676.5269304090447
 30
0.0
 11
763.734809422028
 21
-676.526930408663
 31
0.0
  0
LINE
  5
5805
330
5758
100
AcDbEntity
  8
0
  6
Continuous
 62
     7
370
     0
100
AcDbLine
 10
763.734809422028
 20
-676.526930408663
 30
0.0
 11
763.7348094220729
 21
-675.526930408663
 31
0.0
  0
LINE
  5
5806
330
5758
100
AcDbEntity
  8
0
  6
Continuous
 62
     7
370
     0
100
AcDbLine
 10
763.7348094220729
 20
-675.526930408663
 30
0.0
 11
765.5348094196115
 21
-673.7269304112859
 31
0.0
  0
LINE
  5
5807
330
5758
100
AcDbEntity
  8
0
  6
Continuous
 62
     7
370
     0
100
AcDbLine
 10
767.3590734932473
 20
-675.2269304088258
 30
0.0
 11
772.2348094220863
 21
-675.2269304090446
 31
0.0
  0
ARC
  5
5808
330
5758
100
AcDbEntity
  8
0
  6
Continuous
 62
     7
370
     0
100
AcDbCircle
 10
772.2348094221313
 20
-674.2269304090446
 30
0.0
 40
1.000000000000001
100
AcDbArc
 50
269.9999999974269
 51
359.999999997427
  0
LINE
  5
5809
330
5758
100
AcDbEntity
  8
0
  6
Continuous
 62
     7
370
     0
100
AcDbLine
 10
773.2348094221313
 20
-674.2269304090895
 30
0.0
 11
773.2348094224008
 21
-668.2269304090895
 31
0.0
  0
LINE
  5
580A
330
5758
100
AcDbEntity
  8
0
  6
Continuous
 62
     7
370
     0
100
AcDbLine
 10
773.2348094224008
 20
-668.2269304090895
 30
0.0
 11
771.5348094224007
 21
-668.2269304090132
 31
0.0
  0
LINE
  5
580B
330
5758
100
AcDbEntity
  8
0
  6
Continuous
 62
     9
370
     0
100
AcDbLine
 10
772.9140530989989
 20
-664.1532952005734
 30
0.0
 11
775.7348094225836
 21
-664.1532952007001
 31
0.0
  0
LINE
  5
580C
330
5758
100
AcDbEntity
  8
0
  6
Continuous
 62
     7
370
     0
100
AcDbLine
 10
775.7348094225836
 20
-664.1532952007001
 30
0.0
 11
775.734809421634
 21
-685.3005656177035
 31
0.0
  0
LINE
  5
580D
330
5758
100
AcDbEntity
  8
0
  6
Continuous
 62
     9
370
     0
100
AcDbLine
 10
772.1886134608587
 20
-685.3005656175442
 30
0.0
 11
775.734809421634
 21
-685.3005656177035
 31
0.0
  0
ARC
  5
580E
330
5758
100
AcDbEntity
  8
0
  6
Continuous
 62
     7
370
     0
100
AcDbCircle
 10
777.5348094217563
 20
-682.5769304092826
 30
0.0
 40
6.0
100
AcDbArc
 50
179.9999999974271
 51
206.9967013299152
  0
ARC
  5
580F
330
5758
100
AcDbEntity
  8
0
  6
Continuous
 62
     7
370
     0
100
AcDbCircle
 10
777.5367516742797
 20
-682.5746345399317
 30
0.0
 40
6.002772908393887
100
AcDbArc
 50
207.0078118630961
 51
252.531286340525
  0
LINE
  5
5810
330
5758
100
AcDbEntity
  8
0
  6
Continuous
 62
     7
370
     0
100
AcDbLine
 10
775.7348094214994
 20
-688.3005656177035
 30
0.0
 11
775.734809421634
 21
-685.3005656177035
 31
0.0
  0
LINE
  5
5811
330
5758
100
AcDbEntity
  8
0
  6
Continuous
 62
     7
370
     0
100
AcDbLine
 10
775.7348094225836
 20
-664.1532952007001
 30
0.0
 11
775.7348094226961
 21
-661.648235787497
 31
0.0
  0
ARC
  5
5812
330
5758
100
AcDbEntity
  8
0
  6
Continuous
 62
     7
370
     0
100
AcDbCircle
 10
528.7348094217475
 20
-674.826930398381
 30
0.0
 40
248.0
100
AcDbArc
 50
3.738734359800103
 51
7.055359085243795
  0
ARC
  5
5813
330
5758
100
AcDbEntity
  8
0
  6
Continuous
 62
     7
370
     0
100
AcDbCircle
 10
774.3607241796788
 20
-644.4269304094098
 30
0.0
 40
0.5000000000000004
100
AcDbArc
 50
7.055359085243795
 51
89.99999999742705
  0
LINE
  5
5814
330
5758
100
AcDbEntity
  8
0
  6
Continuous
 62
     7
370
     0
100
AcDbLine
 10
774.3607241797012
 20
-643.9269304094098
 30
0.0
 11
766.7348094220886
 21
-643.9269304090673
 31
0.0
  0
LINE
  5
5815
330
5758
100
AcDbEntity
  8
0
  6
Continuous
 62
     7
370
     0
100
AcDbLine
 10
766.7348094220886
 20
-643.9269304090673
 30
0.0
 11
766.234809423135
 21
-643.9269304090449
 31
0.0
  0
LINE
  5
5816
330
5758
100
AcDbEntity
  8
0
  6
Continuous
 62
     7
370
     0
100
AcDbLine
 10
766.234809423135
 20
-643.9269304090449
 30
0.0
 11
766.2348094231124
 21
-644.4269304090449
 31
0.0
  0
ARC
  5
5817
330
5758
100
AcDbEntity
  8
0
  6
Continuous
 62
     7
370
     0
100
AcDbCircle
 10
765.7348094231124
 20
-644.4269304090225
 30
0.0
 40
0.5000000000000004
100
AcDbArc
 50
269.9999999974269
 51
359.999999997427
  0
LINE
  5
5818
330
5758
100
AcDbEntity
  8
0
  6
Continuous
 62
     7
370
     0
100
AcDbLine
 10
765.7348094230899
 20
-644.9269304090225
 30
0.0
 11
764.5348094230899
 21
-644.9269304089686
 31
0.0
  0
ARC
  5
5819
330
5758
100
AcDbEntity
  8
0
  6
Continuous
 62
     7
370
     0
100
AcDbCircle
 10
764.5348094231349
 20
-643.9269304089686
 30
0.0
 40
1.000000000000001
100
AcDbArc
 50
179.9999999974271
 51
269.9999999974269
  0
LINE
  5
581A
330
5758
100
AcDbEntity
  8
0
  6
Continuous
 62
     7
370
     0
100
AcDbLine
 10
763.5348094231349
 20
-643.9269304089237
 30
0.0
 11
763.5348094231797
 21
-642.9269304089237
 31
0.0
  0
ARC
  5
581B
330
5758
100
AcDbEntity
  8
0
  6
Continuous
 62
     7
370
     0
100
AcDbCircle
 10
764.5348094231797
 20
-642.9269304089686
 30
0.0
 40
1.000000000000001
100
AcDbArc
 50
89.99999999742705
 51
179.9999999974271
  0
LINE
  5
581C
330
5758
100
AcDbEntity
  8
0
  6
Continuous
 62
     7
370
     0
100
AcDbLine
 10
764.5348094232247
 20
-641.9269304089686
 30
0.0
 11
774.5428442796956
 21
-641.9269304094179
 31
0.0
  0
LINE
  5
581D
330
5758
100
AcDbEntity
  8
0
  6
Continuous
 62
     7
370
     0
100
AcDbLine
 10
774.5428442796956
 20
-641.9269304094179
 30
0.0
 11
776.1221373121041
 21
-641.9269304094888
 31
0.0
  0
ARC
  5
581E
330
5758
100
AcDbEntity
  8
0
  6
Continuous
 62
     7
370
     0
100
AcDbCircle
 10
776.1221373120818
 20
-642.4269304094888
 30
0.0
 40
0.5000000000000004
100
AcDbArc
 50
7.461486115020029
 51
89.99999999742705
  0
ARC
  5
581F
330
5758
100
AcDbEntity
  8
0
  6
Continuous
 62
     7
370
     0
100
AcDbCircle
 10
528.7348094217475
 20
-674.826930398381
 30
0.0
 40
250.0000000000001
100
AcDbArc
 50
344.5181047373507
 51
7.461486115012725
  0
ARC
  5
5820
330
5758
100
AcDbEntity
  8
0
  6
Continuous
 62
     7
370
     0
100
AcDbCircle
 10
769.1816642536664
 20
-741.4269304091772
 30
0.0
 40
0.5000000000000101
100
AcDbArc
 50
269.9999999974269
 51
344.5181047373507
  0
LINE
  5
5821
330
5758
100
AcDbEntity
  8
0
  6
Continuous
 62
     7
370
     0
100
AcDbLine
 10
769.1816642536439
 20
-741.9269304091772
 30
0.0
 11
765.7348094187346
 21
-741.9269304090224
 31
0.0
  0
ARC
  5
5822
330
5758
100
AcDbEntity
  8
0
  6
Continuous
 62
     7
370
     0
100
AcDbCircle
 10
765.7348094187571
 20
-741.4269304090224
 30
0.0
 40
0.5000000000000004
100
AcDbArc
 50
179.9999999974271
 51
269.9999999974269
  0
LINE
  5
5823
330
5758
100
AcDbEntity
  8
0
  6
Continuous
 62
     7
370
     0
100
AcDbLine
 10
765.2348094187571
 20
-741.426930409
 30
0.0
 11
765.234809418802
 21
-740.426930409
 31
0.0
  0
ARC
  5
5824
330
5758
100
AcDbEntity
  8
0
  6
Continuous
 62
     7
370
     0
100
AcDbCircle
 10
765.734809418802
 20
-740.4269304090224
 30
0.0
 40
0.5000000000000004
100
AcDbArc
 50
89.99999999742055
 51
179.9999999974271
  0
LINE
  5
5825
330
5758
100
AcDbEntity
  8
0
  6
Continuous
 62
     7
370
     0
100
AcDbLine
 10
765.7348094188244
 20
-739.9269304090224
 30
0.0
 11
767.272416516741
 21
-739.9269304090915
 31
0.0
  0
ARC
  5
5826
330
5758
100
AcDbEntity
  8
0
  6
Continuous
 62
     7
370
     0
100
AcDbCircle
 10
767.2724165167858
 20
-738.9269304090915
 30
0.0
 40
1.000000000000001
100
AcDbArc
 50
269.9999999974269
 51
344.9587633224764
  0
ARC
  5
5827
330
5758
100
AcDbEntity
  8
0
  6
Continuous
 62
     7
370
     0
100
AcDbCircle
 10
528.7348094217475
 20
-674.826930398381
 30
0.0
 40
248.0
100
AcDbArc
 50
344.9587633224764
 51
351.59589842659
  0
ARC
  5
5828
330
5758
100
AcDbEntity
  8
0
  6
Continuous
 62
     7
370
     0
100
AcDbCircle
 10
773.0824920365164
 20
-710.9269304093523
 30
0.0
 40
1.000000000000007
100
AcDbArc
 50
351.59589842659
 51
89.99999999742705
  0
LINE
  5
5829
330
5758
100
AcDbEntity
  8
0
  6
Continuous
 62
     7
370
     0
100
AcDbLine
 10
773.0824920365612
 20
-709.9269304093523
 30
0.0
 11
769.2348094201714
 21
-709.9269304091796
 31
0.0
  0
ARC
  5
582A
330
5758
100
AcDbEntity
  8
0
  6
Continuous
 62
     7
370
     0
100
AcDbCircle
 10
769.2348094201939
 20
-709.4269304091796
 30
0.0
 40
0.5000000000000004
100
AcDbArc
 50
179.9999999974271
 51
269.9999999974269
  0
LINE
  5
582B
330
5758
100
AcDbEntity
  8
0
  6
Continuous
 62
     7
370
     0
100
AcDbLine
 10
768.7348094201939
 20
-709.4269304091571
 30
0.0
 11
768.7348094202164
 21
-708.9269304091571
 31
0.0
  0
ARC
  5
582C
330
5758
100
AcDbEntity
  8
0
  6
Continuous
 62
     7
370
     0
100
AcDbCircle
 10
769.2348094202164
 20
-708.9269304091796
 30
0.0
 40
0.5000000000000004
100
AcDbArc
 50
89.99999999742705
 51
179.9999999974271
  0
LINE
  5
582D
330
5758
100
AcDbEntity
  8
0
  6
Continuous
 62
     7
370
     0
100
AcDbLine
 10
769.2348094202388
 20
-708.4269304091796
 30
0.0
 11
773.5740219659419
 21
-708.4269304093743
 31
0.0
  0
ARC
  5
582E
330
5758
100
AcDbEntity
  8
0
  6
Continuous
 62
     7
370
     0
100
AcDbCircle
 10
773.5740219659867
 20
-707.4269304093743
 30
0.0
 40
1.000000000000001
100
AcDbArc
 50
269.9999999974269
 51
352.4157560661646
  0
ARC
  5
582F
330
5758
100
AcDbEntity
  8
0
  6
Continuous
 62
     7
370
     0
100
AcDbCircle
 10
528.7348094217475
 20
-674.826930398381
 30
0.0
 40
248.0000000000001
100
AcDbArc
 50
352.4157560661711
 51
354.9900188139598
  0
ARC
  5
5830
330
5758
100
AcDbEntity
  8
0
  6
Continuous
 62
     7
370
     0
100
AcDbCircle
 10
774.7911459336424
 20
-696.3972633198987
 30
0.0
 40
1.00000000000002
100
AcDbArc
 50
354.9900188139598
 51
120.7193943609313
  0
ARC
  5
5831
330
5758
100
AcDbEntity
  8
0
  6
Continuous
 62
     7
370
     0
100
AcDbCircle
 10
772.1348094209795
 20
-691.9269304093098
 30
0.0
 40
4.200000000000017
100
AcDbArc
 50
228.209956861709
 51
300.7193943609313
  0
ARC
  5
5832
330
5758
100
AcDbEntity
  8
0
  6
Continuous
 62
     7
370
     0
100
AcDbCircle
 10
770.0023201046549
 20
-694.3128242283556
 30
0.0
 40
1.000000000000009
100
AcDbArc
 50
119.999999997428
 51
228.209956861709
  0
ARC
  5
5833
330
5758
100
AcDbEntity
  8
0
  6
Continuous
 62
     7
370
     0
100
AcDbCircle
 10
770.0023201046549
 20
-694.3128242283556
 30
0.0
 40
1.000000000000007
100
AcDbArc
 50
48.20995686170902
 51
119.999999997428
  0
ARC
  5
5834
330
5758
100
AcDbEntity
  8
0
  6
Continuous
 62
     7
370
     0
100
AcDbCircle
 10
772.1348094209795
 20
-691.9269304093098
 30
0.0
 40
2.200000000000003
100
AcDbArc
 50
228.209956861709
 51
131.7900431331429
  0
ARC
  5
5835
330
5758
100
AcDbEntity
  8
0
  6
Continuous
 62
     7
370
     0
100
AcDbCircle
 10
770.0023201048691
 20
-689.5410365900725
 30
0.0
 40
0.999999999999994
100
AcDbArc
 50
239.9999999974286
 51
311.7900431331428
  0
ARC
  5
5836
330
5758
100
AcDbEntity
  8
0
  6
Continuous
 62
     7
370
     0
100
AcDbCircle
 10
770.0023201048691
 20
-689.5410365900725
 30
0.0
 40
1.000000000000001
100
AcDbArc
 50
131.7900431331429
 51
239.9999999974286
  0
ARC
  5
5837
330
5758
100
AcDbEntity
  8
0
  6
Continuous
 62
     7
370
     0
100
AcDbCircle
 10
772.1348094209795
 20
-691.9269304093098
 30
0.0
 40
4.199999999999984
100
AcDbArc
 50
51.24321329442358
 51
131.7900431331429
  0
ARC
  5
5838
330
5758
100
AcDbEntity
  8
0
  6
Continuous
 62
     7
370
     0
100
AcDbCircle
 10
775.3900918170016
 20
-687.8719166581433
 30
0.0
 40
0.9999999999999996
100
AcDbArc
 50
231.2432132944236
 51
356.9725888413914
  0
ARC
  5
5839
330
5758
100
AcDbEntity
  8
0
  6
Continuous
 62
     7
370
     0
100
AcDbCircle
 10
528.7348094217475
 20
-674.826930398381
 30
0.0
 40
248.0000000000001
100
AcDbArc
 50
356.9725888413979
 51
2.837097118478289
  0
LINE
  5
583A
330
5758
100
AcDbEntity
  8
0
  6
Continuous
 62
     7
370
     0
100
AcDbLine
 10
769.4348094219629
 20
-670.0269304091886
 30
0.0
 11
769.4348094219404
 21
-670.5269304091886
 31
0.0
  0
ARC
  5
583B
330
5758
100
AcDbEntity
  8
0
  6
Continuous
 62
     7
370
     0
100
AcDbCircle
 10
781.9348094219854
 20
-669.5269304097499
 30
0.0
 40
12.00000000000001
100
AcDbArc
 50
119.876958652927
 51
179.9999999974271
  0
ARC
  5
583C
330
5758
100
AcDbEntity
  8
0
  6
Continuous
 62
     7
370
     0
100
AcDbCircle
 10
775.7080709319005
 20
-658.6882161051795
 30
0.0
 40
0.4999999999999988
100
AcDbArc
 50
299.876958652927
 51
3.738734359800103
  0
LINE
  5
583D
330
5758
100
AcDbEntity
  8
0
  6
Continuous
 62
     7
370
     0
100
AcDbLine
 10
771.4348094219181
 20
-671.0269304092783
 30
0.0
 11
771.4348094219854
 21
-669.5269304092784
 31
0.0
  0
ARC
  5
583E
330
5758
100
AcDbEntity
  8
0
  6
Continuous
 62
     7
370
     0
100
AcDbCircle
 10
769.9348094219405
 20
-670.5269304092111
 30
0.0
 40
0.5000000000000004
100
AcDbArc
 50
179.9999999974271
 51
269.9999999974269
  0
LINE
  5
583F
330
5758
100
AcDbEntity
  8
0
  6
Continuous
 62
     7
370
     0
100
AcDbLine
 10
771.4348094219181
 20
-671.0269304092783
 30
0.0
 11
769.9348094219181
 21
-671.0269304092111
 31
0.0
  0
ARC
  5
5840
330
5758
100
AcDbEntity
  8
0
  6
Continuous
 62
     7
370
     0
100
AcDbCircle
 10
775.4320613686423
 20
-662.6013064122498
 30
0.0
 40
0.9999999999999692
100
AcDbArc
 50
2.837097118478289
 51
133.1962815562133
  0
ARC
  5
5841
330
5758
100
AcDbEntity
  8
0
  6
Continuous
 62
     7
370
     0
100
AcDbCircle
 10
781.9348094219854
 20
-669.5269304097499
 30
0.0
 40
10.50000000000001
100
AcDbArc
 50
133.1962815562133
 51
179.9999999974271
  0
ARC
  5
5842
330
5758
100
AcDbEntity
  8
0
  6
Continuous
 62
     7
370
     0
100
AcDbCircle
 10
769.9348094219629
 20
-670.0269304092111
 30
0.0
 40
0.5000000000000004
100
AcDbArc
 50
89.99999999743358
 51
179.9999999974271
  0
LINE
  5
5843
330
5758
100
AcDbEntity
  8
0
  6
Continuous
 62
     7
370
     0
100
AcDbLine
 10
767.3590734932471
 20
-675.2269304088259
 30
0.0
 11
766.9469414564311
 21
-675.6390624456419
 31
0.0
  0
ARC
  5
5844
330
5758
100
AcDbEntity
  8
0
  6
Continuous
 62
     7
370
     0
100
AcDbCircle
 10
766.7348094220752
 20
-675.426930411286
 30
0.0
 40
0.299999999999967
100
AcDbArc
 50
270.0
 51
315.0
  0
ARC
  5
5845
330
5758
100
AcDbEntity
  8
0
  6
Continuous
 62
     7
370
     0
100
AcDbCircle
 10
766.7348094220752
 20
-675.426930411286
 30
0.0
 40
0.2999999999999947
100
AcDbArc
 50
180.0
 51
270.0
  0
LINE
  5
5846
330
5758
100
AcDbEntity
  8
0
  6
Continuous
 62
     7
370
     0
100
AcDbLine
 10
766.4348094220752
 20
-674.026930411286
 30
0.0
 11
766.4348094220752
 21
-675.426930411286
 31
0.0
  0
ARC
  5
5847
330
5758
100
AcDbEntity
  8
0
  6
Continuous
 62
     7
370
     0
100
AcDbCircle
 10
766.1348094220751
 20
-674.026930411286
 30
0.0
 40
0.3000000000000225
100
AcDbArc
 50
0.0
 51
90.0
  0
LINE
  5
5848
330
5758
100
AcDbEntity
  8
0
  6
Continuous
 62
     7
370
     0
100
AcDbLine
 10
765.5348094196115
 20
-673.7269304112859
 30
0.0
 11
766.1348094220751
 21
-673.7269304112859
 31
0.0
  0
LINE
  5
5849
330
5758
100
AcDbEntity
  8
0
  6
Continuous
 62
     7
370
     0
100
AcDbLine
 10
769.4348094220752
 20
-670.5269304092111
 30
0.0
 11
769.4348094220752
 21
-670.0269304092111
 31
0.0
  0
LINE
  5
584A
330
5758
100
AcDbEntity
  8
0
  6
Continuous
 62
     9
370
     0
100
AcDbLine
 10
712.4371467568533
 20
-719.201930411286
 30
0.0
 11
716.4348093990757
 21
-719.201930411286
 31
0.0
  0
LINE
  5
584B
330
5758
100
AcDbEntity
  8
0
  6
Continuous
 62
     9
370
     0
100
AcDbLine
 10
718.9348294373553
 20
-719.201930411286
 30
0.0
 11
720.4348094374081
 21
-719.201930411286
 31
0.0
  0
LINE
  5
584C
330
5758
100
AcDbEntity
  8
0
  6
Continuous
 62
     9
370
     0
100
AcDbLine
 10
720.4348094374081
 20
-712.451930411286
 30
0.0
 11
718.9348294373553
 21
-712.451930411286
 31
0.0
  0
LINE
  5
584D
330
5758
100
AcDbEntity
  8
0
  6
Continuous
 62
     9
370
     0
100
AcDbLine
 10
716.4348093990757
 20
-712.451930411286
 30
0.0
 11
711.4348094374081
 21
-712.451930411286
 31
0.0
  0
LINE
  5
584E
330
5758
100
AcDbEntity
  8
0
  6
Continuous
 62
     9
370
     0
100
AcDbLine
 10
735.8098094067434
 20
-656.4519304112858
 30
0.0
 11
732.4348093990757
 21
-656.4519304112858
 31
0.0
  0
LINE
  5
584F
330
5758
100
AcDbEntity
  8
0
  6
Continuous
 62
     9
370
     0
100
AcDbLine
 10
724.9348093990757
 20
-656.4519304112858
 30
0.0
 11
720.7473094067434
 21
-656.4519304112858
 31
0.0
  0
LINE
  5
5850
330
5758
100
AcDbEntity
  8
0
  6
Continuous
 62
     9
370
     0
100
AcDbLine
 10
720.7473094067434
 20
-663.201930411286
 30
0.0
 11
724.9348093990757
 21
-663.201930411286
 31
0.0
  0
LINE
  5
5851
330
5758
100
AcDbEntity
  8
0
  6
Continuous
 62
     9
370
     0
100
AcDbLine
 10
732.4348093990757
 20
-663.201930411286
 30
0.0
 11
735.8098094067434
 21
-663.201930411286
 31
0.0
  0
LINE
  5
5852
330
5758
100
AcDbEntity
  8
0
  6
Continuous
 62
     7
370
     0
100
AcDbLine
 10
712.5516406484055
 20
-719.826930411286
 30
0.0
 11
716.4347900744629
 21
-719.826930411286
 31
0.0
  0
LINE
  5
5853
330
5758
100
AcDbEntity
  8
0
  6
Continuous
 62
     7
370
     0
100
AcDbLine
 10
718.9348288003007
 20
-719.826930411286
 30
0.0
 11
720.4348094374081
 21
-719.826930411286
 31
0.0
  0
LINE
  5
5854
330
5758
100
AcDbEntity
  8
0
  6
Continuous
 62
     7
370
     0
100
AcDbLine
 10
720.4348094374081
 20
-711.826930411286
 30
0.0
 11
718.9348288003007
 21
-711.826930411286
 31
0.0
  0
LINE
  5
5855
330
5758
100
AcDbEntity
  8
0
  6
Continuous
 62
     7
370
     0
100
AcDbLine
 10
716.4347900744629
 20
-711.826930411286
 30
0.0
 11
711.4348094374081
 21
-711.826930411286
 31
0.0
  0
ARC
  5
5856
330
5758
100
AcDbEntity
  8
0
  6
Continuous
 62
     7
370
     0
100
AcDbCircle
 10
721.9348094374081
 20
-718.326930411286
 30
0.0
 40
0.5000000000000004
100
AcDbArc
 50
270.0
 51
0.0
  0
ARC
  5
5857
330
5758
100
AcDbEntity
  8
0
  6
Continuous
 62
     7
370
     0
100
AcDbCircle
 10
721.9348094374081
 20
-713.326930411286
 30
0.0
 40
0.5000000000000004
100
AcDbArc
 50
0.0
 51
90.0
  0
LINE
  5
5858
330
5758
100
AcDbEntity
  8
0
  6
Continuous
 62
     7
370
     0
100
AcDbLine
 10
721.9348094374081
 20
-712.826930411286
 30
0.0
 11
720.4348094374081
 21
-712.826930411286
 31
0.0
  0
LINE
  5
5859
330
5758
100
AcDbEntity
  8
0
  6
Continuous
 62
     7
370
     0
100
AcDbLine
 10
720.4348094374081
 20
-718.826930411286
 30
0.0
 11
721.9348094374081
 21
-718.826930411286
 31
0.0
  0
LINE
  5
585A
330
5758
100
AcDbEntity
  8
0
  6
Continuous
 62
     7
370
     0
100
AcDbLine
 10
735.1848094067434
 20
-663.826930411286
 30
0.0
 11
735.8098094067434
 21
-663.201930411286
 31
0.0
  0
LINE
  5
585B
330
5758
100
AcDbEntity
  8
0
  6
Continuous
 62
     7
370
     0
100
AcDbLine
 10
735.8098094067434
 20
-663.201930411286
 30
0.0
 11
736.4348094067434
 21
-662.5769304112858
 31
0.0
  0
LINE
  5
585C
330
5758
100
AcDbEntity
  8
0
  6
Continuous
 62
     7
370
     0
100
AcDbLine
 10
736.4348094067434
 20
-657.0769304112858
 30
0.0
 11
735.8098094067434
 21
-656.4519304112858
 31
0.0
  0
LINE
  5
585D
330
5758
100
AcDbEntity
  8
0
  6
Continuous
 62
     7
370
     0
100
AcDbLine
 10
735.8098094067434
 20
-656.4519304112858
 30
0.0
 11
735.1848094067434
 21
-655.826930411286
 31
0.0
  0
LINE
  5
585E
330
5758
100
AcDbEntity
  8
0
  6
Continuous
 62
     7
370
     0
100
AcDbLine
 10
735.1848094067434
 20
-655.826930411286
 30
0.0
 11
732.4348287696876
 21
-655.826930411286
 31
0.0
  0
LINE
  5
585F
330
5758
100
AcDbEntity
  8
0
  6
Continuous
 62
     7
370
     0
100
AcDbLine
 10
724.934790043797
 20
-655.826930411286
 30
0.0
 11
721.0598094067434
 21
-655.826930411286
 31
0.0
  0
LINE
  5
5860
330
5758
100
AcDbEntity
  8
0
  6
Continuous
 62
     7
370
     0
100
AcDbLine
 10
721.0598094067434
 20
-663.826930411286
 30
0.0
 11
724.934790043797
 21
-663.826930411286
 31
0.0
  0
LINE
  5
5861
330
5758
100
AcDbEntity
  8
0
  6
Continuous
 62
     7
370
     0
100
AcDbLine
 10
732.4348287696876
 20
-663.826930411286
 30
0.0
 11
735.1848094067434
 21
-663.826930411286
 31
0.0
  0
LINE
  5
5862
330
5758
100
AcDbEntity
  8
0
  6
Continuous
 62
     7
370
     0
100
AcDbLine
 10
721.0598094067434
 20
-655.826930411286
 30
0.0
 11
720.7473094067434
 21
-656.4519304112858
 31
0.0
  0
LINE
  5
5863
330
5758
100
AcDbEntity
  8
0
  6
Continuous
 62
     7
370
     0
100
AcDbLine
 10
720.7473094067434
 20
-656.4519304112858
 30
0.0
 11
720.4348094067434
 21
-657.0769304112858
 31
0.0
  0
LINE
  5
5864
330
5758
100
AcDbEntity
  8
0
  6
Continuous
 62
     7
370
     0
100
AcDbLine
 10
720.4348094067434
 20
-662.5769304112858
 30
0.0
 11
720.7473094067434
 21
-663.201930411286
 31
0.0
  0
LINE
  5
5865
330
5758
100
AcDbEntity
  8
0
  6
Continuous
 62
     7
370
     0
100
AcDbLine
 10
720.7473094067434
 20
-663.201930411286
 30
0.0
 11
721.0598094067434
 21
-663.826930411286
 31
0.0
  0
LINE
  5
5866
330
5758
100
AcDbEntity
  8
0
  6
CENTER
 62
     1
370
     0
100
AcDbLine
 10
719.0598094067434
 20
-659.826930411286
 30
0.0
 11
741.4348094220752
 21
-659.826930411286
 31
0.0
  0
LINE
  5
5867
330
5758
100
AcDbEntity
  8
0
  6
CENTER
 62
     1
370
     0
100
AcDbLine
 10
709.4348094067423
 20
-715.826930411286
 30
0.0
 11
723.9348094067423
 21
-715.826930411286
 31
0.0
  0
ENDBLK
  5
575A
330
5758
100
AcDbEntity
  8
0
 62
     6
370
     0
100
AcDbBlockEnd
  0
BLOCK
  5
837D
330
837C
100
AcDbEntity
  8
0
100
AcDbBlockBegin
  2
D_FRAME_VIEW@806
 70
     0
 10
0.0
 20
0.0
 30
0.0
  3
D_FRAME_VIEW@806
  1

  0
LINE
  5
837E
330
837C
100
AcDbEntity
  8
0
  6
________________
 62
     7
370
     9
100
AcDbLine
 10
178.5500000001651
 20
199.0000000000013
 30
0.0
 11
178.5500000001651
 21
213.9999999999987
 31
0.0
  0
LINE
  5
837F
330
837C
100
AcDbEntity
  8
0
  6
________________
 62
     7
370
     9
100
AcDbLine
 10
142.5500000001653
 20
199.0000000000013
 30
0.0
 11
178.5500000001651
 21
199.0000000000013
 31
0.0
  0
LINE
  5
8380
330
837C
100
AcDbEntity
  8
0
  6
________________
 62
     7
370
     9
100
AcDbLine
 10
142.5500000001653
 20
213.9999999999987
 30
0.0
 11
142.5500000001653
 21
199.0000000000013
 31
0.0
  0
ENDBLK
  5
8381
330
837C
100
AcDbEntity
  8
0
100
AcDbBlockEnd
  0
BLOCK
  5
839A
330
8399
100
AcDbEntity
  8
0
100
AcDbBlockBegin
  2
D_FRAME_VIEW@410
 70
     0
 10
0.0
 20
0.0
 30
0.0
  3
D_FRAME_VIEW@410
  1

  0
ARC
  5
839B
330
8399
100
AcDbEntity
  8
0
  6
________________
 62
     7
370
     9
100
AcDbCircle
 10
-86.62150000000626
 20
177.9270000000153
 30
0.0
 40
0.1900000000000096
210
0.0
220
0.0
230
-1.0
100
AcDbArc
 50
180.000000003699
 51
270.0000000036958
  0
LINE
  5
839C
330
8399
100
AcDbEntity
  8
0
  6
________________
 62
     7
370
     9
100
AcDbLine
 10
86.81150000119501
 20
196.3570000000031
 30
0.0
 11
86.81150000117663
 21
196.072
 31
0.0
  0
LINE
  5
839D
330
8399
100
AcDbEntity
  8
0
  6
________________
 62
     7
370
     9
100
AcDbLine
 10
86.81150000117663
 20
196.072
 30
0.0
 11
86.81150000002467
 21
178.212
 31
0.0
  0
LINE
  5
839E
330
8399
100
AcDbEntity
  8
0
  6
________________
 62
     7
370
     9
100
AcDbLine
 10
86.81150000002467
 20
178.212
 30
0.0
 11
86.81150000000628
 21
177.9270000000031
 31
0.0
  0
ARC
  5
839F
330
8399
100
AcDbEntity
  8
0
  6
________________
 62
     7
370
     9
100
AcDbCircle
 10
-86.62150000119502
 20
196.3570000000153
 30
0.0
 40
0.1899999999999957
210
0.0
220
0.0
230
-1.0
100
AcDbArc
 50
90.00000000369502
 51
180.0000000036958
  0
LINE
  5
83A0
330
8399
100
AcDbEntity
  8
0
  6
________________
 62
     7
370
     9
100
AcDbLine
 10
87.19150000000627
 20
177.9269999999786
 30
0.0
 11
87.19150000119502
 21
196.3569999999786
 31
0.0
  0
LINE
  5
83A1
330
8399
100
AcDbEntity
  8
0
  6
________________
 62
     7
370
     9
100
AcDbLine
 10
83.77149999999402
 20
177.7370000001991
 30
0.0
 11
86.621499999994
 21
177.7370000000153
 31
0.0
  0
LINE
  5
83A2
330
8399
100
AcDbEntity
  8
0
  6
________________
 62
     7
370
     9
100
AcDbLine
 10
86.62150000123178
 20
196.9270000000153
 30
0.0
 11
83.77150000123179
 21
196.9270000001992
 31
0.0
  0
ARC
  5
83A3
330
8399
100
AcDbEntity
  8
0
  6
________________
 62
     7
370
     9
100
AcDbCircle
 10
86.62150000000626
 20
177.9270000000153
 30
0.0
 40
0.5699999999999872
100
AcDbArc
 50
269.9999999963045
 51
359.9999999963046
  0
LINE
  5
83A4
330
8399
100
AcDbEntity
  8
0
  6
________________
 62
     7
370
     9
100
AcDbLine
 10
83.77149999996949
 20
177.3570000001992
 30
0.0
 11
83.77149999999402
 21
177.7370000001991
 31
0.0
  0
ARC
  5
83A5
330
8399
100
AcDbEntity
  8
0
  6
________________
 62
     7
370
     9
100
AcDbCircle
 10
86.62150000119502
 20
196.3570000000153
 30
0.0
 40
0.5700000000000011
100
AcDbArc
 50
359.9999999963043
 51
89.9999999963045
  0
LINE
  5
83A6
330
8399
100
AcDbEntity
  8
0
  6
________________
 62
     7
370
     9
100
AcDbLine
 10
83.77149999996949
 20
177.3570000001992
 30
0.0
 11
86.6214999999695
 21
177.3570000000153
 31
0.0
  0
LINE
  5
83A7
330
8399
100
AcDbEntity
  8
0
  6
________________
 62
     7
370
     9
100
AcDbLine
 10
83.77150000120727
 20
196.5470000001992
 30
0.0
 11
86.62150000120727
 21
196.5470000000153
 31
0.0
  0
LINE
  5
83A8
330
8399
100
AcDbEntity
  8
0
  6
________________
 62
     7
370
     9
100
AcDbLine
 10
83.77150000123179
 20
196.9270000001992
 30
0.0
 11
83.77150000120727
 21
196.5470000001992
 31
0.0
  0
LINE
  5
83A9
330
8399
100
AcDbEntity
  8
0
  6
________________
 62
     7
370
     9
100
AcDbLine
 10
74.91750000827028
 20
132.65
 30
0.0
 11
74.91750000827028
 21
138.73
 31
0.0
  0
LINE
  5
83AA
330
8399
100
AcDbEntity
  8
0
  6
________________
 62
     7
370
     9
100
AcDbLine
 10
79.09750000827029
 20
132.65
 30
0.0
 11
74.91750000827028
 21
132.65
 31
0.0
  0
LINE
  5
83AB
330
8399
100
AcDbEntity
  8
0
  6
________________
 62
     7
370
     9
100
AcDbLine
 10
79.09750000827029
 20
138.73
 30
0.0
 11
79.09750000827029
 21
132.65
 31
0.0
  0
LINE
  5
83AC
330
8399
100
AcDbEntity
  8
0
  6
________________
 62
     7
370
     9
100
AcDbLine
 10
74.02450000827028
 20
131.89
 30
0.0
 11
79.99050000827027
 21
131.89
 31
0.0
  0
LINE
  5
83AD
330
8399
100
AcDbEntity
  8
0
  6
________________
 62
     7
370
     9
100
AcDbLine
 10
74.02450000827028
 20
138.73
 30
0.0
 11
74.02450000827028
 21
131.89
 31
0.0
  0
LINE
  5
83AE
330
8399
100
AcDbEntity
  8
0
  6
________________
 62
     7
370
     9
100
AcDbLine
 10
74.91750000827028
 20
138.73
 30
0.0
 11
74.02450000827028
 21
138.73
 31
0.0
  0
LINE
  5
83AF
330
8399
100
AcDbEntity
  8
0
  6
________________
 62
     7
370
     9
100
AcDbLine
 10
79.99050000827027
 20
138.73
 30
0.0
 11
79.09750000827029
 21
138.73
 31
0.0
  0
LINE
  5
83B0
330
8399
100
AcDbEntity
  8
0
  6
________________
 62
     7
370
     9
100
AcDbLine
 10
79.99050000827027
 20
131.89
 30
0.0
 11
79.99050000827027
 21
138.73
 31
0.0
  0
LINE
  5
83B1
330
8399
100
AcDbEntity
  8
0
  6
________________
 62
     7
370
     9
100
AcDbLine
 10
73.96750000827028
 20
131.89
 30
0.0
 11
73.96750000827028
 21
138.73
 31
0.0
  0
LINE
  5
83B2
330
8399
100
AcDbEntity
  8
0
  6
________________
 62
     7
370
     9
100
AcDbLine
 10
80.04750000827028
 20
131.89
 30
0.0
 11
79.99050000827027
 21
131.89
 31
0.0
  0
LINE
  5
83B3
330
8399
100
AcDbEntity
  8
0
  6
________________
 62
     7
370
     9
100
AcDbLine
 10
79.99050000827027
 20
131.89
 30
0.0
 11
74.02450000827028
 21
131.89
 31
0.0
  0
LINE
  5
83B4
330
8399
100
AcDbEntity
  8
0
  6
________________
 62
     7
370
     9
100
AcDbLine
 10
74.02450000827028
 20
131.89
 30
0.0
 11
73.96750000827028
 21
131.89
 31
0.0
  0
LINE
  5
83B5
330
8399
100
AcDbEntity
  8
0
  6
________________
 62
     7
370
     9
100
AcDbLine
 10
80.04750000827028
 20
138.73
 30
0.0
 11
80.04750000827028
 21
131.89
 31
0.0
  0
LINE
  5
83B6
330
8399
100
AcDbEntity
  8
0
  6
________________
 62
     7
370
     9
100
AcDbLine
 10
73.20750000827029
 20
138.73
 30
0.0
 11
73.20750000827029
 21
131.13
 31
0.0
  0
LINE
  5
83B7
330
8399
100
AcDbEntity
  8
0
  6
________________
 62
     7
370
     9
100
AcDbLine
 10
73.96750000827028
 20
138.73
 30
0.0
 11
73.20750000827029
 21
138.73
 31
0.0
  0
LINE
  5
83B8
330
8399
100
AcDbEntity
  8
0
  6
________________
 62
     7
370
     9
100
AcDbLine
 10
80.80750000827028
 20
138.73
 30
0.0
 11
80.04750000827028
 21
138.73
 31
0.0
  0
LINE
  5
83B9
330
8399
100
AcDbEntity
  8
0
  6
________________
 62
     7
370
     9
100
AcDbLine
 10
80.80750000827028
 20
131.13
 30
0.0
 11
80.80750000827028
 21
138.73
 31
0.0
  0
LINE
  5
83BA
330
8399
100
AcDbEntity
  8
0
  6
________________
 62
     7
370
     9
100
AcDbLine
 10
78.52750000827028
 20
134.17
 30
0.0
 11
75.48750000827029
 21
134.17
 31
0.0
  0
LINE
  5
83BB
330
8399
100
AcDbEntity
  8
0
  6
________________
 62
     7
370
     9
100
AcDbLine
 10
75.10750000827028
 20
134.55
 30
0.0
 11
75.48750000827029
 21
134.17
 31
0.0
  0
LINE
  5
83BC
330
8399
100
AcDbEntity
  8
0
  6
________________
 62
     7
370
     9
100
AcDbLine
 10
75.10750000827028
 20
134.55
 30
0.0
 11
75.10750000827028
 21
179.39
 31
0.0
  0
LINE
  5
83BD
330
8399
100
AcDbEntity
  8
0
  6
________________
 62
     7
370
     9
100
AcDbLine
 10
75.48750000827029
 20
179.77
 30
0.0
 11
75.10750000827028
 21
179.39
 31
0.0
  0
LINE
  5
83BE
330
8399
100
AcDbEntity
  8
0
  6
________________
 62
     7
370
     9
100
AcDbLine
 10
78.52750000827028
 20
179.77
 30
0.0
 11
75.48750000827029
 21
179.77
 31
0.0
  0
LINE
  5
83BF
330
8399
100
AcDbEntity
  8
0
  6
________________
 62
     7
370
     9
100
AcDbLine
 10
78.90750000827029
 20
134.55
 30
0.0
 11
78.90750000827029
 21
179.39
 31
0.0
  0
LINE
  5
83C0
330
8399
100
AcDbEntity
  8
0
  6
________________
 62
     7
370
     9
100
AcDbLine
 10
78.52750000827028
 20
134.17
 30
0.0
 11
78.90750000827029
 21
134.55
 31
0.0
  0
LINE
  5
83C1
330
8399
100
AcDbEntity
  8
0
  6
________________
 62
     7
370
     9
100
AcDbLine
 10
78.90750000827029
 20
179.39
 30
0.0
 11
78.52750000827028
 21
179.77
 31
0.0
  0
ARC
  5
83C2
330
8399
100
AcDbEntity
  8
0
  6
________________
 62
     7
370
     9
100
AcDbCircle
 10
-85.61259853626751
 20
178.7440000000773
 30
0.0
 40
0.1899999999999957
210
0.0
220
0.0
230
-1.0
100
AcDbArc
 50
270.0000000036958
 51
313.6637379398959
  0
ARC
  5
83C3
330
8399
100
AcDbEntity
  8
0
  6
________________
 62
     7
370
     9
100
AcDbCircle
 10
-85.63245574030576
 20
188.595737119015
 30
0.0
 40
0.3799999999999965
210
0.0
220
0.0
230
-1.0
100
AcDbArc
 50
46.80371844490196
 51
177.162902882644
  0
LINE
  5
83C4
330
8399
100
AcDbEntity
  8
0
  6
________________
 62
     7
370
     9
100
AcDbLine
 10
84.11350000050001
 20
185.5840000001741
 30
0.0
 11
84.11350000052451
 21
185.9640000001741
 31
0.0
  0
ARC
  5
83C5
330
8399
100
AcDbEntity
  8
0
  6
________________
 62
     7
370
     9
100
AcDbCircle
 10
83.54350000051227
 20
185.7740000002108
 30
0.0
 40
0.1899999999999957
100
AcDbArc
 50
89.99999999630498
 51
179.9999999963042
  0
ARC
  5
83C6
330
8399
100
AcDbEntity
  8
0
  6
________________
 62
     7
370
     9
100
AcDbCircle
 10
88.10350000052452
 20
185.9639999999167
 30
0.0
 40
4.559999999999986
100
AcDbArc
 50
119.8769586518046
 51
179.9999999963044
  0
ARC
  5
83C7
330
8399
100
AcDbEntity
  8
0
  6
________________
 62
     7
370
     9
100
AcDbCircle
 10
-85.737339374373
 20
190.0827114356997
 30
0.0
 40
0.1899999999999987
210
0.0
220
0.0
230
-1.0
100
AcDbArc
 50
176.2612656413252
 51
240.1230413481957
  0
ARC
  5
83C8
330
8399
100
AcDbEntity
  8
0
  6
________________
 62
     7
370
     9
100
AcDbCircle
 10
8.112499999605365
 20
183.9500000061227
 30
0.0
 40
94.24000000000001
210
0.0
220
0.0
230
-1.0
100
AcDbArc
 50
175.8261186023887
 51
176.2612656413251
  0
ARC
  5
83C9
330
8399
100
AcDbEntity
  8
0
  6
________________
 62
     7
370
     9
100
AcDbCircle
 10
-85.68805679482125
 20
190.7952936488779
 30
0.0
 40
0.1899999999999861
210
0.0
220
0.0
230
-1.0
100
AcDbArc
 50
55.77378009112025
 51
175.8261186023888
  0
ARC
  5
83CA
330
8399
100
AcDbEntity
  8
0
  6
________________
 62
     7
370
     9
100
AcDbCircle
 10
84.68350000093139
 20
192.2720000001373
 30
0.0
 40
1.596000000000005
100
AcDbArc
 50
238.2099568605874
 51
304.2262199088803
  0
ARC
  5
83CB
330
8399
100
AcDbEntity
  8
0
  6
________________
 62
     7
370
     9
100
AcDbCircle
 10
-84.68350000093139
 20
192.2720000001373
 30
0.0
 40
0.8360000000000078
210
0.0
220
0.0
230
-1.0
100
AcDbArc
 50
58.20995686797851
 51
301.7900431394125
  0
ARC
  5
83CC
330
8399
100
AcDbEntity
  8
0
  6
________________
 62
     7
370
     9
100
AcDbCircle
 10
84.04290135974813
 20
193.3055808537303
 30
0.0
 40
0.3799999999999965
100
AcDbArc
 50
229.9999999963046
 51
301.7900431320211
  0
ARC
  5
83CD
330
8399
100
AcDbEntity
  8
0
  6
________________
 62
     7
370
     9
100
AcDbCircle
 10
-85.86150000101797
 20
193.6144276517431
 30
0.0
 40
0.1900000000000096
210
0.0
220
0.0
230
-1.0
100
AcDbArc
 50
180.0000000036958
 51
311.2674273846588
  0
ARC
  5
83CE
330
8399
100
AcDbEntity
  8
0
  6
________________
 62
     7
370
     9
100
AcDbCircle
 10
-85.86150000113973
 20
195.5020000000613
 30
0.0
 40
0.1899999999999957
210
0.0
220
0.0
230
-1.0
100
AcDbArc
 50
90.00000000369502
 51
180.0000000036958
  0
LINE
  5
83CF
330
8399
100
AcDbEntity
  8
0
  6
________________
 62
     7
370
     9
100
AcDbLine
 10
82.13750000113973
 20
195.5020000003015
 30
0.0
 11
82.13750000114463
 21
195.5780000000074
 31
0.0
  0
LINE
  5
83D0
330
8399
100
AcDbEntity
  8
0
  6
________________
 62
     7
370
     9
100
AcDbLine
 10
82.13750000114463
 20
195.5780000000074
 30
0.0
 11
82.13750000115198
 21
195.6920000003015
 31
0.0
  0
LINE
  5
83D1
330
8399
100
AcDbEntity
  8
0
  6
________________
 62
     7
370
     9
100
AcDbLine
 10
81.49150000112748
 20
195.3120000003431
 30
0.0
 11
81.94750000112748
 21
195.3120000003138
 31
0.0
  0
ARC
  5
83D2
330
8399
100
AcDbEntity
  8
0
  6
________________
 62
     7
370
     9
100
AcDbCircle
 10
81.49150000115199
 20
195.6920000003432
 30
0.0
 40
0.3800000000000053
100
AcDbArc
 50
179.9999999963046
 51
269.9999999963042
  0
LINE
  5
83D3
330
8399
100
AcDbEntity
  8
0
  6
________________
 62
     7
370
     9
100
AcDbLine
 10
81.1115000011765
 20
196.0720000003677
 30
0.0
 11
81.11150000115198
 21
195.6920000003677
 31
0.0
  0
ARC
  5
83D4
330
8399
100
AcDbEntity
  8
0
  6
________________
 62
     7
370
     9
100
AcDbCircle
 10
81.49150000117649
 20
196.0720000003432
 30
0.0
 40
0.3799999999999915
100
AcDbArc
 50
89.9999999963042
 51
179.9999999963046
  0
ARC
  5
83D5
330
8399
100
AcDbEntity
  8
0
  6
________________
 62
     7
370
     9
100
AcDbCircle
 10
86.4315000011765
 20
196.0720000000245
 30
0.0
 40
0.3799999999999915
100
AcDbArc
 50
359.9999999963042
 51
89.99999999630461
  0
ARC
  5
83D6
330
8399
100
AcDbEntity
  8
0
  6
________________
 62
     7
370
     9
100
AcDbCircle
 10
86.43150000002451
 20
178.2120000000245
 30
0.0
 40
0.3799999999999915
100
AcDbArc
 50
269.9999999963042
 51
359.9999999963046
  0
LINE
  5
83D7
330
8399
100
AcDbEntity
  8
0
  6
________________
 62
     7
370
     9
100
AcDbLine
 10
83.9615
 20
177.8320000001838
 30
0.0
 11
86.43149999999999
 21
177.8320000000245
 31
0.0
  0
ARC
  5
83D8
330
8399
100
AcDbEntity
  8
0
  6
________________
 62
     7
370
     9
100
AcDbCircle
 10
83.96150000001226
 20
178.0220000001839
 30
0.0
 40
0.1899999999999957
100
AcDbArc
 50
179.999999996305
 51
269.9999999963042
  0
ARC
  5
83D9
330
8399
100
AcDbEntity
  8
0
  6
________________
 62
     7
370
     9
100
AcDbCircle
 10
83.96150000003432
 20
178.3640000001838
 30
0.0
 40
0.1899999999999957
100
AcDbArc
 50
89.9999999963042
 51
179.9999999963042
  0
ARC
  5
83DA
330
8399
100
AcDbEntity
  8
0
  6
________________
 62
     7
370
     9
100
AcDbCircle
 10
84.56950000006535
 20
178.8451030114112
 30
0.0
 40
0.1899999999999939
100
AcDbArc
 50
82.23356582779239
 51
179.9999999963042
  0
ARC
  5
83DB
330
8399
100
AcDbEntity
  8
0
  6
________________
 62
     7
370
     9
100
AcDbCircle
 10
84.37949999997548
 20
177.4520000001569
 30
0.0
 40
1.595999999999993
100
AcDbArc
 50
46.33626206010494
 51
49.07554075567952
  0
ARC
  5
83DC
330
8399
100
AcDbEntity
  8
0
  6
________________
 62
     7
370
     9
100
AcDbCircle
 10
84.37949999997548
 20
177.4520000001569
 30
0.0
 40
1.595999999999983
100
AcDbArc
 50
49.07554075567946
 51
68.81467035711269
  0
ARC
  5
83DD
330
8399
100
AcDbEntity
  8
0
  6
________________
 62
     7
370
     9
100
AcDbCircle
 10
84.37949999997548
 20
177.4520000001569
 30
0.0
 40
1.595999999999993
100
AcDbArc
 50
68.81467035711267
 51
82.23356582779226
  0
LINE
  5
83DE
330
8399
100
AcDbEntity
  8
0
  6
________________
 62
     7
370
     9
100
AcDbLine
 10
84.37950000004656
 20
178.5540000001569
 30
0.0
 11
83.96150000004658
 21
178.5540000001838
 31
0.0
  0
LINE
  5
83DF
330
8399
100
AcDbEntity
  8
0
  6
________________
 62
     7
370
     9
100
AcDbLine
 10
83.54350000048775
 20
185.3940000002108
 30
0.0
 11
83.92350000048776
 21
185.3940000001863
 31
0.0
  0
ARC
  5
83E0
330
8399
100
AcDbEntity
  8
0
  6
________________
 62
     7
370
     9
100
AcDbCircle
 10
-85.79330420831852
 20
178.7440000000657
 30
0.0
 40
0.1900000000000065
210
0.0
220
0.0
230
-1.0
100
AcDbArc
 50
183.1731457966781
 51
270.000000003695
  0
LINE
  5
83E1
330
8399
100
AcDbEntity
  8
0
  6
________________
 62
     7
370
     9
100
AcDbLine
 10
83.35350000051227
 20
185.7740000002231
 30
0.0
 11
83.3535000005
 21
185.5840000002231
 31
0.0
  0
LINE
  5
83E2
330
8399
100
AcDbEntity
  8
0
  6
________________
 62
     7
370
     9
100
AcDbLine
 10
84.37950000006535
 20
178.8451030114235
 30
0.0
 11
84.37950000004656
 21
178.5540000001569
 31
0.0
  0
ARC
  5
83E3
330
8399
100
AcDbEntity
  8
0
  6
________________
 62
     7
370
     9
100
AcDbCircle
 10
83.92350000050001
 20
185.5840000001863
 30
0.0
 40
0.1899999999999957
100
AcDbArc
 50
269.9999999963042
 51
359.9999999963042
  0
ARC
  5
83E4
330
8399
100
AcDbEntity
  8
0
  6
________________
 62
     7
370
     9
100
AcDbCircle
 10
83.5435000005
 20
185.5840000002108
 30
0.0
 40
0.1899999999999957
100
AcDbArc
 50
179.9999999963042
 51
269.999999996305
  0
ARC
  5
83E5
330
8399
100
AcDbEntity
  8
0
  6
________________
 62
     7
370
     9
100
AcDbCircle
 10
81.94750000113973
 20
195.5020000003138
 30
0.0
 40
0.1899999999999957
100
AcDbArc
 50
269.9999999963042
 51
359.9999999963042
  0
ARC
  5
83E6
330
8399
100
AcDbEntity
  8
0
  6
________________
 62
     7
370
     9
100
AcDbCircle
 10
84.0429013596148
 20
191.2384191466269
 30
0.0
 40
0.3800000000000041
100
AcDbArc
 50
58.20995686058733
 51
129.9999999963045
  0
ARC
  5
83E7
330
8399
100
AcDbEntity
  8
0
  6
________________
 62
     7
370
     9
100
AcDbCircle
 10
84.04290135974813
 20
193.3055808537303
 30
0.0
 40
0.3800000000000133
100
AcDbArc
 50
121.7900431320213
 51
229.9999999963046
  0
ARC
  5
83E8
330
8399
100
AcDbEntity
  8
0
  6
________________
 62
     7
370
     9
100
AcDbCircle
 10
84.0429013596148
 20
191.2384191466269
 30
0.0
 40
0.3799999999999901
100
AcDbArc
 50
129.9999999963045
 51
238.2099568605875
  0
LINE
  5
83E9
330
8399
100
AcDbEntity
  8
0
  6
________________
 62
     7
370
     9
100
AcDbLine
 10
83.77150000003432
 20
178.3640000001961
 30
0.0
 11
83.77150000001227
 21
178.0220000001961
 31
0.0
  0
ARC
  5
83EA
330
8399
100
AcDbEntity
  8
0
  6
________________
 62
     7
370
     9
100
AcDbCircle
 10
84.68350000093139
 20
192.2720000001373
 30
0.0
 40
1.59600000000001
100
AcDbArc
 50
48.73257261534074
 51
121.7900431320214
  0
LINE
  5
83EB
330
8399
100
AcDbEntity
  8
0
  6
________________
 62
     7
370
     9
100
AcDbLine
 10
82.13750000115198
 20
195.6920000003015
 30
0.0
 11
82.25150000000735
 21
195.6920000002941
 31
0.0
  0
LINE
  5
83EC
330
8399
100
AcDbEntity
  8
0
  6
________________
 62
     7
370
     9
100
AcDbLine
 10
82.25150000000735
 20
195.6920000002941
 30
0.0
 11
85.86150000115197
 21
195.6920000000613
 31
0.0
  0
ARC
  5
83ED
330
8399
100
AcDbEntity
  8
0
  6
________________
 62
     7
370
     9
100
AcDbCircle
 10
8.112499999605365
 20
183.9500000061227
 30
0.0
 40
94.24000000000001
210
0.0
220
0.0
230
-1.0
100
AcDbArc
 50
177.1629028826441
 51
183.1731457966779
  0
ARC
  5
83EE
330
8399
100
AcDbEntity
  8
0
  6
________________
 62
     7
370
     9
100
AcDbCircle
 10
-88.10350000052452
 20
185.9639999999167
 30
0.0
 40
3.990000000000007
210
0.0
220
0.0
230
-1.0
100
AcDbArc
 50
0.0000000036956342
 51
3.275828953716382
  0
ARC
  5
83EF
330
8399
100
AcDbEntity
  8
0
  6
________________
 62
     7
370
     9
100
AcDbCircle
 10
-88.10350000052452
 20
185.9639999999167
 30
0.0
 40
3.990000000000006
210
0.0
220
0.0
230
-1.0
100
AcDbArc
 50
3.27582895371633
 51
41.94645727436946
  0
ARC
  5
83F0
330
8399
100
AcDbEntity
  8
0
  6
________________
 62
     7
370
     9
100
AcDbCircle
 10
-88.10350000052452
 20
185.9639999999167
 30
0.0
 40
3.989999999999987
210
0.0
220
0.0
230
-1.0
100
AcDbArc
 50
41.94645727436955
 51
46.80371844490193
  0
LINE
  5
83F1
330
8399
100
AcDbEntity
  8
0
  6
________________
 62
     7
370
     9
100
AcDbLine
 10
85.79330420830625
 20
178.5540000000657
 30
0.0
 11
85.61259853625526
 21
178.5540000000773
 31
0.0
  0
LINE
  5
83F2
330
8399
100
AcDbEntity
  8
0
  6
________________
 62
     7
370
     9
100
AcDbLine
 10
86.05150000113973
 20
195.502000000049
 30
0.0
 11
86.05150000101798
 21
193.6144276517309
 31
0.0
  0
LINE
  5
83F3
330
8399
100
AcDbEntity
  8
0
  6
________________
 62
     7
370
     9
100
AcDbLine
 10
86.81150000002451
 20
178.212
 30
0.0
 11
86.81150000117648
 21
196.072
 31
0.0
  0
LINE
  5
83F4
330
8399
100
AcDbEntity
  8
0
  6
________________
 62
     7
370
     9
100
AcDbLine
 10
86.431500001201
 20
196.4520000000245
 30
0.0
 11
81.491500001201
 21
196.4520000003432
 31
0.0
  0
LINE
  5
83F5
330
8399
100
AcDbEntity
  8
0
  6
________________
 62
     7
370
     9
100
AcDbLine
 10
73.60650001325672
 20
180.2259999988628
 30
0.0
 11
80.40850001325664
 21
180.2259999984261
 31
0.0
  0
LINE
  5
83F6
330
8399
100
AcDbEntity
  8
0
  6
________________
 62
     7
370
     9
100
AcDbLine
 10
75.58144484673622
 20
182.809999998736
 30
0.0
 11
78.43355517653295
 21
182.8099999985529
 31
0.0
  0
LINE
  5
83F7
330
8399
100
AcDbEntity
  8
0
  6
________________
 62
     7
370
     9
100
AcDbLine
 10
78.43355517636708
 20
180.2259999985529
 30
0.0
 11
78.43355517653295
 21
182.8099999985529
 31
0.0
  0
LINE
  5
83F8
330
8399
100
AcDbEntity
  8
0
  6
________________
 62
     7
370
     9
100
AcDbLine
 10
75.58144484657034
 20
180.225999998736
 30
0.0
 11
75.58144484673622
 21
182.809999998736
 31
0.0
  0
LINE
  5
83F9
330
8399
100
AcDbEntity
  8
0
  6
________________
 62
     7
370
     9
100
AcDbLine
 10
79.85961034305342
 20
180.2259999984614
 30
0.0
 11
79.8596103432193
 21
182.8099999984614
 31
0.0
  0
LINE
  5
83FA
330
8399
100
AcDbEntity
  8
0
  6
________________
 62
     7
370
     9
100
AcDbLine
 10
78.43355517653295
 20
182.8099999985529
 30
0.0
 11
79.8596103432193
 21
182.8099999984614
 31
0.0
  0
LINE
  5
83FB
330
8399
100
AcDbEntity
  8
0
  6
________________
 62
     7
370
     9
100
AcDbLine
 10
74.15538968345994
 20
180.2259999988275
 30
0.0
 11
74.15538968362581
 21
182.8099999988275
 31
0.0
  0
LINE
  5
83FC
330
8399
100
AcDbEntity
  8
0
  6
________________
 62
     7
370
     9
100
AcDbLine
 10
74.15538968362581
 20
182.8099999988275
 30
0.0
 11
75.58144484673622
 21
182.809999998736
 31
0.0
  0
LINE
  5
83FD
330
8399
100
AcDbEntity
  8
0
  6
________________
 62
     7
370
     9
100
AcDbLine
 10
78.52750001416351
 20
194.3524999985474
 30
0.0
 11
75.4875000141635
 21
194.3524999987426
 31
0.0
  0
LINE
  5
83FE
330
8399
100
AcDbEntity
  8
0
  6
________________
 62
     7
370
     9
100
AcDbLine
 10
75.72500001417876
 20
194.5899999987274
 30
0.0
 11
78.29000001417876
 21
194.5899999985627
 31
0.0
  0
LINE
  5
83FF
330
8399
100
AcDbEntity
  8
0
  6
________________
 62
     7
370
     9
100
AcDbLine
 10
80.8708006939883
 20
185.6029999983117
 30
0.0
 11
80.87080069501012
 21
193.5829999983117
 31
0.0
  0
LINE
  5
8400
330
8399
100
AcDbEntity
  8
0
  6
________________
 62
     7
370
     9
100
AcDbLine
 10
81.39650000757055
 20
185.6029999982444
 30
0.0
 11
81.39650000808146
 21
189.5929999982444
 31
0.0
  0
LINE
  5
8401
330
8399
100
AcDbEntity
  8
0
  6
________________
 62
     7
370
     9
100
AcDbLine
 10
81.39650000808146
 20
189.5929999982444
 30
0.0
 11
81.39650000859237
 21
193.5829999982444
 31
0.0
  0
LINE
  5
8402
330
8399
100
AcDbEntity
  8
0
  6
________________
 62
   253
370
     9
100
AcDbLine
 10
80.75013448872272
 20
193.3739999983271
 30
0.0
 11
80.75013448775444
 21
185.8119999983271
 31
0.0
  0
LINE
  5
8403
330
8399
100
AcDbEntity
  8
0
  6
________________
 62
     7
370
     9
100
AcDbLine
 10
79.6421993221746
 20
193.582999998469
 30
0.0
 11
79.64219932115277
 21
185.602999998469
 31
0.0
  0
LINE
  5
8404
330
8399
100
AcDbEntity
  8
0
  6
________________
 62
   253
370
     9
100
AcDbLine
 10
79.76286552840847
 20
193.3739999984535
 30
0.0
 11
79.76286552744017
 21
185.8119999984535
 31
0.0
  0
LINE
  5
8405
330
8399
100
AcDbEntity
  8
0
  6
________________
 62
     7
370
     9
100
AcDbLine
 10
79.11650000757055
 20
185.6029999985363
 30
0.0
 11
79.11650000808146
 21
189.5929999985363
 31
0.0
  0
LINE
  5
8406
330
8399
100
AcDbEntity
  8
0
  6
________________
 62
     7
370
     9
100
AcDbLine
 10
79.11650000808146
 20
189.5929999985363
 30
0.0
 11
79.11650000859237
 21
193.5829999985363
 31
0.0
  0
LINE
  5
8407
330
8399
100
AcDbEntity
  8
0
  6
________________
 62
     7
370
     9
100
AcDbLine
 10
74.37280069449773
 20
185.6029999992221
 30
0.0
 11
74.37280069450068
 21
193.5829999992221
 31
0.0
  0
LINE
  5
8408
330
8399
100
AcDbEntity
  8
0
  6
________________
 62
     7
370
     9
100
AcDbLine
 10
74.89850000808292
 20
193.5829999992219
 30
0.0
 11
74.89850000808144
 21
189.5929999992219
 31
0.0
  0
LINE
  5
8409
330
8399
100
AcDbEntity
  8
0
  6
________________
 62
     7
370
     9
100
AcDbLine
 10
74.89850000808144
 20
189.5929999992219
 30
0.0
 11
74.89850000807996
 21
185.6029999992219
 31
0.0
  0
LINE
  5
840A
330
8399
100
AcDbEntity
  8
0
  6
________________
 62
   253
370
     9
100
AcDbLine
 10
74.25213448823717
 20
185.8119999992221
 30
0.0
 11
74.25213448823997
 21
193.3739999992221
 31
0.0
  0
LINE
  5
840B
330
8399
100
AcDbEntity
  8
0
  6
________________
 62
     7
370
     9
100
AcDbLine
 10
73.14419932166516
 20
193.5829999992226
 30
0.0
 11
73.1441993216622
 21
185.6029999992226
 31
0.0
  0
LINE
  5
840C
330
8399
100
AcDbEntity
  8
0
  6
________________
 62
   253
370
     9
100
AcDbLine
 10
73.26486552792291
 20
185.8119999992225
 30
0.0
 11
73.2648655279257
 21
193.3739999992225
 31
0.0
  0
LINE
  5
840D
330
8399
100
AcDbEntity
  8
0
  6
________________
 62
     7
370
     9
100
AcDbLine
 10
72.6185000080829
 20
193.5829999992227
 30
0.0
 11
72.61850000808144
 21
189.5929999992228
 31
0.0
  0
LINE
  5
840E
330
8399
100
AcDbEntity
  8
0
  6
________________
 62
     7
370
     9
100
AcDbLine
 10
72.61850000808144
 20
189.5929999992228
 30
0.0
 11
72.61850000807996
 21
185.6029999992228
 31
0.0
  0
LINE
  5
840F
330
8399
100
AcDbEntity
  8
0
  6
________________
 62
     7
370
     9
100
AcDbLine
 10
81.39650000807922
 20
189.592999998083
 30
0.0
 11
81.39650000797874
 21
188.8082757840819
 31
0.0
  0
LINE
  5
8410
330
8399
100
AcDbEntity
  8
0
  6
________________
 62
     7
370
     9
100
AcDbLine
 10
81.39650000797874
 20
188.8082757840819
 30
0.0
 11
81.39650000793324
 21
188.452999998083
 31
0.0
  0
LINE
  5
8411
330
8399
100
AcDbEntity
  8
0
  6
________________
 62
     7
370
     9
100
AcDbLine
 10
72.61850000793324
 20
188.452999999207
 30
0.0
 11
72.61850000807073
 21
189.5267553465987
 31
0.0
  0
LINE
  5
8412
330
8399
100
AcDbEntity
  8
0
  6
________________
 62
     7
370
     9
100
AcDbLine
 10
72.61850000807073
 20
189.5267553465987
 30
0.0
 11
72.61850000807539
 21
189.5631584550469
 31
0.0
  0
LINE
  5
8413
330
8399
100
AcDbEntity
  8
0
  6
________________
 62
     7
370
     9
100
AcDbLine
 10
72.61850000807539
 20
189.5631584550469
 30
0.0
 11
72.61850000807922
 21
189.592999999207
 31
0.0
  0
LINE
  5
8414
330
8399
100
AcDbEntity
  8
0
  6
________________
 62
     7
370
     9
100
AcDbLine
 10
72.61850000807922
 20
189.592999999207
 30
0.0
 11
72.61850000822518
 21
190.732999999207
 31
0.0
  0
LINE
  5
8415
330
8399
100
AcDbEntity
  8
0
  6
________________
 62
   253
370
     9
100
AcDbLine
 10
75.14550000407957
 20
188.3140390723356
 30
0.0
 11
78.86950000407957
 21
188.3140390720965
 31
0.0
  0
LINE
  5
8416
330
8399
100
AcDbEntity
  8
0
  6
________________
 62
     7
370
     9
100
AcDbLine
 10
75.14550000424376
 20
190.8719609251935
 30
0.0
 11
75.14550000407957
 21
188.3140390723356
 31
0.0
  0
LINE
  5
8417
330
8399
100
AcDbEntity
  8
0
  6
________________
 62
   253
370
     9
100
AcDbLine
 10
78.86950000424376
 20
190.8719609249544
 30
0.0
 11
75.14550000424376
 21
190.8719609251935
 31
0.0
  0
LINE
  5
8418
330
8399
100
AcDbEntity
  8
0
  6
________________
 62
     7
370
     9
100
AcDbLine
 10
78.86950000424376
 20
190.8719609249544
 30
0.0
 11
78.86950000407957
 21
188.3140390720965
 31
0.0
  0
LINE
  5
8419
330
8399
100
AcDbEntity
  8
0
  6
________________
 62
   253
370
     9
100
AcDbLine
 10
75.14550000467854
 20
191.4416136965944
 30
0.0
 11
78.86950000467854
 21
191.4416136963553
 31
0.0
  0
LINE
  5
841A
330
8399
100
AcDbEntity
  8
0
  6
________________
 62
     7
370
     9
100
AcDbLine
 10
75.14550000465637
 20
190.8719609251935
 30
0.0
 11
75.14550000469295
 21
191.4416136965944
 31
0.0
  0
LINE
  5
841B
330
8399
100
AcDbEntity
  8
0
  6
________________
 62
     7
370
     9
100
AcDbLine
 10
78.86950000469294
 20
191.4416136963553
 30
0.0
 11
78.86950000465636
 21
190.8719609249544
 31
0.0
  0
LINE
  5
841C
330
8399
100
AcDbEntity
  8
0
  6
________________
 62
   253
370
     9
100
AcDbLine
 10
78.8695000044412
 20
187.7443863006957
 30
0.0
 11
75.1455000044412
 21
187.7443863009347
 31
0.0
  0
LINE
  5
841D
330
8399
100
AcDbEntity
  8
0
  6
________________
 62
     7
370
     9
100
AcDbLine
 10
75.1455000044556
 20
187.7443863009347
 30
0.0
 11
75.14550000449218
 21
188.3140390723356
 31
0.0
  0
LINE
  5
841E
330
8399
100
AcDbEntity
  8
0
  6
________________
 62
     7
370
     9
100
AcDbLine
 10
78.86950000449217
 20
188.3140390720965
 30
0.0
 11
78.8695000044556
 21
187.7443863006957
 31
0.0
  0
LINE
  5
841F
330
8399
100
AcDbEntity
  8
0
  6
________________
 62
   253
370
     9
100
AcDbLine
 10
78.86950000907392
 20
191.6529982280703
 30
0.0
 11
75.14550000907393
 21
191.6529982283094
 31
0.0
  0
LINE
  5
8420
330
8399
100
AcDbEntity
  8
0
  6
________________
 62
     7
370
     9
100
AcDbLine
 10
75.14550000467854
 20
191.4416136965944
 30
0.0
 11
75.14550000907393
 21
191.6529982283094
 31
0.0
  0
LINE
  5
8421
330
8399
100
AcDbEntity
  8
0
  6
________________
 62
     7
370
     9
100
AcDbLine
 10
78.86950000467854
 20
191.4416136963553
 30
0.0
 11
78.86950000907392
 21
191.6529982280703
 31
0.0
  0
LINE
  5
8422
330
8399
100
AcDbEntity
  8
0
  6
________________
 62
   253
370
     9
100
AcDbLine
 10
75.14550000880944
 20
187.5330017692197
 30
0.0
 11
78.86950000880945
 21
187.5330017689806
 31
0.0
  0
LINE
  5
8423
330
8399
100
AcDbEntity
  8
0
  6
________________
 62
     7
370
     9
100
AcDbLine
 10
75.14550000880944
 20
187.5330017692197
 30
0.0
 11
75.1455000044412
 21
187.7443863009347
 31
0.0
  0
LINE
  5
8424
330
8399
100
AcDbEntity
  8
0
  6
________________
 62
     7
370
     9
100
AcDbLine
 10
78.8695000044412
 20
187.7443863006957
 30
0.0
 11
78.86950000880945
 21
187.5330017689806
 31
0.0
  0
LINE
  5
8425
330
8399
100
AcDbEntity
  8
0
  6
________________
 62
     7
370
     9
100
AcDbLine
 10
78.86950000908354
 20
191.6532297138031
 30
0.0
 11
78.86950000908352
 21
191.6529982280703
 31
0.0
  0
LINE
  5
8426
330
8399
100
AcDbEntity
  8
0
  6
________________
 62
     7
370
     9
100
AcDbLine
 10
75.14550000908352
 20
191.6529982283094
 30
0.0
 11
75.14550000908353
 21
191.6532297140421
 31
0.0
  0
LINE
  5
8427
330
8399
100
AcDbEntity
  8
0
  6
________________
 62
     7
370
     9
100
AcDbLine
 10
75.14550000881903
 20
187.5327702834869
 30
0.0
 11
75.14550000881904
 21
187.5330017692197
 31
0.0
  0
LINE
  5
8428
330
8399
100
AcDbEntity
  8
0
  6
________________
 62
     7
370
     9
100
AcDbLine
 10
78.86950000881903
 20
187.5330017689806
 30
0.0
 11
78.86950000881902
 21
187.5327702832479
 31
0.0
  0
LINE
  5
8429
330
8399
100
AcDbEntity
  8
0
  6
________________
 62
     7
370
     9
100
AcDbLine
 10
78.8695000119314
 20
191.9299999985255
 30
0.0
 11
78.8695000104986
 21
191.6532297138031
 31
0.0
  0
LINE
  5
842A
330
8399
100
AcDbEntity
  8
0
  6
________________
 62
     7
370
     9
100
AcDbLine
 10
75.14549621134609
 20
190.8868770134432
 30
0.0
 11
75.14549621138846
 21
191.5473059620837
 31
0.0
  0
LINE
  5
842B
330
8399
100
AcDbEntity
  8
0
  6
________________
 62
     7
370
     9
100
AcDbLine
 10
75.14549621138846
 20
191.5473059620837
 30
0.0
 11
75.14549621139527
 21
191.6530560997813
 31
0.0
  0
LINE
  5
842C
330
8399
100
AcDbEntity
  8
0
  6
________________
 62
     7
370
     9
100
AcDbLine
 10
75.14549621139527
 20
191.6530560997813
 30
0.0
 11
75.14549621141305
 21
191.9299999987645
 31
0.0
  0
LINE
  5
842D
330
8399
100
AcDbEntity
  8
0
  6
________________
 62
     7
370
     9
100
AcDbLine
 10
75.14550001193143
 20
191.9299999987645
 30
0.0
 11
78.8695000119314
 21
191.9299999985255
 31
0.0
  0
LINE
  5
842E
330
8399
100
AcDbEntity
  8
0
  6
________________
 62
     7
370
     9
100
AcDbLine
 10
74.89850000573958
 20
187.2559999987804
 30
0.0
 11
75.14550001163138
 21
187.2559999987645
 31
0.0
  0
LINE
  5
842F
330
8399
100
AcDbEntity
  8
0
  6
________________
 62
     7
370
     9
100
AcDbLine
 10
74.89850000574131
 20
191.9299999987804
 30
0.0
 11
75.14550001193143
 21
191.9299999987645
 31
0.0
  0
ELLIPSE
  5
8430
330
8399
100
AcDbEntity
  8
0
  6
________________
 62
     7
370
     9
100
AcDbEllipse
 10
77.0075000257295
 20
374.5262747595423
 30
0.0
 11
-1.680810800574657E-8
 21
-223.2605697130745
 31
0.0
210
0.0
220
0.0
230
-1.0
 40
0.0153184236893924
 41
0.5757266479800139
 42
0.5839589889458376
  0
LINE
  5
8431
330
8399
100
AcDbEntity
  8
0
  6
________________
 62
     7
370
     9
100
AcDbLine
 10
78.86950001163136
 20
187.2559999985255
 30
0.0
 11
79.11650000544122
 21
187.2559999985097
 31
0.0
  0
ELLIPSE
  5
8432
330
8399
100
AcDbEntity
  8
0
  6
________________
 62
     7
370
     9
100
AcDbEllipse
 10
77.0075000257295
 20
374.5262747595423
 30
0.0
 11
-1.680810800574657E-8
 21
-223.2605697130745
 31
0.0
210
0.0
220
0.0
230
-1.0
 40
0.0153184236893924
 41
5.699226318235337
 42
5.707458659199224
  0
LINE
  5
8433
330
8399
100
AcDbEntity
  8
0
  6
________________
 62
     7
370
     9
100
AcDbLine
 10
78.86950001193138
 20
191.9299999985255
 30
0.0
 11
79.11650000603971
 21
191.9299999985096
 31
0.0
  0
LINE
  5
8434
330
8399
100
AcDbEntity
  8
0
  6
________________
 62
     7
370
     9
100
AcDbLine
 10
78.86950001163139
 20
187.2559999985255
 30
0.0
 11
75.14550001163138
 21
187.2559999987645
 31
0.0
  0
LINE
  5
8435
330
8399
100
AcDbEntity
  8
0
  6
________________
 62
     7
370
     9
100
AcDbLine
 10
71.87750002996998
 20
160.7699999999999
 30
0.0
 11
74.91750002996999
 21
160.7699999999999
 31
0.0
  0
LINE
  5
8436
330
8399
100
AcDbEntity
  8
0
  6
________________
 62
     7
370
     9
100
AcDbLine
 10
74.91750002996999
 20
160.7699999999999
 30
0.0
 11
74.91750002996999
 21
179.7699999999999
 31
0.0
  0
LINE
  5
8437
330
8399
100
AcDbEntity
  8
0
  6
________________
 62
     7
370
     9
100
AcDbLine
 10
71.87750002996998
 20
160.7699999999999
 30
0.0
 11
71.87750002996998
 21
179.7699999999999
 31
0.0
  0
LINE
  5
8438
330
8399
100
AcDbEntity
  8
0
  6
________________
 62
     7
370
     9
100
AcDbLine
 10
71.87750002996998
 20
179.7699999999999
 30
0.0
 11
74.91750002996999
 21
179.7699999999999
 31
0.0
  0
LINE
  5
8439
330
8399
100
AcDbEntity
  8
0
  6
________________
 62
     7
370
     9
100
AcDbLine
 10
74.91750001301817
 20
177.6807310396811
 30
0.0
 11
75.10749999496886
 21
177.6807310396811
 31
0.0
  0
LINE
  5
843A
330
8399
100
AcDbEntity
  8
0
  6
________________
 62
   253
370
     9
100
AcDbLine
 10
75.10749999441872
 20
176.9207310396814
 30
0.0
 11
74.91750002996999
 21
176.9207310396814
 31
0.0
  0
LINE
  5
843B
330
8399
100
AcDbEntity
  8
0
  6
________________
 62
   253
370
     9
100
AcDbLine
 10
74.91750002996999
 20
163.2400000000014
 30
0.0
 11
75.10749999441872
 21
163.2400000000014
 31
0.0
  0
LINE
  5
843C
330
8399
100
AcDbEntity
  8
0
  6
________________
 62
     7
370
     9
100
AcDbLine
 10
75.10749999496886
 20
162.4800000000017
 30
0.0
 11
74.9175000130475
 21
162.4800000000017
 31
0.0
  0
LINE
  5
843D
330
8399
100
AcDbEntity
  8
0
  6
________________
 62
   253
370
     9
100
AcDbLine
 10
78.90749999407383
 20
177.8699999999968
 30
0.0
 11
79.09749999366122
 21
177.8699999999968
 31
0.0
  0
LINE
  5
843E
330
8399
100
AcDbEntity
  8
0
  6
________________
 62
     7
370
     9
100
AcDbLine
 10
78.90749999503659
 20
179.1999999999965
 30
0.0
 11
79.09749999338614
 21
179.1999999999965
 31
0.0
  0
LINE
  5
843F
330
8399
100
AcDbEntity
  8
0
  6
________________
 62
     7
370
     9
100
AcDbLine
 10
78.90749999503659
 20
161.3400000000014
 30
0.0
 11
79.09749999338614
 21
161.3400000000014
 31
0.0
  0
LINE
  5
8440
330
8399
100
AcDbEntity
  8
0
  6
________________
 62
   253
370
     9
100
AcDbLine
 10
78.90749999407383
 20
162.670000000001
 30
0.0
 11
79.09749999366122
 21
162.670000000001
 31
0.0
  0
LINE
  5
8441
330
8399
100
AcDbEntity
  8
0
  6
________________
 62
     7
370
     9
100
AcDbLine
 10
82.13749999338616
 20
179.7699999999999
 30
0.0
 11
79.09749999338614
 21
179.7699999999999
 31
0.0
  0
LINE
  5
8442
330
8399
100
AcDbEntity
  8
0
  6
________________
 62
     7
370
     9
100
AcDbLine
 10
82.13749999338616
 20
160.7699999999999
 30
0.0
 11
79.09749999338614
 21
160.7699999999999
 31
0.0
  0
LINE
  5
8443
330
8399
100
AcDbEntity
  8
0
  6
________________
 62
     7
370
     9
100
AcDbLine
 10
79.09749999338614
 20
179.7699999999999
 30
0.0
 11
79.09749999338614
 21
160.7699999999999
 31
0.0
  0
LINE
  5
8444
330
8399
100
AcDbEntity
  8
0
  6
________________
 62
     7
370
     9
100
AcDbLine
 10
82.13749999338616
 20
179.7699999999999
 30
0.0
 11
82.13749999338616
 21
160.7699999999999
 31
0.0
  0
LINE
  5
8445
330
8399
100
AcDbEntity
  8
0
  6
________________
 62
     7
370
     9
100
AcDbLine
 10
74.91750001816558
 20
179.7699999999999
 30
0.0
 11
75.48750000827029
 21
179.7699999999999
 31
0.0
  0
LINE
  5
8446
330
8399
100
AcDbEntity
  8
0
  6
________________
 62
     7
370
     9
100
AcDbLine
 10
78.52750001322703
 20
179.7699999999999
 30
0.0
 11
79.09750000383892
 21
179.7699999999999
 31
0.0
  0
LINE
  5
8447
330
8399
100
AcDbEntity
  8
0
  6
________________
 62
     7
370
     9
100
AcDbLine
 10
45.56250000000001
 20
131.13
 30
0.0
 11
108.7375
 21
131.13
 31
0.0
  0
LINE
  5
8448
330
8399
100
AcDbEntity
  8
0
  6
________________
 62
     7
370
     9
100
AcDbLine
 10
108.7375
 20
131.13
 30
0.0
 11
108.7375
 21
121.63
 31
0.0
  0
LINE
  5
8449
330
8399
100
AcDbEntity
  8
0
  6
________________
 62
     7
370
     9
100
AcDbLine
 10
45.56250000000001
 20
121.63
 30
0.0
 11
45.56250000000001
 21
131.13
 31
0.0
  0
LINE
  5
844A
330
8399
100
AcDbEntity
  8
0
  6
________________
 62
     7
370
     9
100
AcDbLine
 10
108.7375
 20
121.63
 30
0.0
 11
45.56250000000001
 21
121.63
 31
0.0
  0
LINE
  5
844B
330
8399
100
AcDbEntity
  8
0
  6
________________
 62
     7
370
     9
100
AcDbLine
 10
45.5625
 20
217.77
 30
0.0
 11
70.73750000000001
 21
217.77
 31
0.0
  0
LINE
  5
844C
330
8399
100
AcDbEntity
  8
0
  6
________________
 62
     7
370
     9
100
AcDbLine
 10
70.73750000000001
 20
217.77
 30
0.0
 11
70.73750000000001
 21
194.5558191924088
 31
0.0
  0
LINE
  5
844D
330
8399
100
AcDbEntity
  8
0
  6
________________
 62
     7
370
     9
100
AcDbLine
 10
70.73750000000001
 20
194.5558191924088
 30
0.0
 11
70.73750000000001
 21
189.764
 31
0.0
  0
LINE
  5
844E
330
8399
100
AcDbEntity
  8
0
  6
________________
 62
     7
370
     9
100
AcDbLine
 10
70.73750000000001
 20
189.764
 30
0.0
 11
70.73750000000001
 21
189.536
 31
0.0
  0
LINE
  5
844F
330
8399
100
AcDbEntity
  8
0
  6
________________
 62
     7
370
     9
100
AcDbLine
 10
70.73750000000001
 20
189.536
 30
0.0
 11
70.73750000000001
 21
184.7441808075913
 31
0.0
  0
LINE
  5
8450
330
8399
100
AcDbEntity
  8
0
  6
________________
 62
     7
370
     9
100
AcDbLine
 10
70.73750000000001
 20
184.7441808075913
 30
0.0
 11
70.73750000000001
 21
160.77
 31
0.0
  0
LINE
  5
8451
330
8399
100
AcDbEntity
  8
0
  6
________________
 62
     7
370
     9
100
AcDbLine
 10
70.73750000000001
 20
160.77
 30
0.0
 11
45.5625
 21
160.77
 31
0.0
  0
LINE
  5
8452
330
8399
100
AcDbEntity
  8
0
  6
________________
 62
     7
370
     9
100
AcDbLine
 10
45.5625
 20
160.77
 30
0.0
 11
45.5625
 21
217.77
 31
0.0
  0
LINE
  5
8453
330
8399
100
AcDbEntity
  8
0
  6
________________
 62
     7
370
     9
100
AcDbLine
 10
70.81349999987997
 20
189.6119999994275
 30
0.0
 11
70.81349999988498
 21
189.6880000005675
 31
0.0
  0
LINE
  5
8454
330
8399
100
AcDbEntity
  8
0
  6
________________
 62
     7
370
     9
100
AcDbLine
 10
84.07549999987886
 20
180.7389999994958
 30
0.0
 11
84.0754999998797
 21
180.7579999994958
 31
0.0
  0
LINE
  5
8455
330
8399
100
AcDbEntity
  8
0
  6
________________
 62
     7
370
     9
100
AcDbLine
 10
84.72149999987971
 20
180.7579999994668
 30
0.0
 11
84.72149999996502
 21
182.6579999994668
 31
0.0
  0
ARC
  5
8456
330
8399
100
AcDbEntity
  8
0
  6
________________
 62
     7
370
     9
100
AcDbCircle
 10
-84.34149999996502
 20
182.6579999994839
 30
0.0
 40
0.3799999999999915
210
0.0
220
0.0
230
-1.0
100
AcDbArc
 50
90.00000000257228
 51
180.0000000025723
  0
LINE
  5
8457
330
8399
100
AcDbEntity
  8
0
  6
________________
 62
     7
370
     9
100
AcDbLine
 10
84.34149999998208
 20
183.0379999994839
 30
0.0
 11
81.11149999998209
 21
183.0379999996289
 31
0.0
  0
LINE
  5
8458
330
8399
100
AcDbEntity
  8
0
  6
________________
 62
     7
370
     9
100
AcDbLine
 10
81.11149999998209
 20
183.0379999996289
 30
0.0
 11
81.11149999999914
 21
183.4179999996289
 31
0.0
  0
LINE
  5
8459
330
8399
100
AcDbEntity
  8
0
  6
________________
 62
     7
370
     9
100
AcDbLine
 10
81.11149999999914
 20
183.4179999996289
 30
0.0
 11
81.81640959623518
 21
184.1229095958016
 31
0.0
  0
ARC
  5
845A
330
8399
100
AcDbEntity
  8
0
  6
________________
 62
     7
370
     9
100
AcDbCircle
 10
-81.9494095962292
 20
183.9899095957957
 30
0.0
 40
0.1880904037956331
210
0.0
220
0.0
230
-1.0
100
AcDbArc
 50
45.00000000257229
 51
180.0000000025727
  0
LINE
  5
845B
330
8399
100
AcDbEntity
  8
0
  6
________________
 62
     7
370
     9
100
AcDbLine
 10
82.13750000002483
 20
183.9899095957872
 30
0.0
 11
82.13750000001279
 21
183.7220000000051
 31
0.0
  0
LINE
  5
845C
330
8399
100
AcDbEntity
  8
0
  6
________________
 62
     7
370
     9
100
AcDbLine
 10
82.13750000001279
 20
183.7220000000051
 30
0.0
 11
82.13750000000427
 21
183.5319999995829
 31
0.0
  0
LINE
  5
845D
330
8399
100
AcDbEntity
  8
0
  6
________________
 62
     7
370
     9
100
AcDbLine
 10
82.13750000000427
 20
183.5319999995829
 30
0.0
 11
84.34150000000426
 21
183.5319999994839
 31
0.0
  0
ARC
  5
845E
330
8399
100
AcDbEntity
  8
0
  6
________________
 62
     7
370
     9
100
AcDbCircle
 10
-84.34150000002133
 20
183.9119999994839
 30
0.0
 40
0.3799999999999915
210
0.0
220
0.0
230
-1.0
100
AcDbArc
 50
180.0000000025727
 51
270.0000000025727
  0
LINE
  5
845F
330
8399
100
AcDbEntity
  8
0
  6
________________
 62
     7
370
     9
100
AcDbLine
 10
84.72150000002132
 20
183.9119999994668
 30
0.0
 11
84.7215000001237
 21
186.1919999994668
 31
0.0
  0
LINE
  5
8460
330
8399
100
AcDbEntity
  8
0
  6
________________
 62
     7
370
     9
100
AcDbLine
 10
84.7215000001237
 20
186.1919999994668
 30
0.0
 11
84.12001961269871
 21
186.1919999994938
 31
0.0
  0
LINE
  5
8461
330
8399
100
AcDbEntity
  8
0
  6
________________
 62
   253
370
     9
100
AcDbLine
 10
84.53054742006765
 20
187.739981378706
 30
0.0
 11
85.6715000001932
 21
187.7399813786548
 31
0.0
  0
LINE
  5
8462
330
8399
100
AcDbEntity
  8
0
  6
________________
 62
     7
370
     9
100
AcDbLine
 10
85.6715000001932
 20
187.7399813786548
 30
0.0
 11
85.67149999983239
 21
179.7040186201935
 31
0.0
  0
LINE
  5
8463
330
8399
100
AcDbEntity
  8
0
  6
________________
 62
   253
370
     9
100
AcDbLine
 10
84.32394553473777
 20
179.704018620254
 30
0.0
 11
85.67149999983239
 21
179.7040186201935
 31
0.0
  0
ARC
  5
8464
330
8399
100
AcDbEntity
  8
0
  6
________________
 62
     7
370
     9
100
AcDbCircle
 10
-86.35549999987886
 20
180.7389999993935
 30
0.0
 40
2.280000000000008
210
0.0
220
0.0
230
-1.0
100
AcDbArc
 50
333.0032986700837
 51
0.0000000025726195
  0
LINE
  5
8465
330
8399
100
AcDbEntity
  8
0
  6
________________
 62
     7
370
     9
100
AcDbLine
 10
84.0754999998797
 20
180.7579999994958
 30
0.0
 11
84.72149999987971
 21
180.7579999994668
 31
0.0
  0
LINE
  5
8466
330
8399
100
AcDbEntity
  8
0
  6
________________
 62
     7
370
     9
100
AcDbLine
 10
85.67149999978122
 20
178.5640186201935
 30
0.0
 11
85.67149999983239
 21
179.7040186201935
 31
0.0
  0
LINE
  5
8467
330
8399
100
AcDbEntity
  8
0
  6
________________
 62
     7
370
     9
100
AcDbLine
 10
85.6714999997812
 20
178.5640186201935
 30
0.0
 11
85.62044732371923
 21
178.5807373732817
 31
0.0
  0
LINE
  5
8468
330
8399
100
AcDbEntity
  8
0
  6
________________
 62
     7
370
     9
100
AcDbLine
 10
85.62044732371923
 20
178.5807373732817
 30
0.0
 11
85.42494363911318
 21
178.6575426110623
 31
0.0
  0
ARC
  5
8469
330
8399
100
AcDbEntity
  8
0
  6
________________
 62
     7
370
     9
100
AcDbCircle
 10
-86.35565435576464
 20
180.739127528421
 30
0.0
 40
2.280195426976578
210
0.0
220
0.0
230
-1.0
100
AcDbArc
 50
307.8706750632829
 51
333.0022040038748
  0
LINE
  5
846A
330
8399
100
AcDbEntity
  8
0
  6
________________
 62
     7
370
     9
100
AcDbLine
 10
85.6715000001932
 20
187.7399813786548
 30
0.0
 11
85.67150000024438
 21
188.8799813786548
 31
0.0
  0
LINE
  5
846B
330
8399
100
AcDbEntity
  8
0
  6
________________
 62
     7
370
     9
100
AcDbLine
 10
85.13564937821587
 20
188.6312306346433
 30
0.0
 11
85.67150000024438
 21
188.8799813786548
 31
0.0
  0
ARC
  5
846C
330
8399
100
AcDbEntity
  8
0
  6
________________
 62
     7
370
     9
100
AcDbCircle
 10
79.9715
 20
194.21
 30
0.0
 40
0.1899999999999957
100
AcDbArc
 50
180.0
 51
270.0
  0
ARC
  5
846D
330
8399
100
AcDbEntity
  8
0
  6
________________
 62
     7
370
     9
100
AcDbCircle
 10
82.8975
 20
194.5558191924088
 30
0.0
 40
0.3800000000000053
100
AcDbArc
 50
0.0
 51
44.99999999999984
  0
LINE
  5
846E
330
8399
100
AcDbEntity
  8
0
  6
________________
 62
     7
370
     9
100
AcDbLine
 10
73.26450000000001
 20
185.603
 30
0.0
 11
73.2645
 21
185.508
 31
0.0
  0
ARC
  5
846F
330
8399
100
AcDbEntity
  8
0
  6
________________
 62
     7
370
     9
100
AcDbCircle
 10
71.11749999999999
 20
184.7441808075913
 30
0.0
 40
0.3800000000000053
100
AcDbArc
 50
180.0
 51
225.0
  0
ARC
  5
8470
330
8399
100
AcDbEntity
  8
0
  6
________________
 62
     7
370
     9
100
AcDbCircle
 10
73.7585
 20
185.603
 30
0.0
 40
0.4939999999999944
100
AcDbArc
 50
0.0
 51
90.0
  0
ARC
  5
8471
330
8399
100
AcDbEntity
  8
0
  6
________________
 62
     7
370
     9
100
AcDbCircle
 10
82.25150000000001
 20
183.722
 30
0.0
 40
0.114000000000003
100
AcDbArc
 50
269.9999999999987
 51
315.0
  0
ARC
  5
8472
330
8399
100
AcDbEntity
  8
0
  6
________________
 62
     7
370
     9
100
AcDbCircle
 10
82.25150000000001
 20
183.722
 30
0.0
 40
0.114000000000003
100
AcDbArc
 50
180.0
 51
270.0
  0
ARC
  5
8473
330
8399
100
AcDbEntity
  8
0
  6
________________
 62
     7
370
     9
100
AcDbCircle
 10
82.25150000000001
 20
195.578
 30
0.0
 40
0.114000000000003
100
AcDbArc
 50
90.0
 51
180.0
  0
ARC
  5
8474
330
8399
100
AcDbEntity
  8
0
  6
________________
 62
     7
370
     9
100
AcDbCircle
 10
71.76350000000001
 20
195.578
 30
0.0
 40
0.1139999999999891
100
AcDbArc
 50
0.0
 51
90.00000000000334
  0
ARC
  5
8475
330
8399
100
AcDbEntity
  8
0
  6
________________
 62
     7
370
     9
100
AcDbCircle
 10
71.7635
 20
195.578
 30
0.0
 40
0.114000000000003
100
AcDbArc
 50
90.0
 51
135.0000000000002
  0
ARC
  5
8476
330
8399
100
AcDbEntity
  8
0
  6
________________
 62
     7
370
     9
100
AcDbCircle
 10
-71.9915
 20
195.084
 30
0.0
 40
0.114000000000003
210
0.0
220
0.0
230
-1.0
100
AcDbArc
 50
270.0
 51
0.0
  0
ARC
  5
8477
330
8399
100
AcDbEntity
  8
0
  6
________________
 62
     7
370
     9
100
AcDbCircle
 10
71.11749999999999
 20
194.5558191924088
 30
0.0
 40
0.3799999999999932
100
AcDbArc
 50
135.0
 51
180.0
  0
LINE
  5
8478
330
8399
100
AcDbEntity
  8
0
  6
________________
 62
     7
370
     9
100
AcDbLine
 10
73.0935
 20
197.63
 30
0.0
 11
73.0935
 21
195.16
 31
0.0
  0
LINE
  5
8479
330
8399
100
AcDbEntity
  8
0
  6
________________
 62
     7
370
     9
100
AcDbLine
 10
82.33211017305527
 20
195.6586101730553
 30
0.0
 11
83.1662005768509
 21
194.8245197692597
 31
0.0
  0
LINE
  5
847A
330
8399
100
AcDbEntity
  8
0
  6
________________
 62
     7
370
     9
100
AcDbLine
 10
70.84879942314912
 20
194.8245197692597
 30
0.0
 11
71.68288982694473
 21
195.6586101730553
 31
0.0
  0
ARC
  5
847B
330
8399
100
AcDbEntity
  8
0
  6
________________
 62
     7
370
     9
100
AcDbCircle
 10
82.25150000000001
 20
195.578
 30
0.0
 40
0.1139999999999999
100
AcDbArc
 50
45.00000000000094
 51
90.00000000000134
  0
LINE
  5
847C
330
8399
100
AcDbEntity
  8
0
  6
________________
 62
     7
370
     9
100
AcDbLine
 10
77.12150000000001
 20
196.49
 30
0.0
 11
77.00750000000001
 21
196.604
 31
0.0
  0
LINE
  5
847D
330
8399
100
AcDbEntity
  8
0
  6
________________
 62
     7
370
     9
100
AcDbLine
 10
70.73750000000001
 20
189.536
 30
0.0
 11
70.8515
 21
189.65
 31
0.0
  0
LINE
  5
847E
330
8399
100
AcDbEntity
  8
0
  6
________________
 62
     7
370
     9
100
AcDbLine
 10
83.16620057685088
 20
184.4754802307404
 30
0.0
 11
82.33211017305527
 21
183.6413898269448
 31
0.0
  0
ARC
  5
847F
330
8399
100
AcDbEntity
  8
0
  6
________________
 62
     7
370
     9
100
AcDbCircle
 10
-72.06750000000001
 20
193.83
 30
0.0
 40
0.1900000000000096
210
0.0
220
0.0
230
-1.0
100
AcDbArc
 50
0.0
 51
90.0
  0
LINE
  5
8480
330
8399
100
AcDbEntity
  8
0
  6
________________
 62
     7
370
     9
100
AcDbLine
 10
71.8775
 20
195.084
 30
0.0
 11
71.8775
 21
195.578
 31
0.0
  0
ARC
  5
8481
330
8399
100
AcDbEntity
  8
0
  6
________________
 62
     7
370
     9
100
AcDbCircle
 10
-81.1115
 20
195.16
 30
0.0
 40
0.1899999999999957
210
0.0
220
0.0
230
-1.0
100
AcDbArc
 50
270.0
 51
0.0
  0
ARC
  5
8482
330
8399
100
AcDbEntity
  8
0
  6
________________
 62
     7
370
     9
100
AcDbCircle
 10
-72.9035
 20
195.16
 30
0.0
 40
0.1900000000000096
210
0.0
220
0.0
230
-1.0
100
AcDbArc
 50
180.0
 51
270.0
  0
ARC
  5
8483
330
8399
100
AcDbEntity
  8
0
  6
________________
 62
     7
370
     9
100
AcDbCircle
 10
74.0435
 20
194.21
 30
0.0
 40
0.1899999999999957
100
AcDbArc
 50
270.0
 51
0.0
  0
ARC
  5
8484
330
8399
100
AcDbEntity
  8
0
  6
________________
 62
     7
370
     9
100
AcDbCircle
 10
-82.0235
 20
185.622
 30
0.0
 40
0.114000000000003
210
0.0
220
0.0
230
-1.0
100
AcDbArc
 50
180.0
 51
270.0
  0
ARC
  5
8485
330
8399
100
AcDbEntity
  8
0
  6
________________
 62
     7
370
     9
100
AcDbCircle
 10
-71.9915
 20
185.622
 30
0.0
 40
0.114000000000003
210
0.0
220
0.0
230
-1.0
100
AcDbArc
 50
270.0
 51
0.0
  0
LINE
  5
8486
330
8399
100
AcDbEntity
  8
0
  6
________________
 62
     7
370
     9
100
AcDbLine
 10
70.73750000000001
 20
189.536
 30
0.0
 11
70.73750000000001
 21
184.7441808075913
 31
0.0
  0
ARC
  5
8487
330
8399
100
AcDbEntity
  8
0
  6
________________
 62
     7
370
     9
100
AcDbCircle
 10
82.8975
 20
184.7441808075913
 30
0.0
 40
0.3799999999999932
100
AcDbArc
 50
314.9999999999998
 51
0.0
  0
LINE
  5
8488
330
8399
100
AcDbEntity
  8
0
  6
________________
 62
     7
370
     9
100
AcDbLine
 10
73.2645
 20
185.508
 30
0.0
 11
71.9915
 21
185.508
 31
0.0
  0
ARC
  5
8489
330
8399
100
AcDbEntity
  8
0
  6
________________
 62
     7
370
     9
100
AcDbCircle
 10
73.7585
 20
185.603
 30
0.0
 40
0.4939999999999944
100
AcDbArc
 50
90.0
 51
180.0
  0
LINE
  5
848A
330
8399
100
AcDbEntity
  8
0
  6
________________
 62
     7
370
     9
100
AcDbLine
 10
74.2525
 20
184.368
 30
0.0
 11
74.2525
 21
185.603
 31
0.0
  0
ARC
  5
848B
330
8399
100
AcDbEntity
  8
0
  6
________________
 62
     7
370
     9
100
AcDbCircle
 10
-71.9915
 20
184.254
 30
0.0
 40
0.114000000000003
210
0.0
220
0.0
230
-1.0
100
AcDbArc
 50
0.0
 51
90.0
  0
ARC
  5
848C
330
8399
100
AcDbEntity
  8
0
  6
________________
 62
     7
370
     9
100
AcDbCircle
 10
-81.9475
 20
193.83
 30
0.0
 40
0.1899999999999957
210
0.0
220
0.0
230
-1.0
100
AcDbArc
 50
90.0
 51
180.0
  0
LINE
  5
848D
330
8399
100
AcDbEntity
  8
0
  6
________________
 62
     7
370
     9
100
AcDbLine
 10
71.68288982694472
 20
183.6413898269448
 30
0.0
 11
70.84879942314909
 21
184.4754802307404
 31
0.0
  0
LINE
  5
848E
330
8399
100
AcDbEntity
  8
0
  6
________________
 62
     7
370
     9
100
AcDbLine
 10
70.73750000000001
 20
194.5558191924088
 30
0.0
 11
70.73750000000001
 21
189.764
 31
0.0
  0
ARC
  5
848F
330
8399
100
AcDbEntity
  8
0
  6
________________
 62
     7
370
     9
100
AcDbCircle
 10
-82.0235
 20
195.084
 30
0.0
 40
0.114000000000003
210
0.0
220
0.0
230
-1.0
100
AcDbArc
 50
180.0
 51
270.0
  0
LINE
  5
8490
330
8399
100
AcDbEntity
  8
0
  6
________________
 62
     7
370
     9
100
AcDbLine
 10
82.1375
 20
195.578
 30
0.0
 11
82.1375
 21
195.5020000003138
 31
0.0
  0
LINE
  5
8491
330
8399
100
AcDbEntity
  8
0
  6
________________
 62
     7
370
     9
100
AcDbLine
 10
82.1375
 20
195.5020000003138
 30
0.0
 11
82.1375
 21
195.084
 31
0.0
  0
LINE
  5
8492
330
8399
100
AcDbEntity
  8
0
  6
________________
 62
     7
370
     9
100
AcDbLine
 10
77.00750000000001
 20
196.604
 30
0.0
 11
76.8935
 21
196.49
 31
0.0
  0
LINE
  5
8493
330
8399
100
AcDbEntity
  8
0
  6
________________
 62
     7
370
     9
100
AcDbLine
 10
71.8775
 20
183.722
 30
0.0
 11
71.8775
 21
184.254
 31
0.0
  0
LINE
  5
8494
330
8399
100
AcDbEntity
  8
0
  6
________________
 62
     7
370
     9
100
AcDbLine
 10
70.8515
 20
189.65
 30
0.0
 11
70.73750000000001
 21
189.764
 31
0.0
  0
LINE
  5
8495
330
8399
100
AcDbEntity
  8
0
  6
________________
 62
     7
370
     9
100
AcDbLine
 10
71.8775
 20
185.622
 30
0.0
 11
71.8775
 21
193.83
 31
0.0
  0
LINE
  5
8496
330
8399
100
AcDbEntity
  8
0
  6
________________
 62
     7
370
     9
100
AcDbLine
 10
82.0235
 20
194.97
 30
0.0
 11
81.1115
 21
194.97
 31
0.0
  0
ARC
  5
8497
330
8399
100
AcDbEntity
  8
0
  6
________________
 62
     7
370
     9
100
AcDbCircle
 10
71.76350000000001
 20
183.722
 30
0.0
 40
0.114000000000003
100
AcDbArc
 50
269.9999999999937
 51
0.0
  0
ARC
  5
8498
330
8399
100
AcDbEntity
  8
0
  6
________________
 62
     7
370
     9
100
AcDbCircle
 10
71.7635
 20
183.722
 30
0.0
 40
0.1140000000000097
100
AcDbArc
 50
225.0000000000004
 51
270.0
  0
ARC
  5
8499
330
8399
100
AcDbEntity
  8
0
  6
________________
 62
     7
370
     9
100
AcDbCircle
 10
80.2565
 20
185.603
 30
0.0
 40
0.4939999999999944
100
AcDbArc
 50
0.0
 51
90.0
  0
LINE
  5
849A
330
8399
100
AcDbEntity
  8
0
  6
________________
 62
     7
370
     9
100
AcDbLine
 10
72.9035
 20
194.97
 30
0.0
 11
71.9915
 21
194.97
 31
0.0
  0
LINE
  5
849B
330
8399
100
AcDbEntity
  8
0
  6
________________
 62
     7
370
     9
100
AcDbLine
 10
80.92150000000001
 20
197.63
 30
0.0
 11
73.0935
 21
197.63
 31
0.0
  0
LINE
  5
849C
330
8399
100
AcDbEntity
  8
0
  6
________________
 62
     7
370
     9
100
AcDbLine
 10
80.92150000000001
 20
195.16
 30
0.0
 11
80.92150000000001
 21
197.63
 31
0.0
  0
LINE
  5
849D
330
8399
100
AcDbEntity
  8
0
  6
________________
 62
     7
370
     9
100
AcDbLine
 10
74.2335
 20
196.49
 30
0.0
 11
76.8935
 21
196.49
 31
0.0
  0
LINE
  5
849E
330
8399
100
AcDbEntity
  8
0
  6
________________
 62
     7
370
     9
100
AcDbLine
 10
77.12150000000001
 20
196.49
 30
0.0
 11
79.78150000000001
 21
196.49
 31
0.0
  0
LINE
  5
849F
330
8399
100
AcDbEntity
  8
0
  6
________________
 62
     7
370
     9
100
AcDbLine
 10
82.1375
 20
193.83
 30
0.0
 11
82.1375
 21
185.622
 31
0.0
  0
LINE
  5
84A0
330
8399
100
AcDbEntity
  8
0
  6
________________
 62
     7
370
     9
100
AcDbLine
 10
79.7625
 20
184.368
 30
0.0
 11
82.0235
 21
184.368
 31
0.0
  0
LINE
  5
84A1
330
8399
100
AcDbEntity
  8
0
  6
________________
 62
     7
370
     9
100
AcDbLine
 10
82.0235
 20
185.508
 30
0.0
 11
80.7505
 21
185.508
 31
0.0
  0
LINE
  5
84A2
330
8399
100
AcDbEntity
  8
0
  6
________________
 62
     7
370
     9
100
AcDbLine
 10
71.9915
 20
184.368
 30
0.0
 11
74.2525
 21
184.368
 31
0.0
  0
LINE
  5
84A3
330
8399
100
AcDbEntity
  8
0
  6
________________
 62
     7
370
     9
100
AcDbLine
 10
72.06750000000001
 20
194.02
 30
0.0
 11
74.0435
 21
194.02
 31
0.0
  0
LINE
  5
84A4
330
8399
100
AcDbEntity
  8
0
  6
________________
 62
     7
370
     9
100
AcDbLine
 10
74.2335
 20
194.21
 30
0.0
 11
74.2335
 21
196.49
 31
0.0
  0
LINE
  5
84A5
330
8399
100
AcDbEntity
  8
0
  6
________________
 62
     7
370
     9
100
AcDbLine
 10
82.1375
 20
184.254
 30
0.0
 11
82.1375
 21
183.9899095957957
 31
0.0
  0
LINE
  5
84A6
330
8399
100
AcDbEntity
  8
0
  6
________________
 62
     7
370
     9
100
AcDbLine
 10
82.1375
 20
183.9899095957957
 30
0.0
 11
82.1375
 21
183.722
 31
0.0
  0
ARC
  5
84A7
330
8399
100
AcDbEntity
  8
0
  6
________________
 62
     7
370
     9
100
AcDbCircle
 10
-82.0235
 20
184.254
 30
0.0
 40
0.114000000000003
210
0.0
220
0.0
230
-1.0
100
AcDbArc
 50
89.99999999999868
 51
180.0
  0
LINE
  5
84A8
330
8399
100
AcDbEntity
  8
0
  6
________________
 62
     7
370
     9
100
AcDbLine
 10
79.7625
 20
185.603
 30
0.0
 11
79.7625
 21
184.368
 31
0.0
  0
ARC
  5
84A9
330
8399
100
AcDbEntity
  8
0
  6
________________
 62
     7
370
     9
100
AcDbCircle
 10
80.2565
 20
185.603
 30
0.0
 40
0.4939999999999944
100
AcDbArc
 50
90.00000000000016
 51
180.0
  0
LINE
  5
84AA
330
8399
100
AcDbEntity
  8
0
  6
________________
 62
     7
370
     9
100
AcDbLine
 10
80.7505
 20
185.508
 30
0.0
 11
80.7505
 21
185.603
 31
0.0
  0
LINE
  5
84AB
330
8399
100
AcDbEntity
  8
0
  6
________________
 62
     7
370
     9
100
AcDbLine
 10
79.78150000000001
 20
196.49
 30
0.0
 11
79.78150000000001
 21
194.21
 31
0.0
  0
LINE
  5
84AC
330
8399
100
AcDbEntity
  8
0
  6
________________
 62
     7
370
     9
100
AcDbLine
 10
79.9715
 20
194.02
 30
0.0
 11
81.9475
 21
194.02
 31
0.0
  0
LINE
  5
84AD
330
8399
100
AcDbEntity
  8
0
  6
________________
 62
     7
370
     9
100
AcDbLine
 10
83.2775
 20
189.764
 30
0.0
 11
83.2775
 21
194.5558191924088
 31
0.0
  0
LINE
  5
84AE
330
8399
100
AcDbEntity
  8
0
  6
________________
 62
     7
370
     9
100
AcDbLine
 10
83.2775
 20
184.7441808075913
 30
0.0
 11
83.2775
 21
189.536
 31
0.0
  0
LINE
  5
84AF
330
8399
100
AcDbEntity
  8
0
  6
________________
 62
     7
370
     9
100
AcDbLine
 10
83.1635
 20
189.65
 30
0.0
 11
83.2775
 21
189.536
 31
0.0
  0
LINE
  5
84B0
330
8399
100
AcDbEntity
  8
0
  6
________________
 62
     7
370
     9
100
AcDbLine
 10
83.2775
 20
189.764
 30
0.0
 11
83.1635
 21
189.65
 31
0.0
  0
LINE
  5
84B1
330
8399
100
AcDbEntity
  8
0
  6
________________
 62
   253
370
     9
100
AcDbLine
 10
75.72500001417876
 20
194.589999998727
 30
0.0
 11
75.725000014008
 21
191.9299999987273
 31
0.0
  0
LINE
  5
84B2
330
8399
100
AcDbEntity
  8
0
  6
________________
 62
   253
370
     9
100
AcDbLine
 10
75.72500001370797
 20
187.2559999987274
 30
0.0
 11
75.72500001342256
 21
182.8100075987268
 31
0.0
  0
LINE
  5
84B3
330
8399
100
AcDbEntity
  8
0
  6
________________
 62
   253
370
     9
100
AcDbLine
 10
78.29000001342256
 20
182.8100075985621
 30
0.0
 11
78.29000001370797
 21
187.2559999985627
 31
0.0
  0
LINE
  5
84B4
330
8399
100
AcDbEntity
  8
0
  6
________________
 62
   253
370
     9
100
AcDbLine
 10
78.290000014008
 20
191.9299999985627
 30
0.0
 11
78.29000001417876
 21
194.5899999985623
 31
0.0
  0
LINE
  5
84B5
330
8399
100
AcDbEntity
  8
0
  6
________________
 62
     7
370
     9
100
AcDbLine
 10
80.40850001322738
 20
179.7699999984261
 30
0.0
 11
80.40850001325667
 21
180.2259999984261
 31
0.0
  0
LINE
  5
84B6
330
8399
100
AcDbEntity
  8
0
  6
________________
 62
     7
370
     9
100
AcDbLine
 10
73.60650001325669
 20
180.2259999988628
 30
0.0
 11
73.60650001322742
 21
179.7699999988628
 31
0.0
  0
LINE
  5
84B7
330
8399
100
AcDbEntity
  8
0
  6
________________
 62
     7
370
     9
100
AcDbLine
 10
75.48750001416388
 20
194.3524999987426
 30
0.0
 11
75.48750001400838
 21
191.9300073564288
 31
0.0
  0
LINE
  5
84B8
330
8399
100
AcDbEntity
  8
0
  6
________________
 62
     7
370
     9
100
AcDbLine
 10
75.48750001370834
 20
187.2559926408612
 30
0.0
 11
75.48750001342293
 21
182.8100073564283
 31
0.0
  0
LINE
  5
84B9
330
8399
100
AcDbEntity
  8
0
  6
________________
 62
     7
370
     9
100
AcDbLine
 10
78.52750001342218
 20
182.8100073564283
 30
0.0
 11
78.52750001370758
 21
187.2559926408612
 31
0.0
  0
LINE
  5
84BA
330
8399
100
AcDbEntity
  8
0
  6
________________
 62
     7
370
     9
100
AcDbLine
 10
78.52750001400761
 20
191.9300073564288
 30
0.0
 11
78.52750001416312
 21
194.3524999985474
 31
0.0
  0
LINE
  5
84BB
330
8399
100
AcDbEntity
  8
0
  6
________________
 62
     7
370
     9
100
AcDbLine
 10
78.52750001416312
 20
194.3524999985474
 30
0.0
 11
78.29000001417843
 21
194.5899999985627
 31
0.0
  0
LINE
  5
84BC
330
8399
100
AcDbEntity
  8
0
  6
________________
 62
     7
370
     9
100
AcDbLine
 10
75.72500001417907
 20
194.5899999987274
 30
0.0
 11
75.48750001416388
 21
194.3524999987426
 31
0.0
  0
LINE
  5
84BD
330
8399
100
AcDbEntity
  8
0
  6
________________
 62
     7
370
     9
100
AcDbLine
 10
81.39650000859235
 20
193.5829999982444
 30
0.0
 11
80.87080069501012
 21
193.5829999983117
 31
0.0
  0
LINE
  5
84BE
330
8399
100
AcDbEntity
  8
0
  6
________________
 62
     7
370
     9
100
AcDbLine
 10
80.8708006939883
 20
185.6029999983117
 30
0.0
 11
81.39650000757055
 21
185.6029999982443
 31
0.0
  0
LINE
  5
84BF
330
8399
100
AcDbEntity
  8
0
  6
________________
 62
     7
370
     9
100
AcDbLine
 10
80.87080069501012
 20
193.5829999983117
 30
0.0
 11
80.75013448872272
 21
193.3739999983271
 31
0.0
  0
LINE
  5
84C0
330
8399
100
AcDbEntity
  8
0
  6
________________
 62
     7
370
     9
100
AcDbLine
 10
80.75013448775445
 20
185.8119999983271
 30
0.0
 11
80.8708006939883
 21
185.6029999983117
 31
0.0
  0
LINE
  5
84C1
330
8399
100
AcDbEntity
  8
0
  6
________________
 62
     7
370
     9
100
AcDbLine
 10
79.64219932115277
 20
185.602999998469
 30
0.0
 11
79.76286552744017
 21
185.8119999984535
 31
0.0
  0
LINE
  5
84C2
330
8399
100
AcDbEntity
  8
0
  6
________________
 62
     7
370
     9
100
AcDbLine
 10
79.76286552840847
 20
193.3739999984535
 30
0.0
 11
79.6421993221746
 21
193.582999998469
 31
0.0
  0
LINE
  5
84C3
330
8399
100
AcDbEntity
  8
0
  6
________________
 62
     7
370
     9
100
AcDbLine
 10
79.6421993221746
 20
193.582999998469
 30
0.0
 11
79.11650000859237
 21
193.5829999985363
 31
0.0
  0
LINE
  5
84C4
330
8399
100
AcDbEntity
  8
0
  6
________________
 62
     7
370
     9
100
AcDbLine
 10
79.11650000757055
 20
185.6029999985363
 30
0.0
 11
79.64219932115277
 21
185.602999998469
 31
0.0
  0
ARC
  5
84C5
330
8399
100
AcDbEntity
  8
0
  6
________________
 62
     7
370
     9
100
AcDbCircle
 10
-80.2565000086021
 20
193.6589999983903
 30
0.0
 40
0.56999999999998
210
0.0
220
0.0
230
-1.0
100
AcDbArc
 50
210.000000007336
 51
330.0000000073373
  0
ARC
  5
84C6
330
8399
100
AcDbEntity
  8
0
  6
________________
 62
     7
370
     9
100
AcDbCircle
 10
-80.25650000756082
 20
185.5269999983903
 30
0.0
 40
0.570000000000006
210
0.0
220
0.0
230
-1.0
100
AcDbArc
 50
30.00000000733591
 51
89.99999431274757
  0
ARC
  5
84C7
330
8399
100
AcDbEntity
  8
0
  6
________________
 62
     7
370
     9
100
AcDbCircle
 10
-80.25650000756082
 20
185.5269999983903
 30
0.0
 40
0.5700000000000177
210
0.0
220
0.0
230
-1.0
100
AcDbArc
 50
89.99999431274762
 51
150.0000000073372
  0
LINE
  5
84C8
330
8399
100
AcDbEntity
  8
0
  6
________________
 62
     7
370
     9
100
AcDbLine
 10
74.37280069449773
 20
185.6029999992221
 30
0.0
 11
74.89850000807996
 21
185.6029999992219
 31
0.0
  0
LINE
  5
84C9
330
8399
100
AcDbEntity
  8
0
  6
________________
 62
     7
370
     9
100
AcDbLine
 10
74.89850000808292
 20
193.5829999992219
 30
0.0
 11
74.37280069450068
 21
193.5829999992221
 31
0.0
  0
LINE
  5
84CA
330
8399
100
AcDbEntity
  8
0
  6
________________
 62
     7
370
     9
100
AcDbLine
 10
74.37280069450068
 20
193.5829999992221
 30
0.0
 11
74.25213448823997
 21
193.3739999992221
 31
0.0
  0
LINE
  5
84CB
330
8399
100
AcDbEntity
  8
0
  6
________________
 62
     7
370
     9
100
AcDbLine
 10
74.25213448823717
 20
185.8119999992221
 30
0.0
 11
74.37280069449773
 21
185.6029999992221
 31
0.0
  0
LINE
  5
84CC
330
8399
100
AcDbEntity
  8
0
  6
________________
 62
     7
370
     9
100
AcDbLine
 10
73.1441993216622
 20
185.6029999992226
 30
0.0
 11
73.26486552792291
 21
185.8119999992225
 31
0.0
  0
LINE
  5
84CD
330
8399
100
AcDbEntity
  8
0
  6
________________
 62
     7
370
     9
100
AcDbLine
 10
73.2648655279257
 20
193.3739999992225
 30
0.0
 11
73.14419932166516
 21
193.5829999992226
 31
0.0
  0
LINE
  5
84CE
330
8399
100
AcDbEntity
  8
0
  6
________________
 62
     7
370
     9
100
AcDbLine
 10
72.61850000807996
 20
185.6029999992228
 30
0.0
 11
73.1441993216622
 21
185.6029999992226
 31
0.0
  0
LINE
  5
84CF
330
8399
100
AcDbEntity
  8
0
  6
________________
 62
     7
370
     9
100
AcDbLine
 10
73.14419932166516
 20
193.5829999992226
 30
0.0
 11
72.6185000080829
 21
193.5829999992227
 31
0.0
  0
ARC
  5
84D0
330
8399
100
AcDbEntity
  8
0
  6
________________
 62
     7
370
     9
100
AcDbCircle
 10
-73.75850000807995
 20
185.5269999992223
 30
0.0
 40
0.5700000000000021
210
0.0
220
0.0
230
-1.0
100
AcDbArc
 50
30.00000000002055
 51
89.99999390382348
  0
ARC
  5
84D1
330
8399
100
AcDbEntity
  8
0
  6
________________
 62
     7
370
     9
100
AcDbCircle
 10
-73.75850000807995
 20
185.5269999992223
 30
0.0
 40
0.5699999999999904
210
0.0
220
0.0
230
-1.0
100
AcDbArc
 50
89.9999939038235
 51
150.000000000022
  0
ARC
  5
84D2
330
8399
100
AcDbEntity
  8
0
  6
________________
 62
     7
370
     9
100
AcDbCircle
 10
-73.75850000808293
 20
193.6589999992223
 30
0.0
 40
0.5700000000000021
210
0.0
220
0.0
230
-1.0
100
AcDbArc
 50
210.0000000000205
 51
330.0000000000217
  0
LINE
  5
84D3
330
8399
100
AcDbEntity
  8
0
  6
________________
 62
     7
370
     9
100
AcDbLine
 10
79.11650000825176
 20
190.922999998375
 30
0.0
 11
78.86950001186678
 21
190.9229999984066
 31
0.0
  0
LINE
  5
84D4
330
8399
100
AcDbEntity
  8
0
  6
________________
 62
     7
370
     9
100
AcDbLine
 10
75.14550001833682
 20
190.9229999988834
 30
0.0
 11
74.89850000535885
 21
190.922999998915
 31
0.0
  0
LINE
  5
84D5
330
8399
100
AcDbEntity
  8
0
  6
________________
 62
     7
370
     9
100
AcDbLine
 10
74.89850000535787
 20
188.262999998915
 30
0.0
 11
75.14550001816608
 21
188.2629999988834
 31
0.0
  0
LINE
  5
84D6
330
8399
100
AcDbEntity
  8
0
  6
________________
 62
     7
370
     9
100
AcDbLine
 10
78.86950001816606
 20
188.2629999984066
 30
0.0
 11
79.11650000791114
 21
188.262999998375
 31
0.0
  0
LINE
  5
84D7
330
8399
100
AcDbEntity
  8
0
  6
________________
 62
     7
370
     9
100
AcDbLine
 10
78.86950000908354
 20
191.6532297138031
 30
0.0
 11
75.14550000908353
 21
191.6532297140421
 31
0.0
  0
LINE
  5
84D8
330
8399
100
AcDbEntity
  8
0
  6
________________
 62
     7
370
     9
100
AcDbLine
 10
75.14550000881903
 20
187.5327702834869
 30
0.0
 11
78.86950000881902
 21
187.5327702832479
 31
0.0
  0
ENDBLK
  5
84D9
330
8399
100
AcDbEntity
  8
0
100
AcDbBlockEnd
  0
BLOCK
  5
13844
330
1383A
100
AcDbEntity
  8
0
100
AcDbBlockBegin
  2
*D3
 70
     1
 10
0.0
 20
0.0
 30
0.0
  3
*D3
  1

  0
LINE
  5
1383B
330
1383A
100
AcDbEntity
  8
0
  6
ByBlock
 62
     7
370
     0
100
AcDbLine
 10
69.2500705752841
 20
253.0014099999996
 30
0.0
 11
48.4268052472473
 21
253.0014099999996
 31
0.0
  0
LINE
  5
1383C
330
1383A
100
AcDbEntity
  8
0
  6
ByBlock
 62
     7
370
     0
100
AcDbLine
 10
72.44997449641801
 20
300.0
 30
0.0
 11
48.4268052472473
 21
300.0
 31
0.0
  0
LINE
  5
1383D
330
1383A
100
AcDbEntity
  8
0
  6
ByBlock
 62
     7
370
     0
100
AcDbLine
 10
49.1768052472473
 20
254.2514099999996
 30
0.0
 11
49.1768052472473
 21
298.75
 31
0.0
  0
SOLID
  5
1383E
330
1383A
100
AcDbEntity
  8
0
 62
     7
100
AcDbTrace
 10
48.96847191391397
 20
254.2514099999996
 30
0.0
 11
49.38513858058064
 21
254.2514099999996
 31
0.0
 12
49.1768052472473
 22
253.0014099999996
 32
0.0
 13
49.1768052472473
 23
253.0014099999996
 33
0.0
  0
SOLID
  5
1383F
330
1383A
100
AcDbEntity
  8
0
 62
     7
100
AcDbTrace
 10
49.38513858058064
 20
298.75
 30
0.0
 11
48.96847191391397
 21
298.75
 31
0.0
 12
49.1768052472473
 22
300.0
 32
0.0
 13
49.1768052472473
 23
300.0
 33
0.0
  0
MTEXT
  5
13840
330
1383A
100
AcDbEntity
  8
0
  6
ByBlock
 62
     7
370
     0
100
AcDbMText
 10
46.67180024224231
 20
276.5007049999998
 30
0.0
 40
2.5
 41
0.0
 71
     5
 72
     1
  1
\A1;47.00
 11
0.0
 21
1.0
 31
0.0
 73
     1
 44
1.0
  0
POINT
  5
13841
330
1383A
100
AcDbEntity
  8
Defpoints
 62
     0
100
AcDbPoint
 10
69.2500705752841
 20
253.0014099999996
 30
0.0
  0
POINT
  5
13842
330
1383A
100
AcDbEntity
  8
Defpoints
 62
     0
100
AcDbPoint
 10
72.44997449641801
 20
300.0
 30
0.0
  0
POINT
  5
13843
330
1383A
100
AcDbEntity
  8
Defpoints
 62
     0
100
AcDbPoint
 10
49.1768052472473
 20
300.0
 30
0.0
  0
ENDBLK
  5
13845
330
1383A
100
AcDbEntity
  8
0
100
AcDbBlockEnd
  0
BLOCK
  5
1388B
330
13881
100
AcDbEntity
  8
0
100
AcDbBlockBegin
  2
*D4
 70
     1
 10
0.0
 20
0.0
 30
0.0
  3
*D4
  1

  0
LINE
  5
13882
330
13881
100
AcDbEntity
  8
0
  6
ByBlock
 62
     7
370
     0
100
AcDbLine
 10
82.74966549641749
 20
253.0014100000001
 30
0.0
 11
130.3054291962213
 21
253.0014100000001
 31
0.0
  0
LINE
  5
13883
330
13881
100
AcDbEntity
  8
0
  6
ByBlock
 62
     7
370
     0
100
AcDbLine
 10
82.74966549641749
 20
290.0002399964344
 30
0.0
 11
130.3054291962213
 21
290.0002399964344
 31
0.0
  0
LINE
  5
13884
330
13881
100
AcDbEntity
  8
0
  6
ByBlock
 62
     7
370
     0
100
AcDbLine
 10
129.5554291962213
 20
254.2514100000001
 30
0.0
 11
129.5554291962213
 21
288.7502399964344
 31
0.0
  0
SOLID
  5
13885
330
13881
100
AcDbEntity
  8
0
 62
     7
100
AcDbTrace
 10
129.347095862888
 20
254.2514100000001
 30
0.0
 11
129.7637625295547
 21
254.2514100000001
 31
0.0
 12
129.5554291962213
 22
253.0014100000001
 32
0.0
 13
129.5554291962213
 23
253.0014100000001
 33
0.0
  0
SOLID
  5
13886
330
13881
100
AcDbEntity
  8
0
 62
     7
100
AcDbTrace
 10
129.7637625295547
 20
288.7502399964344
 30
0.0
 11
129.347095862888
 21
288.7502399964344
 31
0.0
 12
129.5554291962213
 22
290.0002399964344
 32
0.0
 13
129.5554291962213
 23
290.0002399964344
 33
0.0
  0
MTEXT
  5
13887
330
13881
100
AcDbEntity
  8
0
  6
ByBlock
 62
     7
370
     0
100
AcDbMText
 10
127.0504241912163
 20
271.5008249982172
 30
0.0
 40
2.5
 41
0.0
 71
     5
 72
     1
  1
\A1;37.00
 11
0.0
 21
1.0
 31
0.0
 73
     1
 44
1.0
  0
POINT
  5
13888
330
13881
100
AcDbEntity
  8
Defpoints
 62
     0
100
AcDbPoint
 10
82.74966549641749
 20
253.0014100000001
 30
0.0
  0
POINT
  5
13889
330
13881
100
AcDbEntity
  8
Defpoints
 62
     0
100
AcDbPoint
 10
82.74966549641749
 20
290.0002399964344
 30
0.0
  0
POINT
  5
1388A
330
13881
100
AcDbEntity
  8
Defpoints
 62
     0
100
AcDbPoint
 10
129.5554291962213
 20
290.0002399964344
 30
0.0
  0
ENDBLK
  5
1388C
330
13881
100
AcDbEntity
  8
0
100
AcDbBlockEnd
  0
BLOCK
  5
1389A
330
13890
100
AcDbEntity
  8
0
100
AcDbBlockBegin
  2
*D5
 70
     1
 10
0.0
 20
0.0
 30
0.0
  3
*D5
  1

  0
LINE
  5
13891
330
13890
100
AcDbEntity
  8
0
  6
ByBlock
 62
     7
370
     0
100
AcDbLine
 10
72.44997449641801
 20
300.0
 30
0.0
 11
51.25464011881439
 21
301.443086560355
 31
0.0
  0
LINE
  5
13892
330
13890
100
AcDbEntity
  8
0
  6
ByBlock
 62
     7
370
     0
100
AcDbLine
 10
69.2500705752841
 20
253.0014099999996
 30
0.0
 11
48.05473619768048
 21
254.4444965603547
 31
0.0
  0
LINE
  5
13893
330
13890
100
AcDbEntity
  8
0
  6
ByBlock
 62
     7
370
     0
100
AcDbLine
 10
51.9179979909114
 20
300.1450278815863
 30
0.0
 11
48.88791368031315
 21
255.640663472802
 31
0.0
  0
SOLID
  5
13894
330
13890
100
AcDbEntity
  8
0
 62
     7
100
AcDbTrace
 10
52.12585012351275
 20
300.1308762473749
 30
0.0
 11
51.71014585831006
 21
300.1591795157976
 31
0.0
 12
52.00290779617923
 22
301.3921406771943
 32
0.0
 13
52.00290779617923
 23
301.3921406771943
 33
0.0
  0
SOLID
  5
13895
330
13890
100
AcDbEntity
  8
0
 62
     7
100
AcDbTrace
 10
48.6800615477118
 20
255.6548151070133
 30
0.0
 11
49.09576581291449
 21
255.6265118385907
 31
0.0
 12
48.80300387504532
 22
254.393550677194
 32
0.0
 13
48.80300387504532
 23
254.393550677194
 33
0.0
  0
MTEXT
  5
13896
330
13890
100
AcDbEntity
  8
0
  6
ByBlock
 62
     7
370
     0
100
AcDbMText
 10
47.90373679976909
 20
278.0630052669301
 30
0.0
 40
2.5
 41
0.0
 71
     5
 72
     1
  1
\A1;47.11
 11
0.06792784421426271
 21
0.9976902364864573
 31
0.0
 73
     1
 44
1.0
  0
POINT
  5
13897
330
13890
100
AcDbEntity
  8
Defpoints
 62
     0
100
AcDbPoint
 10
72.44997449641801
 20
300.0
 30
0.0
  0
POINT
  5
13898
330
13890
100
AcDbEntity
  8
Defpoints
 62
     0
100
AcDbPoint
 10
69.2500705752841
 20
253.0014099999996
 30
0.0
  0
POINT
  5
13899
330
13890
100
AcDbEntity
  8
Defpoints
 62
     0
100
AcDbPoint
 10
48.80300387504532
 20
254.393550677194
 30
0.0
  0
ENDBLK
  5
1389B
330
13890
100
AcDbEntity
  8
0
100
AcDbBlockEnd
  0
BLOCK
  5
138A9
330
1389F
100
AcDbEntity
  8
0
100
AcDbBlockBegin
  2
*D6
 70
     1
 10
0.0
 20
0.0
 30
0.0
  3
*D6
  1

  0
LINE
  5
138A0
330
1389F
100
AcDbEntity
  8
0
  6
ByBlock
 62
     7
370
     0
100
AcDbLine
 10
72.44997449641801
 20
300.0
 30
0.0
 11
47.98334506604074
 21
300.0
 31
0.0
  0
LINE
  5
138A1
330
1389F
100
AcDbEntity
  8
0
  6
ByBlock
 62
     7
370
     0
100
AcDbLine
 10
69.2500705752841
 20
253.0014099999996
 30
0.0
 11
47.98334506604074
 21
253.0014099999996
 31
0.0
  0
LINE
  5
138A2
330
1389F
100
AcDbEntity
  8
0
  6
ByBlock
 62
     7
370
     0
100
AcDbLine
 10
48.73334506604074
 20
298.75
 30
0.0
 11
48.73334506604074
 21
254.2514099999996
 31
0.0
  0
SOLID
  5
138A3
330
1389F
100
AcDbEntity
  8
0
 62
     7
100
AcDbTrace
 10
48.94167839937408
 20
298.75
 30
0.0
 11
48.52501173270741
 21
298.75
 31
0.0
 12
48.73334506604074
 22
300.0
 32
0.0
 13
48.73334506604074
 23
300.0
 33
0.0
  0
SOLID
  5
138A4
330
1389F
100
AcDbEntity
  8
0
 62
     7
100
AcDbTrace
 10
48.52501173270741
 20
254.2514099999996
 30
0.0
 11
48.94167839937408
 21
254.2514099999996
 31
0.0
 12
48.73334506604074
 22
253.0014099999996
 32
0.0
 13
48.73334506604074
 23
253.0014099999996
 33
0.0
  0
MTEXT
  5
138A5
330
1389F
100
AcDbEntity
  8
0
  6
ByBlock
 62
     7
370
     0
100
AcDbMText
 10
46.22834006103575
 20
276.5007049999998
 30
0.0
 40
2.5
 41
0.0
 71
     5
 72
     1
  1
\A1;47.00
 11
0.0
 21
1.0
 31
0.0
 73
     1
 44
1.0
  0
POINT
  5
138A6
330
1389F
100
AcDbEntity
  8
Defpoints
 62
     0
100
AcDbPoint
 10
72.44997449641801
 20
300.0
 30
0.0
  0
POINT
  5
138A7
330
1389F
100
AcDbEntity
  8
Defpoints
 62
     0
100
AcDbPoint
 10
69.2500705752841
 20
253.0014099999996
 30
0.0
  0
POINT
  5
138A8
330
1389F
100
AcDbEntity
  8
Defpoints
 62
     0
100
AcDbPoint
 10
48.73334506604074
 20
253.0014099999996
 30
0.0
  0
ENDBLK
  5
138AA
330
1389F
100
AcDbEntity
  8
0
100
AcDbBlockEnd
  0
BLOCK
  5
138BA
330
138B0
100
AcDbEntity
  8
0
100
AcDbBlockBegin
  2
*D7
 70
     1
 10
0.0
 20
0.0
 30
0.0
  3
*D7
  1

  0
LINE
  5
138B1
330
138B0
100
AcDbEntity
  8
0
  6
ByBlock
 62
     7
370
     0
100
AcDbLine
 10
82.74966551818125
 20
253.0014100000001
 30
0.0
 11
128.716338319379
 21
253.0014100000001
 31
0.0
  0
LINE
  5
138B2
330
138B0
100
AcDbEntity
  8
0
  6
ByBlock
 62
     7
370
     0
100
AcDbLine
 10
82.7496655337294
 20
292.0002399964344
 30
0.0
 11
128.716338319379
 21
292.0002399964344
 31
0.0
  0
LINE
  5
138B3
330
138B0
100
AcDbEntity
  8
0
  6
ByBlock
 62
     7
370
     0
100
AcDbLine
 10
127.966338319379
 20
254.2514100000001
 30
0.0
 11
127.966338319379
 21
290.7502399964344
 31
0.0
  0
SOLID
  5
138B4
330
138B0
100
AcDbEntity
  8
0
 62
     7
100
AcDbTrace
 10
127.7580049860457
 20
254.2514100000001
 30
0.0
 11
128.1746716527124
 21
254.2514100000001
 31
0.0
 12
127.966338319379
 22
253.0014100000001
 32
0.0
 13
127.966338319379
 23
253.0014100000001
 33
0.0
  0
SOLID
  5
138B5
330
138B0
100
AcDbEntity
  8
0
 62
     7
100
AcDbTrace
 10
128.1746716527124
 20
290.7502399964344
 30
0.0
 11
127.7580049860457
 21
290.7502399964344
 31
0.0
 12
127.966338319379
 22
292.0002399964344
 32
0.0
 13
127.966338319379
 23
292.0002399964344
 33
0.0
  0
MTEXT
  5
138B6
330
138B0
100
AcDbEntity
  8
0
  6
ByBlock
 62
     7
370
     0
100
AcDbMText
 10
125.461333314374
 20
272.5008249982172
 30
0.0
 40
2.5
 41
0.0
 71
     5
 72
     1
  1
\A1;39.00
 11
0.0
 21
1.0
 31
0.0
 73
     1
 44
1.0
  0
POINT
  5
138B7
330
138B0
100
AcDbEntity
  8
Defpoints
 62
     0
100
AcDbPoint
 10
82.74966551818125
 20
253.0014100000001
 30
0.0
  0
POINT
  5
138B8
330
138B0
100
AcDbEntity
  8
Defpoints
 62
     0
100
AcDbPoint
 10
82.7496655337294
 20
292.0002399964344
 30
0.0
  0
POINT
  5
138B9
330
138B0
100
AcDbEntity
  8
Defpoints
 62
     0
100
AcDbPoint
 10
127.966338319379
 20
292.0002399964344
 30
0.0
  0
ENDBLK
  5
138BB
330
138B0
100
AcDbEntity
  8
0
100
AcDbBlockEnd
  0
BLOCK
  5
138CA
330
138BF
100
AcDbEntity
  8
0
100
AcDbBlockBegin
  2
*D8
 70
     1
 10
0.0
 20
0.0
 30
0.0
  3
*D8
  1

  0
LINE
  5
138C0
330
138BF
100
AcDbEntity
  8
0
  6
ByBlock
 62
     7
370
     0
100
AcDbLine
 10
86.12456428372866
 20
290.0002399962177
 30
0.0
 11
128.716338319379
 21
290.0002399962177
 31
0.0
  0
LINE
  5
138C1
330
138BF
100
AcDbEntity
  8
0
  6
ByBlock
 62
     7
370
     0
100
AcDbLine
 10
90.04944649641811
 20
297.00009
 30
0.0
 11
128.716338319379
 21
297.00009
 31
0.0
  0
LINE
  5
138C2
330
138BF
100
AcDbEntity
  8
0
  6
ByBlock
 62
     7
370
     0
100
AcDbLine
 10
127.966338319379
 20
297.00009
 30
0.0
 11
127.966338319379
 21
306.0679078178179
 31
0.0
  0
LINE
  5
138C3
330
138BF
100
AcDbEntity
  8
0
  6
ByBlock
 62
     7
370
     0
100
AcDbLine
 10
127.966338319379
 20
291.2502399962177
 30
0.0
 11
127.966338319379
 21
295.75009
 31
0.0
  0
SOLID
  5
138C4
330
138BF
100
AcDbEntity
  8
0
 62
     7
100
AcDbTrace
 10
127.7580049860456
 20
291.2502399962177
 30
0.0
 11
128.1746716527123
 21
291.2502399962177
 31
0.0
 12
127.966338319379
 22
290.0002399962177
 32
0.0
 13
127.966338319379
 23
290.0002399962177
 33
0.0
  0
SOLID
  5
138C5
330
138BF
100
AcDbEntity
  8
0
 62
     7
100
AcDbTrace
 10
128.1746716527123
 20
295.75009
 30
0.0
 11
127.7580049860456
 21
295.75009
 31
0.0
 12
127.966338319379
 22
297.00009
 32
0.0
 13
127.966338319379
 23
297.00009
 33
0.0
  0
MTEXT
  5
138C6
330
138BF
100
AcDbEntity
  8
0
  6
ByBlock
 62
     7
370
     0
100
AcDbMText
 10
125.461333314374
 20
302.1589989089089
 30
0.0
 40
2.5
 41
0.0
 71
     5
 72
     1
  1
\A1;7.00
 11
0.0
 21
1.0
 31
0.0
 73
     1
 44
1.0
  0
POINT
  5
138C7
330
138BF
100
AcDbEntity
  8
Defpoints
 62
     0
100
AcDbPoint
 10
86.12456428372866
 20
290.0002399962177
 30
0.0
  0
POINT
  5
138C8
330
138BF
100
AcDbEntity
  8
Defpoints
 62
     0
100
AcDbPoint
 10
90.04944649641811
 20
297.00009
 30
0.0
  0
POINT
  5
138C9
330
138BF
100
AcDbEntity
  8
Defpoints
 62
     0
100
AcDbPoint
 10
127.966338319379
 20
297.00009
 30
0.0
  0
ENDBLK
  5
138CB
330
138BF
100
AcDbEntity
  8
0
100
AcDbBlockEnd
  0
ENDSEC
  0
SECTION
  2
ENTITIES
  0
LINE
  5
ACB5
330
A
100
AcDbEntity
  8
0
  6
CENTER
 62
     1
370
     0
100
AcDbLine
 10
72.24842735472987
 20
278.8506344988346
 30
0.0
 11
94.73590531756099
 21
278.8506344948828
 31
0.0
  0
LINE
  5
ACB6
330
A
100
AcDbEntity
  8
0
  6
CENTER
 62
     1
370
     0
100
AcDbLine
 10
82.74966549641749
 20
293.8485574086201
 30
0.0
 11
82.74966549641749
 21
247.3884204999999
 31
0.0
  0
ARC
  5
ACB9
330
A
100
AcDbEntity
  8
0
  6
________________
 62
     7
370
     9
100
AcDbCircle
 10
-108.0489064964345
 20
248.1515555000403
 30
0.0
 40
0.4999850000000253
210
0.0
220
0.0
230
-1.0
100
AcDbArc
 50
180.0000000036999
 51
270.0000000036999
  0
LINE
  5
ACBA
330
A
100
AcDbEntity
  8
0
  6
________________
 62
     7
370
     9
100
AcDbLine
 10
108.5488914995626
 20
296.6501005000082
 30
0.0
 11
108.5488914995142
 21
295.9001230000001
 31
0.0
  0
LINE
  5
ACBB
330
A
100
AcDbEntity
  8
0
  6
________________
 62
     7
370
     9
100
AcDbLine
 10
108.5488914995142
 20
295.9001230000001
 30
0.0
 11
108.5488914964828
 21
248.901533
 31
0.0
  0
LINE
  5
ACBC
330
A
100
AcDbEntity
  8
0
  6
________________
 62
     7
370
     9
100
AcDbLine
 10
108.5488914964828
 20
248.901533
 30
0.0
 11
108.5488914964346
 21
248.151555500008
 31
0.0
  0
ARC
  5
ACBD
330
A
100
AcDbEntity
  8
0
  6
________________
 62
     7
370
     9
100
AcDbCircle
 10
-108.0489064995627
 20
296.6501005000405
 30
0.0
 40
0.4999849999999887
210
0.0
220
0.0
230
-1.0
100
AcDbArc
 50
90.00000000369994
 51
180.0000000036999
  0
LINE
  5
ACBE
330
A
100
AcDbEntity
  8
0
  6
________________
 62
     7
370
     9
100
AcDbLine
 10
109.5488614964345
 20
248.1515554999435
 30
0.0
 11
109.5488614995627
 21
296.6501004999436
 31
0.0
  0
LINE
  5
ACBF
330
A
100
AcDbEntity
  8
0
  6
________________
 62
     7
370
     9
100
AcDbLine
 10
100.5491314964022
 20
247.651570500524
 30
0.0
 11
108.0489064964022
 21
247.6515705000404
 31
0.0
  0
LINE
  5
ACC0
330
A
100
AcDbEntity
  8
0
  6
________________
 62
     7
370
     9
100
AcDbLine
 10
108.0489064996593
 20
298.1500555000405
 30
0.0
 11
100.5491314996596
 21
298.1500555005241
 31
0.0
  0
ARC
  5
ACC1
330
A
100
AcDbEntity
  8
0
  6
________________
 62
     7
370
     9
100
AcDbCircle
 10
108.0489064964345
 20
248.1515555000403
 30
0.0
 40
1.499954999999966
100
AcDbArc
 50
269.9999999963087
 51
359.9999999963001
  0
LINE
  5
ACC2
330
A
100
AcDbEntity
  8
0
  6
________________
 62
     7
370
     9
100
AcDbLine
 10
100.5491314963376
 20
246.651600500524
 30
0.0
 11
100.5491314964022
 21
247.651570500524
 31
0.0
  0
ARC
  5
ACC3
330
A
100
AcDbEntity
  8
0
  6
________________
 62
     7
370
     9
100
AcDbCircle
 10
108.0489064995627
 20
296.6501005000405
 30
0.0
 40
1.499955000000003
100
AcDbArc
 50
359.9999999963001
 51
89.99999999630876
  0
LINE
  5
ACC4
330
A
100
AcDbEntity
  8
0
  6
________________
 62
     7
370
     9
100
AcDbLine
 10
100.5491314963376
 20
246.651600500524
 30
0.0
 11
108.0489064963378
 21
246.6516005000403
 31
0.0
  0
LINE
  5
ACC5
330
A
100
AcDbEntity
  8
0
  6
________________
 62
     7
370
     9
100
AcDbLine
 10
100.549131499595
 20
297.1500855005243
 30
0.0
 11
108.048906499595
 21
297.1500855000404
 31
0.0
  0
LINE
  5
ACC6
330
A
100
AcDbEntity
  8
0
  6
________________
 62
     7
370
     9
100
AcDbLine
 10
100.5491314996596
 20
298.1500555005241
 30
0.0
 11
100.549131499595
 21
297.1500855005243
 31
0.0
  0
LINE
  5
ACC7
330
A
100
AcDbEntity
  8
0
  6
________________
 62
     7
370
     9
100
AcDbLine
 10
77.24983051818117
 20
3.999879999999848
 30
0.0
 11
77.24983051818117
 21
19.99939999999992
 31
0.0
  0
LINE
  5
ACC8
330
A
100
AcDbEntity
  8
0
  6
________________
 62
     7
370
     9
100
AcDbLine
 10
88.24950051818132
 20
3.999879999999848
 30
0.0
 11
77.24983051818117
 21
3.999879999999848
 31
0.0
  0
LINE
  5
ACC9
330
A
100
AcDbEntity
  8
0
  6
________________
 62
     7
370
     9
100
AcDbLine
 10
88.24950051818132
 20
19.99939999999992
 30
0.0
 11
88.24950051818132
 21
3.999879999999848
 31
0.0
  0
LINE
  5
ACCA
330
A
100
AcDbEntity
  8
0
  6
________________
 62
     7
370
     9
100
AcDbLine
 10
74.89990101818125
 20
1.999939999999924
 30
0.0
 11
90.59943001818124
 21
1.999939999999924
 31
0.0
  0
LINE
  5
ACCB
330
A
100
AcDbEntity
  8
0
  6
________________
 62
     7
370
     9
100
AcDbLine
 10
74.89990101818125
 20
19.99939999999992
 30
0.0
 11
74.89990101818125
 21
1.999939999999924
 31
0.0
  0
LINE
  5
ACCC
330
A
100
AcDbEntity
  8
0
  6
________________
 62
     7
370
     9
100
AcDbLine
 10
77.24983051818117
 20
19.99939999999992
 30
0.0
 11
74.89990101818125
 21
19.99939999999992
 31
0.0
  0
LINE
  5
ACCD
330
A
100
AcDbEntity
  8
0
  6
________________
 62
     7
370
     9
100
AcDbLine
 10
90.59943001818124
 20
19.99939999999992
 30
0.0
 11
88.24950051818132
 21
19.99939999999992
 31
0.0
  0
LINE
  5
ACCE
330
A
100
AcDbEntity
  8
0
  6
________________
 62
     7
370
     9
100
AcDbLine
 10
90.59943001818124
 20
1.999939999999924
 30
0.0
 11
90.59943001818124
 21
19.99939999999992
 31
0.0
  0
LINE
  5
ACCF
330
A
100
AcDbEntity
  8
0
  6
________________
 62
     7
370
     9
100
AcDbLine
 10
74.74990551818132
 20
1.999939999999924
 30
0.0
 11
74.74990551818132
 21
19.99939999999992
 31
0.0
  0
LINE
  5
ACD0
330
A
100
AcDbEntity
  8
0
  6
________________
 62
     7
370
     9
100
AcDbLine
 10
90.74942551818117
 20
1.999939999999924
 30
0.0
 11
90.59943001818124
 21
1.999939999999924
 31
0.0
  0
LINE
  5
ACD1
330
A
100
AcDbEntity
  8
0
  6
________________
 62
     7
370
     9
100
AcDbLine
 10
90.59943001818124
 20
1.999939999999924
 30
0.0
 11
74.89990101818125
 21
1.999939999999924
 31
0.0
  0
LINE
  5
ACD2
330
A
100
AcDbEntity
  8
0
  6
________________
 62
     7
370
     9
100
AcDbLine
 10
74.89990101818125
 20
1.999939999999924
 30
0.0
 11
74.74990551818132
 21
1.999939999999924
 31
0.0
  0
LINE
  5
ACD3
330
A
100
AcDbEntity
  8
0
  6
________________
 62
     7
370
     9
100
AcDbLine
 10
90.74942551818117
 20
19.99939999999992
 30
0.0
 11
90.74942551818117
 21
1.999939999999924
 31
0.0
  0
LINE
  5
ACD4
330
A
100
AcDbEntity
  8
0
  6
________________
 62
     7
370
     9
100
AcDbLine
 10
72.74996551818117
 20
19.99939999999992
 30
0.0
 11
72.74996551818117
 21
0.0
 31
0.0
  0
LINE
  5
ACD5
330
A
100
AcDbEntity
  8
0
  6
________________
 62
     7
370
     9
100
AcDbLine
 10
74.74990551818132
 20
19.99939999999992
 30
0.0
 11
72.74996551818117
 21
19.99939999999992
 31
0.0
  0
LINE
  5
ACD6
330
A
100
AcDbEntity
  8
0
  6
________________
 62
     7
370
     9
100
AcDbLine
 10
92.74936551818132
 20
19.99939999999992
 30
0.0
 11
90.74942551818117
 21
19.99939999999992
 31
0.0
  0
LINE
  5
ACD7
330
A
100
AcDbEntity
  8
0
  6
________________
 62
     7
370
     9
100
AcDbLine
 10
92.74936551818132
 20
0.0
 30
0.0
 11
92.74936551818132
 21
19.99939999999992
 31
0.0
  0
LINE
  5
ACD8
330
A
100
AcDbEntity
  8
0
  6
________________
 62
     7
370
     9
100
AcDbLine
 10
86.74954551818132
 20
7.999759999999924
 30
0.0
 11
78.74978551818117
 21
7.999759999999924
 31
0.0
  0
LINE
  5
ACD9
330
A
100
AcDbEntity
  8
0
  6
________________
 62
     7
370
     9
100
AcDbLine
 10
77.74981551818132
 20
8.999729999999772
 30
0.0
 11
78.74978551818117
 21
7.999759999999924
 31
0.0
  0
LINE
  5
ACDA
330
A
100
AcDbEntity
  8
0
  6
________________
 62
     7
370
     9
100
AcDbLine
 10
77.74981551818132
 20
8.999729999999772
 30
0.0
 11
77.74981551818132
 21
126.9279946042473
 31
-0.0000000001598178
  0
LINE
  5
ACDB
330
A
100
AcDbEntity
  8
0
  6
________________
 62
     7
370
     9
100
AcDbLine
 10
78.74978551818117
 20
253.0014100000001
 30
0.0
 11
77.74981551818132
 21
252.00144
 31
0.0
  0
LINE
  5
ACDC
330
A
100
AcDbEntity
  8
0
  6
________________
 62
     7
370
     9
100
AcDbLine
 10
86.74954551818132
 20
253.0014100000001
 30
0.0
 11
78.74978551818117
 21
253.0014100000001
 31
0.0
  0
LINE
  5
ACDD
330
A
100
AcDbEntity
  8
0
  6
________________
 62
     7
370
     9
100
AcDbLine
 10
87.74951551818117
 20
8.999729999999772
 30
0.0
 11
87.74951551818117
 21
129.2819715708522
 31
-0.000000000156736
  0
LINE
  5
ACDE
330
A
100
AcDbEntity
  8
0
  6
________________
 62
     7
370
     9
100
AcDbLine
 10
86.74954551818132
 20
7.999759999999924
 30
0.0
 11
87.74951551818117
 21
8.999729999999772
 31
0.0
  0
LINE
  5
ACDF
330
A
100
AcDbEntity
  8
0
  6
________________
 62
     7
370
     9
100
AcDbLine
 10
87.74951551818117
 20
252.00144
 30
0.0
 11
86.74954551818132
 21
253.0014100000001
 31
0.0
  0
ARC
  5
ACE0
330
A
100
AcDbEntity
  8
0
  6
________________
 62
     7
370
     9
100
AcDbCircle
 10
-105.3939822946061
 20
250.3014910002034
 30
0.0
 40
0.4999849999999887
210
0.0
220
0.0
230
-1.0
100
AcDbArc
 50
270.0000000036999
 51
313.663737939917
  0
ARC
  5
ACE1
330
A
100
AcDbEntity
  8
0
  6
________________
 62
     7
370
     9
100
AcDbCircle
 10
-105.4462365270326
 20
276.226337228688
 30
0.0
 40
0.9999699999999906
210
0.0
220
0.0
230
-1.0
100
AcDbArc
 50
46.80371844488957
 51
177.1629028826354
  0
LINE
  5
ACE2
330
A
100
AcDbEntity
  8
0
  6
________________
 62
     7
370
     9
100
AcDbLine
 10
101.4491044977337
 20
268.3009510004581
 30
0.0
 11
101.4491044977983
 21
269.3009210004579
 31
0.0
  0
ARC
  5
ACE3
330
A
100
AcDbEntity
  8
0
  6
________________
 62
     7
370
     9
100
AcDbCircle
 10
99.94914949776603
 20
268.8009360005549
 30
0.0
 40
0.4999849999999887
100
AcDbArc
 50
89.99999999630008
 51
179.9999999963261
  0
ARC
  5
ACE4
330
A
100
AcDbEntity
  8
0
  6
________________
 62
     7
370
     9
100
AcDbCircle
 10
111.9487894977983
 20
269.3009209997808
 30
0.0
 40
11.99963999999996
100
AcDbArc
 50
119.8769586518046
 51
179.9999999963044
  0
ARC
  5
ACE5
330
A
100
AcDbEntity
  8
0
  6
________________
 62
     7
370
     9
100
AcDbCircle
 10
-105.7222378100805
 20
280.1393101430438
 30
0.0
 40
0.4999849999999965
210
0.0
220
0.0
230
-1.0
100
AcDbArc
 50
176.2612656413245
 51
240.1230413481933
  0
ARC
  5
ACE6
330
A
100
AcDbEntity
  8
0
  6
________________
 62
     7
370
     9
100
AcDbCircle
 10
141.2436145025436
 20
264.0010800161119
 30
0.0
 40
247.99256
210
0.0
220
0.0
230
-1.0
100
AcDbArc
 50
175.8261186023888
 51
176.2612656413251
  0
ARC
  5
ACE7
330
A
100
AcDbEntity
  8
0
  6
________________
 62
     7
370
     9
100
AcDbCircle
 10
-105.5925507019901
 20
282.0144702370224
 30
0.0
 40
0.4999849999999633
210
0.0
220
0.0
230
-1.0
100
AcDbArc
 50
55.77378009112173
 51
175.8261186023958
  0
ARC
  5
ACE8
330
A
100
AcDbEntity
  8
0
  6
________________
 62
     7
370
     9
100
AcDbCircle
 10
102.949059498869
 20
285.9004230003611
 30
0.0
 40
4.199874000000013
100
AcDbArc
 50
238.2099568605873
 51
304.2262199088803
  0
ARC
  5
ACE9
330
A
100
AcDbEntity
  8
0
  6
________________
 62
     7
370
     9
100
AcDbCircle
 10
-102.949059498869
 20
285.9004230003611
 30
0.0
 40
2.199934000000021
210
0.0
220
0.0
230
-1.0
100
AcDbArc
 50
58.209956867973
 51
301.790043139414
  0
ARC
  5
ACEA
330
A
100
AcDbEntity
  8
0
  6
________________
 62
     7
370
     9
100
AcDbCircle
 10
101.2633241745953
 20
288.6202910165914
 30
0.0
 40
0.9999699999999908
100
AcDbArc
 50
229.9999999963046
 51
301.7900431320114
  0
ARC
  5
ACEB
330
A
100
AcDbEntity
  8
0
  6
________________
 62
     7
370
     9
100
AcDbCircle
 10
-106.0489664990969
 20
289.4330213655621
 30
0.0
 40
0.4999850000000253
210
0.0
220
0.0
230
-1.0
100
AcDbArc
 50
180.0000000036999
 51
311.2674273846828
  0
ARC
  5
ACEC
330
A
100
AcDbEntity
  8
0
  6
________________
 62
     7
370
     9
100
AcDbCircle
 10
-106.0489664994172
 20
294.4001680001613
 30
0.0
 40
0.4999849999999887
210
0.0
220
0.0
230
-1.0
100
AcDbArc
 50
90.00000000369994
 51
180.0000000036999
  0
LINE
  5
ACED
330
A
100
AcDbEntity
  8
0
  6
________________
 62
     7
370
     9
100
AcDbLine
 10
96.24926049941723
 20
294.4001680007934
 30
0.0
 11
96.24926049943019
 21
294.6001620000195
 31
0.0
  0
LINE
  5
ACEE
330
A
100
AcDbEntity
  8
0
  6
________________
 62
     7
370
     9
100
AcDbLine
 10
96.24926049943019
 20
294.6001620000195
 30
0.0
 11
96.24926049944952
 21
294.9001530007934
 31
0.0
  0
LINE
  5
ACEF
330
A
100
AcDbEntity
  8
0
  6
________________
 62
     7
370
     9
100
AcDbLine
 10
94.54931149938488
 20
293.9001830009031
 30
0.0
 11
95.74927549938502
 21
293.9001830008258
 31
0.0
  0
ARC
  5
ACF0
330
A
100
AcDbEntity
  8
0
  6
________________
 62
     7
370
     9
100
AcDbCircle
 10
94.54931149944946
 20
294.9001530009032
 30
0.0
 40
0.999970000000014
100
AcDbArc
 50
179.9999999963131
 51
269.9999999963001
  0
LINE
  5
ACF1
330
A
100
AcDbEntity
  8
0
  6
________________
 62
     7
370
     9
100
AcDbLine
 10
93.54934149951396
 20
295.9001230009676
 30
0.0
 11
93.54934149944938
 21
294.9001530009675
 31
0.0
  0
ARC
  5
ACF2
330
A
100
AcDbEntity
  8
0
  6
________________
 62
     7
370
     9
100
AcDbCircle
 10
94.54931149951403
 20
295.900123000903
 30
0.0
 40
0.9999699999999775
100
AcDbArc
 50
89.9999999963131
 51
179.9999999963001
  0
ARC
  5
ACF3
330
A
100
AcDbEntity
  8
0
  6
________________
 62
     7
370
     9
100
AcDbCircle
 10
107.5489214995139
 20
295.9001230000645
 30
0.0
 40
0.9999699999999775
100
AcDbArc
 50
359.9999999963131
 51
89.99999999630008
  0
ARC
  5
ACF4
330
A
100
AcDbEntity
  8
0
  6
________________
 62
     7
370
     9
100
AcDbCircle
 10
107.5489214964825
 20
248.9015330000645
 30
0.0
 40
0.9999699999999775
100
AcDbArc
 50
269.9999999963001
 51
359.9999999963001
  0
LINE
  5
ACF5
330
A
100
AcDbEntity
  8
0
  6
________________
 62
     7
370
     9
100
AcDbLine
 10
101.049116496418
 20
247.9015630004837
 30
0.0
 11
107.548921496418
 21
247.9015630000645
 31
0.0
  0
ARC
  5
ACF6
330
A
100
AcDbEntity
  8
0
  6
________________
 62
     7
370
     9
100
AcDbCircle
 10
101.0491164964503
 20
248.4015480004839
 30
0.0
 40
0.4999849999999887
100
AcDbArc
 50
179.9999999963261
 51
269.9999999963001
  0
ARC
  5
ACF7
330
A
100
AcDbEntity
  8
0
  6
________________
 62
     7
370
     9
100
AcDbCircle
 10
101.0491164965083
 20
249.3015210004837
 30
0.0
 40
0.4999849999999887
100
AcDbArc
 50
89.99999999630008
 51
179.9999999963001
  0
ARC
  5
ACF8
330
A
100
AcDbEntity
  8
0
  6
________________
 62
     7
370
     9
100
AcDbCircle
 10
102.64906849659
 20
250.5675435745286
 30
0.0
 40
0.499984999999984
100
AcDbArc
 50
82.23356582778426
 51
179.9999999963001
  0
ARC
  5
ACF9
330
A
100
AcDbEntity
  8
0
  6
________________
 62
     7
370
     9
100
AcDbCircle
 10
102.1490834963536
 20
246.9015930004127
 30
0.0
 40
4.199873999999983
100
AcDbArc
 50
46.33626206010766
 51
49.07554075568163
  0
ARC
  5
ACFA
330
A
100
AcDbEntity
  8
0
  6
________________
 62
     7
370
     9
100
AcDbCircle
 10
102.1490834963536
 20
246.9015930004127
 30
0.0
 40
4.199873999999954
100
AcDbArc
 50
49.07554075568277
 51
68.81467035711522
  0
ARC
  5
ACFB
330
A
100
AcDbEntity
  8
0
  6
________________
 62
     7
370
     9
100
AcDbCircle
 10
102.1490834963536
 20
246.9015930004127
 30
0.0
 40
4.199873999999982
100
AcDbArc
 50
68.81467035711555
 51
82.23356582779209
  0
LINE
  5
ACFC
330
A
100
AcDbEntity
  8
0
  6
________________
 62
     7
370
     9
100
AcDbLine
 10
102.1490834965405
 20
249.8015060004129
 30
0.0
 11
101.0491164965406
 21
249.8015060004836
 31
0.0
  0
LINE
  5
ACFD
330
A
100
AcDbEntity
  8
0
  6
________________
 62
     7
370
     9
100
AcDbLine
 10
99.94914949770146
 20
267.8009660005548
 30
0.0
 11
100.9491194977015
 21
267.8009660004902
 31
0.0
  0
ARC
  5
ACFE
330
A
100
AcDbEntity
  8
0
  6
________________
 62
     7
370
     9
100
AcDbCircle
 10
-105.8695092706082
 20
250.3014910001727
 30
0.0
 40
0.4999850000000172
210
0.0
220
0.0
230
-1.0
100
AcDbArc
 50
183.1731457966591
 51
270.0000000036999
  0
LINE
  5
ACFF
330
A
100
AcDbEntity
  8
0
  6
________________
 62
     7
370
     9
100
AcDbLine
 10
99.4491644977661
 20
268.8009360005869
 30
0.0
 11
99.44916449773382
 21
268.300951000587
 31
0.0
  0
LINE
  5
AD00
330
A
100
AcDbEntity
  8
0
  6
________________
 62
     7
370
     9
100
AcDbLine
 10
102.14908349659
 20
250.5675435745609
 30
0.0
 11
102.1490834965405
 21
249.8015060004129
 31
0.0
  0
ARC
  5
AD01
330
A
100
AcDbEntity
  8
0
  6
________________
 62
     7
370
     9
100
AcDbCircle
 10
100.9491194977338
 20
268.3009510004902
 30
0.0
 40
0.4999849999999887
100
AcDbArc
 50
269.9999999963001
 51
359.9999999963001
  0
ARC
  5
AD02
330
A
100
AcDbEntity
  8
0
  6
________________
 62
     7
370
     9
100
AcDbCircle
 10
99.94914949773374
 20
268.3009510005547
 30
0.0
 40
0.4999849999999887
100
AcDbArc
 50
179.9999999963001
 51
269.9999999963001
  0
ARC
  5
AD03
330
A
100
AcDbEntity
  8
0
  6
________________
 62
     7
370
     9
100
AcDbCircle
 10
95.74927549941731
 20
294.4001680008257
 30
0.0
 40
0.4999849999999887
100
AcDbArc
 50
269.9999999963001
 51
359.9999999963001
  0
ARC
  5
AD04
330
A
100
AcDbEntity
  8
0
  6
________________
 62
     7
370
     9
100
AcDbCircle
 10
101.2633241742444
 20
283.1805549843486
 30
0.0
 40
0.9999700000000107
100
AcDbArc
 50
58.20995686058624
 51
129.9999999963171
  0
ARC
  5
AD05
330
A
100
AcDbEntity
  8
0
  6
________________
 62
     7
370
     9
100
AcDbCircle
 10
101.2633241745953
 20
288.6202910165914
 30
0.0
 40
0.9999700000000349
100
AcDbArc
 50
121.7900431320266
 51
229.9999999963034
  0
ARC
  5
AD06
330
A
100
AcDbEntity
  8
0
  6
________________
 62
     7
370
     9
100
AcDbCircle
 10
101.2633241742444
 20
283.1805549843486
 30
0.0
 40
0.9999699999999738
100
AcDbArc
 50
129.9999999963165
 51
238.2099568605845
  0
LINE
  5
AD07
330
A
100
AcDbEntity
  8
0
  6
________________
 62
     7
370
     9
100
AcDbLine
 10
100.5491314965084
 20
249.301521000516
 30
0.0
 11
100.5491314964504
 21
248.401548000516
 31
0.0
  0
ARC
  5
AD08
330
A
100
AcDbEntity
  8
0
  6
________________
 62
     7
370
     9
100
AcDbCircle
 10
102.949059498869
 20
285.9004230003611
 30
0.0
 40
4.199874000000026
100
AcDbArc
 50
48.73257261534593
 51
121.7900431320229
  0
LINE
  5
AD09
330
A
100
AcDbEntity
  8
0
  6
________________
 62
     7
370
     9
100
AcDbLine
 10
96.24926049944952
 20
294.9001530007934
 30
0.0
 11
96.54925149643736
 21
294.900153000774
 31
0.0
  0
LINE
  5
AD0A
330
A
100
AcDbEntity
  8
0
  6
________________
 62
     7
370
     9
100
AcDbLine
 10
96.54925149643736
 20
294.900153000774
 30
0.0
 11
106.0489664994495
 21
294.9001530001613
 31
0.0
  0
ARC
  5
AD0B
330
A
100
AcDbEntity
  8
0
  6
________________
 62
     7
370
     9
100
AcDbCircle
 10
141.2436145025436
 20
264.0010800161119
 30
0.0
 40
247.99256
210
0.0
220
0.0
230
-1.0
100
AcDbArc
 50
177.1629028826441
 51
183.1731457966777
  0
ARC
  5
AD0C
330
A
100
AcDbEntity
  8
0
  6
________________
 62
     7
370
     9
100
AcDbCircle
 10
-111.9487894977983
 20
269.3009209997808
 30
0.0
 40
10.49968500000002
210
0.0
220
0.0
230
-1.0
100
AcDbArc
 50
0.0000000036949727
 51
3.275828953715942
  0
ARC
  5
AD0D
330
A
100
AcDbEntity
  8
0
  6
________________
 62
     7
370
     9
100
AcDbCircle
 10
-111.9487894977983
 20
269.3009209997808
 30
0.0
 40
10.49968500000002
210
0.0
220
0.0
230
-1.0
100
AcDbArc
 50
3.275828953715942
 51
41.94645727436993
  0
ARC
  5
AD0E
330
A
100
AcDbEntity
  8
0
  6
________________
 62
     7
370
     9
100
AcDbCircle
 10
-111.9487894977983
 20
269.3009209997808
 30
0.0
 40
10.49968499999997
210
0.0
220
0.0
230
-1.0
100
AcDbArc
 50
41.94645727436893
 51
46.80371844490226
  0
LINE
  5
AD0F
330
A
100
AcDbEntity
  8
0
  6
________________
 62
     7
370
     9
100
AcDbLine
 10
105.8695092705759
 20
249.8015060001728
 30
0.0
 11
105.3939822945738
 21
249.8015060002035
 31
0.0
  0
LINE
  5
AD10
330
A
100
AcDbEntity
  8
0
  6
________________
 62
     7
370
     9
100
AcDbLine
 10
106.5489514994172
 20
294.400168000129
 30
0.0
 11
106.5489514990968
 21
289.4330213655298
 31
0.0
  0
LINE
  5
AD11
330
A
100
AcDbEntity
  8
0
  6
________________
 62
     7
370
     9
100
AcDbLine
 10
108.5488914964826
 20
248.9015330000002
 30
0.0
 11
108.548891499514
 21
295.9001230000001
 31
0.0
  0
LINE
  5
AD12
330
A
100
AcDbEntity
  8
0
  6
________________
 62
     7
370
     9
100
AcDbLine
 10
107.5489214995785
 20
296.9000930000645
 30
0.0
 11
94.54931149957838
 21
296.9000930009031
 31
0.0
  0
LINE
  5
AD13
330
A
100
AcDbEntity
  8
0
  6
________________
 62
     7
370
     9
100
AcDbLine
 10
73.79993403130288
 20
254.2013562564567
 30
0.0
 11
91.69939703130285
 21
254.2013734615815
 31
0.0
  0
LINE
  5
AD14
330
A
100
AcDbEntity
  8
0
  6
________________
 62
     7
370
     9
100
AcDbLine
 10
78.99700136060437
 20
261.0011699966738
 30
0.0
 11
86.50232969346439
 21
261.0011699961919
 31
0.0
  0
LINE
  5
AD15
330
A
100
AcDbEntity
  8
0
  6
________________
 62
     7
370
     9
100
AcDbLine
 10
86.50232969302806
 20
254.2013739961919
 30
0.0
 11
86.50232969346439
 21
261.0011699961919
 31
0.0
  0
LINE
  5
AD16
330
A
100
AcDbEntity
  8
0
  6
________________
 62
     7
370
     9
100
AcDbLine
 10
78.99700136016781
 20
254.2013739966737
 30
0.0
 11
78.99700136060437
 21
261.0011699966738
 31
0.0
  0
LINE
  5
AD17
330
A
100
AcDbEntity
  8
0
  6
________________
 62
     7
370
     9
100
AcDbLine
 10
90.254993864163
 20
254.2013739959511
 30
0.0
 11
90.25499386459956
 21
261.0011699959512
 31
0.0
  0
LINE
  5
AD18
330
A
100
AcDbEntity
  8
0
  6
________________
 62
     7
370
     9
100
AcDbLine
 10
86.50232969346439
 20
261.0011699961919
 30
0.0
 11
90.25499386459956
 21
261.0011699959512
 31
0.0
  0
LINE
  5
AD19
330
A
100
AcDbEntity
  8
0
  6
________________
 62
     7
370
     9
100
AcDbLine
 10
75.24433719844296
 20
254.2013739969148
 30
0.0
 11
75.2443371988793
 21
261.0011699969145
 31
0.0
  0
LINE
  5
AD1A
330
A
100
AcDbEntity
  8
0
  6
________________
 62
     7
370
     9
100
AcDbLine
 10
75.2443371988793
 20
261.0011699969145
 30
0.0
 11
78.99700136060437
 21
261.0011699966738
 31
0.0
  0
LINE
  5
AD1B
330
A
100
AcDbEntity
  8
0
  6
Continuous
 62
     3
370
     0
100
AcDbLine
 10
86.74954553368934
 20
291.3752587461777
 30
0.0
 11
78.74978553368919
 21
291.3752587466911
 31
0.0
  0
LINE
  5
AD1C
330
A
100
AcDbEntity
  8
0
  6
Continuous
 62
     3
370
     0
100
AcDbLine
 10
79.37476678372946
 20
292.0002399966511
 30
0.0
 11
86.12456428372934
 21
292.0002399962177
 31
0.0
  0
LINE
  5
AD1D
330
A
100
AcDbEntity
  8
0
  6
________________
 62
     7
370
     9
100
AcDbLine
 10
92.9159412726483
 20
268.3509494955572
 30
0.0
 11
92.91594127533722
 21
289.3503194955572
 31
0.0
  0
LINE
  5
AD1E
330
A
100
AcDbEntity
  8
0
  6
________________
 62
     7
370
     9
100
AcDbLine
 10
94.29931901633995
 20
268.3509494953801
 30
0.0
 11
94.29931901768441
 21
278.8506344953801
 31
0.0
  0
LINE
  5
AD1F
330
A
100
AcDbEntity
  8
0
  6
________________
 62
     7
370
     9
100
AcDbLine
 10
94.29931901768441
 20
278.8506344953801
 30
0.0
 11
94.29931901902887
 21
289.3503194953801
 31
0.0
  0
LINE
  5
AD20
330
A
100
AcDbEntity
  8
0
  6
________________
 62
   253
370
     9
100
AcDbLine
 10
92.59840815349185
 20
288.8003359955978
 30
0.0
 11
92.5984081509439
 21
268.9009329955977
 31
0.0
  0
LINE
  5
AD21
330
A
100
AcDbEntity
  8
0
  6
________________
 62
     7
370
     9
100
AcDbLine
 10
89.68287676272053
 20
289.350319495971
 30
0.0
 11
89.6828767600316
 21
268.3509494959712
 31
0.0
  0
LINE
  5
AD22
330
A
100
AcDbEntity
  8
0
  6
________________
 62
   253
370
     9
100
AcDbLine
 10
90.00040988442493
 20
288.8003359959305
 30
0.0
 11
90.00040988187675
 21
268.9009329959304
 31
0.0
  0
LINE
  5
AD23
330
A
100
AcDbEntity
  8
0
  6
________________
 62
     7
370
     9
100
AcDbLine
 10
88.29949901633995
 20
268.3509494961481
 30
0.0
 11
88.29949901768441
 21
278.8506344961484
 31
0.0
  0
LINE
  5
AD24
330
A
100
AcDbEntity
  8
0
  6
________________
 62
     7
370
     9
100
AcDbLine
 10
88.29949901768441
 20
278.8506344961484
 30
0.0
 11
88.29949901902887
 21
289.3503194961481
 31
0.0
  0
LINE
  5
AD25
330
A
100
AcDbEntity
  8
0
  6
________________
 62
     7
370
     9
100
AcDbLine
 10
75.81645427398871
 20
268.350949497953
 30
0.0
 11
75.81645427399667
 21
289.350319497953
 31
0.0
  0
LINE
  5
AD26
330
A
100
AcDbEntity
  8
0
  6
________________
 62
     7
370
     9
100
AcDbLine
 10
77.19983201768832
 20
289.3503194979526
 30
0.0
 11
77.19983201768423
 21
278.8506344979526
 31
0.0
  0
LINE
  5
AD27
330
A
100
AcDbEntity
  8
0
  6
________________
 62
     7
370
     9
100
AcDbLine
 10
77.19983201768423
 20
278.8506344979526
 30
0.0
 11
77.19983201768036
 21
268.3509494979523
 31
0.0
  0
LINE
  5
AD28
330
A
100
AcDbEntity
  8
0
  6
________________
 62
   253
370
     9
100
AcDbLine
 10
75.49892115221405
 20
268.9009329979531
 30
0.0
 11
75.49892115222156
 21
288.800335997953
 31
0.0
  0
LINE
  5
AD29
330
A
100
AcDbEntity
  8
0
  6
________________
 62
     7
370
     9
100
AcDbLine
 10
72.58338976137998
 20
289.3503194979542
 30
0.0
 11
72.58338976137202
 21
268.3509494979542
 31
0.0
  0
LINE
  5
AD2A
330
A
100
AcDbEntity
  8
0
  6
________________
 62
   253
370
     9
100
AcDbLine
 10
72.90092288314713
 20
268.900932997954
 30
0.0
 11
72.90092288315441
 21
288.8003359979541
 31
0.0
  0
LINE
  5
AD2B
330
A
100
AcDbEntity
  8
0
  6
________________
 62
     7
370
     9
100
AcDbLine
 10
71.2000120176881
 20
289.3503194979546
 30
0.0
 11
71.20001201768423
 21
278.8506344979546
 31
0.0
  0
LINE
  5
AD2C
330
A
100
AcDbEntity
  8
0
  6
________________
 62
     7
370
     9
100
AcDbLine
 10
71.20001201768423
 20
278.8506344979546
 30
0.0
 11
71.20001201768036
 21
268.3509494979546
 31
0.0
  0
LINE
  5
AD2D
330
A
100
AcDbEntity
  8
0
  6
________________
 62
     7
370
     9
100
AcDbLine
 10
94.2993190176785
 20
278.8506344949556
 30
0.0
 11
94.29931901741406
 21
276.7856327258114
 31
0.0
  0
LINE
  5
AD2E
330
A
100
AcDbEntity
  8
0
  6
________________
 62
     7
370
     9
100
AcDbLine
 10
94.29931901741406
 20
276.7856327258114
 30
0.0
 11
94.29931901729447
 21
275.8507244949556
 31
0.0
  0
LINE
  5
AD2F
330
A
100
AcDbEntity
  8
0
  6
________________
 62
     7
370
     9
100
AcDbLine
 10
71.20001201729428
 20
275.8507244979132
 30
0.0
 11
71.20001201765604
 21
278.6763116945745
 31
0.0
  0
LINE
  5
AD30
330
A
100
AcDbEntity
  8
0
  6
________________
 62
     7
370
     9
100
AcDbLine
 10
71.20001201765604
 20
278.6763116945745
 30
0.0
 11
71.20001201766831
 21
278.7721064744558
 31
0.0
  0
LINE
  5
AD31
330
A
100
AcDbEntity
  8
0
  6
________________
 62
     7
370
     9
100
AcDbLine
 10
71.20001201766831
 20
278.7721064744558
 30
0.0
 11
71.20001201767855
 21
278.8506344979132
 31
0.0
  0
LINE
  5
AD32
330
A
100
AcDbEntity
  8
0
  6
________________
 62
     7
370
     9
100
AcDbLine
 10
71.20001201767855
 20
278.8506344979132
 30
0.0
 11
71.20001201806258
 21
281.8505444979132
 31
0.0
  0
LINE
  5
AD33
330
A
100
AcDbEntity
  8
0
  6
________________
 62
   253
370
     9
100
AcDbLine
 10
77.8498125071535
 20
275.4850488188511
 30
0.0
 11
87.64951850715329
 21
275.4850488182219
 31
0.0
  0
LINE
  5
AD34
330
A
100
AcDbEntity
  8
0
  6
________________
 62
     7
370
     9
100
AcDbLine
 10
77.84981250758551
 20
282.2162201746467
 30
0.0
 11
77.8498125071535
 21
275.4850488188511
 31
0.0
  0
LINE
  5
AD35
330
A
100
AcDbEntity
  8
0
  6
________________
 62
   253
370
     9
100
AcDbLine
 10
87.64951850758553
 20
282.2162201740175
 30
0.0
 11
77.84981250758551
 21
282.2162201746467
 31
0.0
  0
LINE
  5
AD36
330
A
100
AcDbEntity
  8
0
  6
________________
 62
     7
370
     9
100
AcDbLine
 10
87.64951850758553
 20
282.2162201740175
 30
0.0
 11
87.64951850715329
 21
275.4850488182219
 31
0.0
  0
LINE
  5
AD37
330
A
100
AcDbEntity
  8
0
  6
________________
 62
   253
370
     9
100
AcDbLine
 10
77.84981250872966
 20
283.7152614425881
 30
0.0
 11
87.64951850872967
 21
283.715261441959
 31
0.0
  0
LINE
  5
AD38
330
A
100
AcDbEntity
  8
0
  6
________________
 62
     7
370
     9
100
AcDbLine
 10
77.84981250867122
 20
282.2162201746467
 30
0.0
 11
77.8498125087674
 21
283.7152614425881
 31
0.0
  0
LINE
  5
AD39
330
A
100
AcDbEntity
  8
0
  6
________________
 62
     7
370
     9
100
AcDbLine
 10
87.64951850876741
 20
283.715261441959
 30
0.0
 11
87.64951850867124
 21
282.2162201740175
 31
0.0
  0
LINE
  5
AD3A
330
A
100
AcDbEntity
  8
0
  6
________________
 62
   253
370
     9
100
AcDbLine
 10
87.64951850810507
 20
273.9860075502806
 30
0.0
 11
77.84981250810506
 21
273.9860075509096
 31
0.0
  0
LINE
  5
AD3B
330
A
100
AcDbEntity
  8
0
  6
________________
 62
     7
370
     9
100
AcDbLine
 10
77.84981250814303
 20
273.9860075509096
 30
0.0
 11
77.84981250823921
 21
275.4850488188511
 31
0.0
  0
LINE
  5
AD3C
330
A
100
AcDbEntity
  8
0
  6
________________
 62
     7
370
     9
100
AcDbLine
 10
87.64951850823923
 20
275.4850488182219
 30
0.0
 11
87.64951850814282
 21
273.9860075502806
 31
0.0
  0
LINE
  5
AD3D
330
A
100
AcDbEntity
  8
0
  6
________________
 62
   253
370
     9
100
AcDbLine
 10
87.64951852029594
 20
284.271519837167
 30
0.0
 11
77.84981252029615
 21
284.2715198377962
 31
0.0
  0
LINE
  5
AD3E
330
A
100
AcDbEntity
  8
0
  6
________________
 62
     7
370
     9
100
AcDbLine
 10
77.84981250872966
 20
283.7152614425881
 30
0.0
 11
77.84981252029615
 21
284.2715198377962
 31
0.0
  0
LINE
  5
AD3F
330
A
100
AcDbEntity
  8
0
  6
________________
 62
     7
370
     9
100
AcDbLine
 10
87.64951850872967
 20
283.715261441959
 30
0.0
 11
87.64951852029594
 21
284.271519837167
 31
0.0
  0
LINE
  5
AD40
330
A
100
AcDbEntity
  8
0
  6
________________
 62
   253
370
     9
100
AcDbLine
 10
77.84981251959994
 20
273.4297491557015
 30
0.0
 11
87.64951851960018
 21
273.4297491550726
 31
0.0
  0
LINE
  5
AD41
330
A
100
AcDbEntity
  8
0
  6
________________
 62
     7
370
     9
100
AcDbLine
 10
77.84981251959994
 20
273.4297491557015
 30
0.0
 11
77.84981250810506
 21
273.9860075509096
 31
0.0
  0
LINE
  5
AD42
330
A
100
AcDbEntity
  8
0
  6
________________
 62
     7
370
     9
100
AcDbLine
 10
87.64951850810507
 20
273.9860075502806
 30
0.0
 11
87.64951851960018
 21
273.4297491550726
 31
0.0
  0
LINE
  5
AD43
330
A
100
AcDbEntity
  8
0
  6
________________
 62
     7
370
     9
100
AcDbLine
 10
87.64951852032141
 20
284.2721289918727
 30
0.0
 11
87.64951852032141
 21
284.271519837167
 31
0.0
  0
LINE
  5
AD44
330
A
100
AcDbEntity
  8
0
  6
________________
 62
     7
370
     9
100
AcDbLine
 10
77.8498125203214
 20
284.2715198377962
 30
0.0
 11
77.8498125203214
 21
284.2721289925018
 31
0.0
  0
LINE
  5
AD45
330
A
100
AcDbEntity
  8
0
  6
________________
 62
     7
370
     9
100
AcDbLine
 10
77.8498125196254
 20
273.4291400009959
 30
0.0
 11
77.8498125196254
 21
273.4297491557015
 31
0.0
  0
LINE
  5
AD46
330
A
100
AcDbEntity
  8
0
  6
________________
 62
     7
370
     9
100
AcDbLine
 10
87.64951851962519
 20
273.4297491550726
 30
0.0
 11
87.64951851962519
 21
273.4291400003667
 31
0.0
  0
LINE
  5
AD47
330
A
100
AcDbEntity
  8
0
  6
________________
 62
     7
370
     9
100
AcDbLine
 10
87.64951852781542
 20
285.0004499961196
 30
0.0
 11
87.6495185240451
 21
284.2721289918727
 31
0.0
  0
LINE
  5
AD48
330
A
100
AcDbEntity
  8
0
  6
________________
 62
     7
370
     9
100
AcDbLine
 10
77.84980252657533
 20
282.2554718608758
 30
0.0
 11
77.84980252668674
 21
283.9933906392232
 31
0.0
  0
LINE
  5
AD49
330
A
100
AcDbEntity
  8
0
  6
________________
 62
     7
370
     9
100
AcDbLine
 10
77.84980252668674
 20
283.9933906392232
 30
0.0
 11
77.8498025267047
 21
284.2716721265747
 31
0.0
  0
LINE
  5
AD4A
330
A
100
AcDbEntity
  8
0
  6
________________
 62
     7
370
     9
100
AcDbLine
 10
77.8498025267047
 20
284.2716721265747
 30
0.0
 11
77.84980252675155
 21
285.0004499967488
 31
0.0
  0
LINE
  5
AD4B
330
A
100
AcDbEntity
  8
0
  6
________________
 62
     7
370
     9
100
AcDbLine
 10
77.84981252781563
 20
285.0004499967488
 30
0.0
 11
87.64951852781542
 21
285.0004499961196
 31
0.0
  0
LINE
  5
AD4C
330
A
100
AcDbEntity
  8
0
  6
________________
 62
     7
370
     9
100
AcDbLine
 10
77.19983201152172
 20
272.7008189967905
 30
0.0
 11
77.84981252702596
 21
272.7008189967489
 31
0.0
  0
LINE
  5
AD4D
330
A
100
AcDbEntity
  8
0
  6
________________
 62
     7
370
     9
100
AcDbLine
 10
77.19983201152627
 20
285.0004499967906
 30
0.0
 11
77.84981252781563
 21
285.0004499967488
 31
0.0
  0
ELLIPSE
  5
AD4E
330
A
100
AcDbEntity
  8
0
  6
________________
 62
     7
370
     9
100
AcDbEllipse
 10
82.74966556412528
 20
765.5025470297355
 30
0.0
 11
-4.423053621712210E-8
 21
-587.5101891999554
 31
0.0
210
0.0
220
0.0
230
-1.0
 40
0.0153184236893924
 41
0.5757266479800139
 42
0.5839589889458376
  0
LINE
  5
AD4F
330
A
100
AcDbEntity
  8
0
  6
________________
 62
     7
370
     9
100
AcDbLine
 10
87.64951852702598
 20
272.7008189961198
 30
0.0
 11
88.29949901073655
 21
272.7008189960782
 31
0.0
  0
ELLIPSE
  5
AD50
330
A
100
AcDbEntity
  8
0
  6
________________
 62
     7
370
     9
100
AcDbEllipse
 10
82.74966556412528
 20
765.5025470297355
 30
0.0
 11
-4.423053621712210E-8
 21
-587.5101891999554
 31
0.0
210
0.0
220
0.0
230
-1.0
 40
0.0153184236893924
 41
5.699226318235337
 42
5.707458659199224
  0
LINE
  5
AD51
330
A
100
AcDbEntity
  8
0
  6
________________
 62
     7
370
     9
100
AcDbLine
 10
87.64951852781542
 20
285.0004499961196
 30
0.0
 11
88.29949901231157
 21
285.000449996078
 31
0.0
  0
LINE
  5
AD52
330
A
100
AcDbEntity
  8
0
  6
________________
 62
     7
370
     9
100
AcDbLine
 10
87.64951852702598
 20
272.7008189961198
 30
0.0
 11
77.84981252702596
 21
272.7008189967489
 31
0.0
  0
LINE
  5
AD53
330
A
100
AcDbEntity
  8
0
  6
________________
 62
     7
370
     9
100
AcDbLine
 10
69.2500705752841
 20
203.0029099999997
 30
0.0
 11
77.24983057528402
 21
203.0029099999997
 31
0.0
  0
LINE
  5
AD54
330
A
100
AcDbEntity
  8
0
  6
________________
 62
     7
370
     9
100
AcDbLine
 10
77.24983057528402
 20
203.0029099999997
 30
0.0
 11
77.24983057528402
 21
253.0014099999996
 31
0.0
  0
LINE
  5
AD55
330
A
100
AcDbEntity
  8
0
  6
________________
 62
     7
370
     9
100
AcDbLine
 10
69.2500705752841
 20
203.0029099999997
 30
0.0
 11
69.2500705752841
 21
253.0014099999996
 31
0.0
  0
LINE
  5
AD56
330
A
100
AcDbEntity
  8
0
  6
________________
 62
     7
370
     9
100
AcDbLine
 10
69.2500705752841
 20
253.0014099999996
 30
0.0
 11
77.24983057528402
 21
253.0014099999996
 31
0.0
  0
LINE
  5
AD57
330
A
100
AcDbEntity
  8
0
  6
________________
 62
     7
370
     9
100
AcDbLine
 10
77.24983053067535
 20
247.5034987309207
 30
0.0
 11
77.74981548317851
 21
247.5034987309207
 31
0.0
  0
LINE
  5
AD58
330
A
100
AcDbEntity
  8
0
  6
________________
 62
   253
370
     9
100
AcDbLine
 10
77.74981548173082
 20
245.5035587309217
 30
0.0
 11
77.24983057528402
 21
245.5035587309217
 31
0.0
  0
LINE
  5
AD59
330
A
100
AcDbEntity
  8
0
  6
________________
 62
   253
370
     9
100
AcDbLine
 10
77.24983057528402
 20
209.5027150000037
 30
0.0
 11
77.74981548173082
 21
209.5027150000037
 31
0.0
  0
LINE
  5
AD5A
330
A
100
AcDbEntity
  8
0
  6
________________
 62
     7
370
     9
100
AcDbLine
 10
77.74981548317851
 20
207.5027750000045
 30
0.0
 11
77.24983053075243
 21
207.5027750000045
 31
0.0
  0
LINE
  5
AD5B
330
A
100
AcDbEntity
  8
0
  6
________________
 62
   253
370
     9
100
AcDbLine
 10
87.74951548082322
 20
248.0015599999917
 30
0.0
 11
88.24950047973743
 21
248.0015599999917
 31
0.0
  0
LINE
  5
AD5C
330
A
100
AcDbEntity
  8
0
  6
________________
 62
     7
370
     9
100
AcDbLine
 10
87.74951548335684
 20
251.5014549999908
 30
0.0
 11
88.2495004790137
 21
251.5014549999908
 31
0.0
  0
LINE
  5
AD5D
330
A
100
AcDbEntity
  8
0
  6
________________
 62
     7
370
     9
100
AcDbLine
 10
87.74951548335684
 20
204.5028650000036
 30
0.0
 11
88.2495004790137
 21
204.5028650000036
 31
0.0
  0
LINE
  5
AD5E
330
A
100
AcDbEntity
  8
0
  6
________________
 62
   253
370
     9
100
AcDbLine
 10
87.74951548082322
 20
208.0027600000028
 30
0.0
 11
88.24950047973743
 21
208.0027600000028
 31
0.0
  0
LINE
  5
AD5F
330
A
100
AcDbEntity
  8
0
  6
________________
 62
     7
370
     9
100
AcDbLine
 10
96.24926047901363
 20
253.0014099999996
 30
0.0
 11
88.2495004790137
 21
253.0014099999996
 31
0.0
  0
LINE
  5
AD60
330
A
100
AcDbEntity
  8
0
  6
________________
 62
     7
370
     9
100
AcDbLine
 10
96.24926047901363
 20
203.0029099999997
 30
0.0
 11
88.2495004790137
 21
203.0029099999997
 31
0.0
  0
LINE
  5
AD61
330
A
100
AcDbEntity
  8
0
  6
________________
 62
     7
370
     9
100
AcDbLine
 10
88.2495004790137
 20
253.0014099999996
 30
0.0
 11
88.2495004790137
 21
203.0029099999997
 31
0.0
  0
LINE
  5
AD62
330
A
100
AcDbEntity
  8
0
  6
________________
 62
     7
370
     9
100
AcDbLine
 10
96.24926047901363
 20
253.0014099999996
 30
0.0
 11
96.24926047901363
 21
203.0029099999997
 31
0.0
  0
LINE
  5
AD63
330
A
100
AcDbEntity
  8
0
  6
________________
 62
     7
370
     9
100
AcDbLine
 10
77.24983054422069
 20
253.0014099999996
 30
0.0
 11
78.74978551818117
 21
253.0014099999996
 31
0.0
  0
LINE
  5
AD64
330
A
100
AcDbEntity
  8
0
  6
________________
 62
     7
370
     9
100
AcDbLine
 10
86.74954553122484
 20
253.0014099999996
 30
0.0
 11
88.24950050652001
 21
253.0014099999996
 31
0.0
  0
LINE
  5
AD66
330
A
100
AcDbEntity
  8
0
  6
________________
 62
     7
370
     9
100
AcDbLine
 10
66.25016049641795
 20
326.0555280579896
 30
0.0
 11
66.25016049641795
 21
291.9102932048238
 31
0.0
  0
LINE
  5
AD67
330
A
100
AcDbEntity
  8
0
  6
________________
 62
     7
370
     9
100
AcDbLine
 10
66.25016049641795
 20
291.9102932048238
 30
0.0
 11
66.25016049641795
 21
279.3006210000001
 31
0.0
  0
LINE
  5
AD68
330
A
100
AcDbEntity
  8
0
  6
________________
 62
     7
370
     9
100
AcDbLine
 10
66.25016049641795
 20
279.3006210000001
 30
0.0
 11
66.25016049641795
 21
278.7006390000001
 31
0.0
  0
LINE
  5
AD69
330
A
100
AcDbEntity
  8
0
  6
________________
 62
     7
370
     9
100
AcDbLine
 10
66.25016049641795
 20
278.7006390000001
 30
0.0
 11
66.25016049641795
 21
266.0909667951764
 31
0.0
  0
LINE
  5
AD6A
330
A
100
AcDbEntity
  8
0
  6
________________
 62
     7
370
     9
100
AcDbLine
 10
66.25016049641795
 20
266.0909667951764
 30
0.0
 11
66.25016049641795
 21
200.0029100000002
 31
0.0
  0
LINE
  5
AD6B
330
A
100
AcDbEntity
  8
0
  6
________________
 62
     7
370
     9
100
AcDbLine
 10
66.25016049641795
 20
200.0029100000002
 30
0.0
 11
-19.56212191015391
 21
200.0029100000002
 31
0.0
  0
LINE
  5
AD6E
330
A
100
AcDbEntity
  8
0
  6
________________
 62
     7
370
     9
100
AcDbLine
 10
101.3491074960991
 20
255.5513334986733
 30
0.0
 11
101.3491074961014
 21
255.6013319986732
 31
0.0
  0
LINE
  5
AD6F
330
A
100
AcDbEntity
  8
0
  6
________________
 62
     7
370
     9
100
AcDbLine
 10
103.0490564961015
 20
255.6013319985971
 30
0.0
 11
103.0490564963259
 21
260.601181998597
 31
0.0
  0
ARC
  5
AD70
330
A
100
AcDbEntity
  8
0
  6
________________
 62
     7
370
     9
100
AcDbCircle
 10
-102.049086496326
 20
260.6011819986418
 30
0.0
 40
0.9999699999999775
210
0.0
220
0.0
230
-1.0
100
AcDbArc
 50
90.00000000256651
 51
180.0000000025665
  0
LINE
  5
AD71
330
A
100
AcDbEntity
  8
0
  6
________________
 62
     7
370
     9
100
AcDbLine
 10
102.0490864963708
 20
261.6011519986419
 30
0.0
 11
93.54934149637097
 21
261.6011519990234
 31
0.0
  0
LINE
  5
AD72
330
A
100
AcDbEntity
  8
0
  6
________________
 62
     7
370
     9
100
AcDbLine
 10
93.54934149637097
 20
261.6011519990234
 30
0.0
 11
93.54934149641576
 21
262.6011219990235
 31
0.0
  0
LINE
  5
AD73
330
A
100
AcDbEntity
  8
0
  6
________________
 62
     7
370
     9
100
AcDbLine
 10
93.54934149641576
 20
262.6011219990235
 30
0.0
 11
95.40431109891097
 21
264.456091601352
 31
0.0
  0
ARC
  5
AD74
330
A
100
AcDbEntity
  8
0
  6
________________
 62
     7
370
     9
100
AcDbCircle
 10
-95.75430059889527
 20
264.1061021013363
 30
0.0
 40
0.4949598975882085
210
0.0
220
0.0
230
-1.0
100
AcDbArc
 50
45.0000000025358
 51
180.0000000025794
  0
LINE
  5
AD75
330
A
100
AcDbEntity
  8
0
  6
________________
 62
     7
370
     9
100
AcDbLine
 10
96.24926049648343
 20
264.106102101314
 30
0.0
 11
96.2492604964516
 21
263.4010980000135
 31
0.0
  0
LINE
  5
AD76
330
A
100
AcDbEntity
  8
0
  6
________________
 62
     7
370
     9
100
AcDbLine
 10
96.2492604964516
 20
263.4010980000135
 30
0.0
 11
96.24926049642932
 21
262.9011129989024
 31
0.0
  0
LINE
  5
AD77
330
A
100
AcDbEntity
  8
0
  6
________________
 62
     7
370
     9
100
AcDbLine
 10
96.24926049642932
 20
262.9011129989024
 30
0.0
 11
102.0490864964293
 21
262.9011129986418
 31
0.0
  0
ARC
  5
AD78
330
A
100
AcDbEntity
  8
0
  6
________________
 62
     7
370
     9
100
AcDbCircle
 10
-102.049086496474
 20
263.9010829986419
 30
0.0
 40
0.9999699999999775
210
0.0
220
0.0
230
-1.0
100
AcDbArc
 50
180.0000000025665
 51
270.0000000025665
  0
LINE
  5
AD79
330
A
100
AcDbEntity
  8
0
  6
________________
 62
     7
370
     9
100
AcDbLine
 10
103.0490564964741
 20
263.9010829985971
 30
0.0
 11
103.0490564967436
 21
269.9009029985971
 31
0.0
  0
LINE
  5
AD7A
330
A
100
AcDbEntity
  8
0
  6
________________
 62
     7
370
     9
100
AcDbLine
 10
103.0490564967436
 20
269.9009029985971
 30
0.0
 11
101.4662608572346
 21
269.900902998668
 31
0.0
  0
LINE
  5
AD7B
330
A
100
AcDbEntity
  8
0
  6
________________
 62
   253
370
     9
100
AcDbLine
 10
102.546564782326
 20
273.9744159980648
 30
0.0
 11
105.5489814969264
 21
273.9744159979302
 31
0.0
  0
LINE
  5
AD7C
330
A
100
AcDbEntity
  8
0
  6
________________
 62
     7
370
     9
100
AcDbLine
 10
105.5489814969264
 20
273.9744159979302
 30
0.0
 11
105.5489814959769
 21
252.8277799990392
 31
0.0
  0
LINE
  5
AD7D
330
A
100
AcDbEntity
  8
0
  6
________________
 62
   253
370
     9
100
AcDbLine
 10
102.0028919210804
 20
252.8277799991986
 30
0.0
 11
105.5489814959769
 21
252.8277799990392
 31
0.0
  0
ARC
  5
AD7E
330
A
100
AcDbEntity
  8
0
  6
________________
 62
     7
370
     9
100
AcDbCircle
 10
-107.3489274960991
 20
255.5513334984039
 30
0.0
 40
5.99982000000002
210
0.0
220
0.0
230
-1.0
100
AcDbArc
 50
333.0032986700821
 51
0.0000000025730187
  0
LINE
  5
AD7F
330
A
100
AcDbEntity
  8
0
  6
________________
 62
     7
370
     9
100
AcDbLine
 10
101.3491074961014
 20
255.6013319986732
 30
0.0
 11
103.0490564961015
 21
255.6013319985971
 31
0.0
  0
LINE
  5
AD80
330
A
100
AcDbEntity
  8
0
  6
________________
 62
     7
370
     9
100
AcDbLine
 10
105.5489814958423
 20
249.8278699990392
 30
0.0
 11
105.5489814959769
 21
252.8277799990392
 31
0.0
  0
LINE
  5
AD81
330
A
100
AcDbEntity
  8
0
  6
________________
 62
     7
370
     9
100
AcDbLine
 10
105.5489814958423
 20
249.8278699990392
 30
0.0
 11
105.4146363787852
 21
249.871865397791
 31
0.0
  0
LINE
  5
AD82
330
A
100
AcDbEntity
  8
0
  6
________________
 62
     7
370
     9
100
AcDbLine
 10
105.4146363787852
 20
249.871865397791
 30
0.0
 11
104.9001684327443
 21
250.0739783810104
 31
0.0
  0
ARC
  5
AD83
330
A
100
AcDbEntity
  8
0
  6
________________
 62
     7
370
     9
100
AcDbCircle
 10
-107.3493336836127
 20
255.5516690910397
 30
0.0
 40
6.000334266088865
210
0.0
220
0.0
230
-1.0
100
AcDbArc
 50
307.8706750632842
 51
333.0022040038738
  0
LINE
  5
AD84
330
A
100
AcDbEntity
  8
0
  6
________________
 62
     7
370
     9
100
AcDbLine
 10
105.5489814969264
 20
273.9744159979302
 30
0.0
 11
105.548981497061
 21
276.97432599793
 31
0.0
  0
LINE
  5
AD85
330
A
100
AcDbEntity
  8
0
  6
________________
 62
     7
370
     9
100
AcDbLine
 10
104.1388905851932
 20
276.3197384150637
 30
0.0
 11
105.548981497061
 21
276.97432599793
 31
0.0
  0
ARC
  5
AD86
330
A
100
AcDbEntity
  8
0
  6
________________
 62
     7
370
     9
100
AcDbCircle
 10
90.54943149641804
 20
291.00027
 30
0.0
 40
0.4999849999999887
100
AcDbArc
 50
180.0
 51
270.0
  0
ARC
  5
AD87
330
A
100
AcDbEntity
  8
0
  6
________________
 62
     7
370
     9
100
AcDbCircle
 10
98.2492004964181
 20
291.9102932048236
 30
0.0
 40
0.999970000000014
100
AcDbArc
 50
0.0
 51
45.00000000001094
  0
LINE
  5
AD88
330
A
100
AcDbEntity
  8
0
  6
________________
 62
     7
370
     9
100
AcDbLine
 10
72.89996099641803
 20
268.3509495000001
 30
0.0
 11
72.89996099641803
 21
268.1009570000001
 31
0.0
  0
ARC
  5
AD89
330
A
100
AcDbEntity
  8
0
  6
________________
 62
     7
370
     9
100
AcDbCircle
 10
67.25013049641802
 20
266.0909667951764
 30
0.0
 40
0.999970000000014
100
AcDbArc
 50
180.0
 51
225.0000000000017
  0
ARC
  5
AD8A
330
A
100
AcDbEntity
  8
0
  6
________________
 62
     7
370
     9
100
AcDbCircle
 10
74.19992199641797
 20
268.3509495000001
 30
0.0
 40
1.299960999999985
100
AcDbArc
 50
0.0
 51
90.0
  0
ARC
  5
AD8B
330
A
100
AcDbEntity
  8
0
  6
________________
 62
     7
370
     9
100
AcDbCircle
 10
96.54925149641804
 20
263.401098
 30
0.0
 40
0.2999910000000078
100
AcDbArc
 50
270.0
 51
315.0000000000019
  0
ARC
  5
AD8C
330
A
100
AcDbEntity
  8
0
  6
________________
 62
     7
370
     9
100
AcDbCircle
 10
96.54925149641804
 20
263.401098
 30
0.0
 40
0.2999910000000078
100
AcDbArc
 50
180.0
 51
270.0
  0
ARC
  5
AD8D
330
A
100
AcDbEntity
  8
0
  6
________________
 62
     7
370
     9
100
AcDbCircle
 10
96.54925149641804
 20
294.6001620000002
 30
0.0
 40
0.2999910000000078
100
AcDbArc
 50
90.0
 51
180.0
  0
ARC
  5
AD8E
330
A
100
AcDbEntity
  8
0
  6
________________
 62
     7
370
     9
100
AcDbCircle
 10
68.95007949641808
 20
294.6001620000002
 30
0.0
 40
0.2999909999999714
100
AcDbArc
 50
0.0
 51
90.0
  0
ARC
  5
AD8F
330
A
100
AcDbEntity
  8
0
  6
________________
 62
     7
370
     9
100
AcDbCircle
 10
68.95007949641808
 20
294.6001620000002
 30
0.0
 40
0.2999910000000078
100
AcDbArc
 50
90.0
 51
135.0000000000019
  0
ARC
  5
AD90
330
A
100
AcDbEntity
  8
0
  6
________________
 62
     7
370
     9
100
AcDbCircle
 10
-69.55006149641804
 20
293.300201
 30
0.0
 40
0.2999910000000078
210
0.0
220
0.0
230
-1.0
100
AcDbArc
 50
270.0
 51
0.0
  0
ARC
  5
AD91
330
A
100
AcDbEntity
  8
0
  6
________________
 62
     7
370
     9
100
AcDbCircle
 10
67.25013049641802
 20
291.9102932048238
 30
0.0
 40
0.999969999999982
100
AcDbArc
 50
135.0000000000006
 51
180.0
  0
LINE
  5
AD92
330
A
100
AcDbEntity
  8
0
  6
________________
 62
     7
370
     9
100
AcDbLine
 10
72.44997449641801
 20
300.0
 30
0.0
 11
72.44997449641801
 21
293.5001950000001
 31
0.0
  0
LINE
  5
AD93
330
A
100
AcDbEntity
  8
0
  6
________________
 62
     7
370
     9
100
AcDbLine
 10
96.76137716681296
 20
294.8122876703951
 30
0.0
 11
98.95628606440118
 21
292.6173787728069
 31
0.0
  0
LINE
  5
AD94
330
A
100
AcDbEntity
  8
0
  6
________________
 62
     7
370
     9
100
AcDbLine
 10
66.54304492843494
 20
292.6173787728069
 30
0.0
 11
68.73795382602316
 21
294.8122876703951
 31
0.0
  0
ARC
  5
AD95
330
A
100
AcDbEntity
  8
0
  6
________________
 62
     7
370
     9
100
AcDbCircle
 10
96.54925149641804
 20
294.6001620000002
 30
0.0
 40
0.2999909999999997
100
AcDbArc
 50
44.99999999999809
 51
90.0
  0
LINE
  5
AD96
330
A
100
AcDbEntity
  8
0
  6
________________
 62
     7
370
     9
100
AcDbLine
 10
83.04965649641804
 20
297.00009
 30
0.0
 11
82.74966549641795
 21
297.3000810000001
 31
0.0
  0
LINE
  5
AD97
330
A
100
AcDbEntity
  8
0
  6
________________
 62
     7
370
     9
100
AcDbLine
 10
66.25016049641795
 20
278.7006390000001
 30
0.0
 11
66.55015149641804
 21
279.00063
 31
0.0
  0
LINE
  5
AD98
330
A
100
AcDbEntity
  8
0
  6
________________
 62
     7
370
     9
100
AcDbLine
 10
98.95628606440118
 20
265.3838812271933
 30
0.0
 11
96.76137716681296
 21
263.1889723296051
 31
0.0
  0
ARC
  5
AD99
330
A
100
AcDbEntity
  8
0
  6
________________
 62
     7
370
     9
100
AcDbCircle
 10
-69.7500554964181
 20
290.0002999999999
 30
0.0
 40
0.4999850000000253
210
0.0
220
0.0
230
-1.0
100
AcDbArc
 50
0.0
 51
90.0
  0
LINE
  5
AD9A
330
A
100
AcDbEntity
  8
0
  6
________________
 62
     7
370
     9
100
AcDbLine
 10
69.25007049641795
 20
293.300201
 30
0.0
 11
69.25007049641795
 21
294.6001620000002
 31
0.0
  0
ARC
  5
AD9B
330
A
100
AcDbEntity
  8
0
  6
________________
 62
     7
370
     9
100
AcDbCircle
 10
-93.54934149641804
 20
293.5001950000001
 30
0.0
 40
0.4999849999999887
210
0.0
220
0.0
230
-1.0
100
AcDbArc
 50
270.0
 51
0.0
  0
ARC
  5
AD9C
330
A
100
AcDbEntity
  8
0
  6
________________
 62
     7
370
     9
100
AcDbCircle
 10
-71.94998949641808
 20
293.5001950000001
 30
0.0
 40
0.4999850000000253
210
0.0
220
0.0
230
-1.0
100
AcDbArc
 50
180.0
 51
270.0
  0
ARC
  5
AD9D
330
A
100
AcDbEntity
  8
0
  6
________________
 62
     7
370
     9
100
AcDbCircle
 10
74.94989949641808
 20
291.00027
 30
0.0
 40
0.4999849999999887
100
AcDbArc
 50
270.0
 51
0.0
  0
ARC
  5
AD9E
330
A
100
AcDbEntity
  8
0
  6
________________
 62
     7
370
     9
100
AcDbCircle
 10
-95.94926949641808
 20
268.4009480000002
 30
0.0
 40
0.2999910000000078
210
0.0
220
0.0
230
-1.0
100
AcDbArc
 50
180.0
 51
270.0
  0
ARC
  5
AD9F
330
A
100
AcDbEntity
  8
0
  6
________________
 62
     7
370
     9
100
AcDbCircle
 10
-69.55006149641804
 20
268.4009480000002
 30
0.0
 40
0.2999910000000078
210
0.0
220
0.0
230
-1.0
100
AcDbArc
 50
270.0
 51
0.0
  0
LINE
  5
ADA0
330
A
100
AcDbEntity
  8
0
  6
________________
 62
     7
370
     9
100
AcDbLine
 10
66.25016049641795
 20
278.7006390000001
 30
0.0
 11
66.25016049641795
 21
266.0909667951764
 31
0.0
  0
ARC
  5
ADA1
330
A
100
AcDbEntity
  8
0
  6
________________
 62
     7
370
     9
100
AcDbCircle
 10
98.2492004964181
 20
266.0909667951764
 30
0.0
 40
0.999969999999982
100
AcDbArc
 50
315.0000000000006
 51
0.0
  0
LINE
  5
ADA2
330
A
100
AcDbEntity
  8
0
  6
________________
 62
     7
370
     9
100
AcDbLine
 10
72.89996099641803
 20
268.1009570000001
 30
0.0
 11
69.55006149641804
 21
268.1009570000001
 31
0.0
  0
ARC
  5
ADA3
330
A
100
AcDbEntity
  8
0
  6
________________
 62
     7
370
     9
100
AcDbCircle
 10
74.19992199641797
 20
268.3509495000001
 30
0.0
 40
1.299960999999985
100
AcDbArc
 50
90.0
 51
180.0
  0
LINE
  5
ADA4
330
A
100
AcDbEntity
  8
0
  6
________________
 62
     7
370
     9
100
AcDbLine
 10
75.49988299641814
 20
265.1010470000001
 30
0.0
 11
75.49988299641814
 21
268.3509495000001
 31
0.0
  0
ARC
  5
ADA5
330
A
100
AcDbEntity
  8
0
  6
________________
 62
     7
370
     9
100
AcDbCircle
 10
-69.55006149641804
 20
264.801056
 30
0.0
 40
0.2999910000000078
210
0.0
220
0.0
230
-1.0
100
AcDbArc
 50
0.0
 51
90.0
  0
ARC
  5
ADA6
330
A
100
AcDbEntity
  8
0
  6
________________
 62
     7
370
     9
100
AcDbCircle
 10
-95.74927549641802
 20
290.0002999999999
 30
0.0
 40
0.4999849999999887
210
0.0
220
0.0
230
-1.0
100
AcDbArc
 50
90.0
 51
180.0
  0
LINE
  5
ADA7
330
A
100
AcDbEntity
  8
0
  6
________________
 62
     7
370
     9
100
AcDbLine
 10
68.73795382602316
 20
263.1889723296051
 30
0.0
 11
66.54304492843494
 21
265.3838812271933
 31
0.0
  0
LINE
  5
ADA8
330
A
100
AcDbEntity
  8
0
  6
________________
 62
     7
370
     9
100
AcDbLine
 10
66.25016049641795
 20
291.9102932048238
 30
0.0
 11
66.25016049641795
 21
279.3006210000001
 31
0.0
  0
ARC
  5
ADA9
330
A
100
AcDbEntity
  8
0
  6
________________
 62
     7
370
     9
100
AcDbCircle
 10
-95.94926949641808
 20
293.300201
 30
0.0
 40
0.2999910000000078
210
0.0
220
0.0
230
-1.0
100
AcDbArc
 50
180.0
 51
270.0
  0
LINE
  5
ADAA
330
A
100
AcDbEntity
  8
0
  6
________________
 62
     7
370
     9
100
AcDbLine
 10
96.24926049641795
 20
294.6001620000002
 30
0.0
 11
96.24926049641795
 21
294.4001680008257
 31
0.0
  0
LINE
  5
ADAB
330
A
100
AcDbEntity
  8
0
  6
________________
 62
     7
370
     9
100
AcDbLine
 10
96.24926049641795
 20
294.4001680008257
 30
0.0
 11
96.24926049641795
 21
293.300201
 31
0.0
  0
LINE
  5
ADAC
330
A
100
AcDbEntity
  8
0
  6
________________
 62
     7
370
     9
100
AcDbLine
 10
82.74966549641795
 20
297.3000810000001
 30
0.0
 11
82.44967449641808
 21
297.00009
 31
0.0
  0
LINE
  5
ADAD
330
A
100
AcDbEntity
  8
0
  6
________________
 62
     7
370
     9
100
AcDbLine
 10
69.25007049641795
 20
263.401098
 30
0.0
 11
69.25007049641795
 21
264.801056
 31
0.0
  0
LINE
  5
ADAE
330
A
100
AcDbEntity
  8
0
  6
________________
 62
     7
370
     9
100
AcDbLine
 10
66.55015149641804
 20
279.00063
 30
0.0
 11
66.25016049641795
 21
279.3006210000001
 31
0.0
  0
LINE
  5
ADAF
330
A
100
AcDbEntity
  8
0
  6
________________
 62
     7
370
     9
100
AcDbLine
 10
69.25007049641795
 20
268.4009480000002
 30
0.0
 11
69.25007049641795
 21
290.0002999999999
 31
0.0
  0
LINE
  5
ADB0
330
A
100
AcDbEntity
  8
0
  6
________________
 62
     7
370
     9
100
AcDbLine
 10
95.94926949641808
 20
293.0002100000002
 30
0.0
 11
93.54934149641804
 21
293.0002100000002
 31
0.0
  0
ARC
  5
ADB1
330
A
100
AcDbEntity
  8
0
  6
________________
 62
     7
370
     9
100
AcDbCircle
 10
68.95007949641808
 20
263.401098
 30
0.0
 40
0.2999910000000078
100
AcDbArc
 50
270.0
 51
0.0
  0
ARC
  5
ADB2
330
A
100
AcDbEntity
  8
0
  6
________________
 62
     7
370
     9
100
AcDbCircle
 10
68.95007949641808
 20
263.401098
 30
0.0
 40
0.2999910000000255
100
AcDbArc
 50
224.9999999999962
 51
270.0
  0
ARC
  5
ADB3
330
A
100
AcDbEntity
  8
0
  6
________________
 62
     7
370
     9
100
AcDbCircle
 10
91.29940899641792
 20
268.3509495000001
 30
0.0
 40
1.299960999999985
100
AcDbArc
 50
0.0
 51
90.0
  0
LINE
  5
ADB4
330
A
100
AcDbEntity
  8
0
  6
________________
 62
     7
370
     9
100
AcDbLine
 10
71.94998949641808
 20
293.0002100000002
 30
0.0
 11
69.55006149641804
 21
293.0002100000002
 31
0.0
  0
LINE
  5
ADB5
330
A
100
AcDbEntity
  8
0
  6
________________
 62
     7
370
     9
100
AcDbLine
 10
93.04935649641811
 20
300.0
 30
0.0
 11
72.44997449641801
 21
300.0
 31
0.0
  0
LINE
  5
ADB6
330
A
100
AcDbEntity
  8
0
  6
________________
 62
     7
370
     9
100
AcDbLine
 10
93.04935649641811
 20
293.5001950000001
 30
0.0
 11
93.04935649641811
 21
300.0
 31
0.0
  0
LINE
  5
ADB7
330
A
100
AcDbEntity
  8
0
  6
________________
 62
     7
370
     9
100
AcDbLine
 10
75.44988449641801
 20
297.00009
 30
0.0
 11
82.44967449641808
 21
297.00009
 31
0.0
  0
LINE
  5
ADB8
330
A
100
AcDbEntity
  8
0
  6
________________
 62
     7
370
     9
100
AcDbLine
 10
83.04965649641804
 20
297.00009
 30
0.0
 11
90.04944649641811
 21
297.00009
 31
0.0
  0
LINE
  5
ADB9
330
A
100
AcDbEntity
  8
0
  6
________________
 62
     7
370
     9
100
AcDbLine
 10
96.24926049641795
 20
290.0002999999999
 30
0.0
 11
96.24926049641795
 21
268.4009480000002
 31
0.0
  0
LINE
  5
ADBA
330
A
100
AcDbEntity
  8
0
  6
________________
 62
     7
370
     9
100
AcDbLine
 10
89.99944799641798
 20
265.1010470000001
 30
0.0
 11
95.94926949641808
 21
265.1010470000001
 31
0.0
  0
LINE
  5
ADBB
330
A
100
AcDbEntity
  8
0
  6
________________
 62
     7
370
     9
100
AcDbLine
 10
95.94926949641808
 20
268.1009570000001
 30
0.0
 11
92.59936999641809
 21
268.1009570000001
 31
0.0
  0
LINE
  5
ADBC
330
A
100
AcDbEntity
  8
0
  6
________________
 62
     7
370
     9
100
AcDbLine
 10
69.55006149641804
 20
265.1010470000001
 30
0.0
 11
75.49988299641814
 21
265.1010470000001
 31
0.0
  0
LINE
  5
ADBD
330
A
100
AcDbEntity
  8
0
  6
________________
 62
     7
370
     9
100
AcDbLine
 10
69.7500554964181
 20
290.5002850000001
 30
0.0
 11
74.94989949641808
 21
290.5002850000001
 31
0.0
  0
LINE
  5
ADBE
330
A
100
AcDbEntity
  8
0
  6
________________
 62
     7
370
     9
100
AcDbLine
 10
75.44988449641801
 20
291.00027
 30
0.0
 11
75.44988449641801
 21
297.00009
 31
0.0
  0
LINE
  5
ADBF
330
A
100
AcDbEntity
  8
0
  6
________________
 62
     7
370
     9
100
AcDbLine
 10
96.24926049641795
 20
264.801056
 30
0.0
 11
96.24926049641795
 21
264.1061021013363
 31
0.0
  0
LINE
  5
ADC0
330
A
100
AcDbEntity
  8
0
  6
________________
 62
     7
370
     9
100
AcDbLine
 10
96.24926049641795
 20
264.1061021013363
 30
0.0
 11
96.24926049641795
 21
263.401098
 31
0.0
  0
ARC
  5
ADC1
330
A
100
AcDbEntity
  8
0
  6
________________
 62
     7
370
     9
100
AcDbCircle
 10
-95.94926949641808
 20
264.801056
 30
0.0
 40
0.2999910000000078
210
0.0
220
0.0
230
-1.0
100
AcDbArc
 50
90.0
 51
180.0
  0
LINE
  5
ADC2
330
A
100
AcDbEntity
  8
0
  6
________________
 62
     7
370
     9
100
AcDbLine
 10
89.99944799641798
 20
268.3509495000001
 30
0.0
 11
89.99944799641798
 21
265.1010470000001
 31
0.0
  0
ARC
  5
ADC3
330
A
100
AcDbEntity
  8
0
  6
________________
 62
     7
370
     9
100
AcDbCircle
 10
91.29940899641792
 20
268.3509495000001
 30
0.0
 40
1.299960999999985
100
AcDbArc
 50
90.0
 51
180.0
  0
LINE
  5
ADC4
330
A
100
AcDbEntity
  8
0
  6
________________
 62
     7
370
     9
100
AcDbLine
 10
92.59936999641809
 20
268.1009570000001
 30
0.0
 11
92.59936999641809
 21
268.3509495000001
 31
0.0
  0
LINE
  5
ADC5
330
A
100
AcDbEntity
  8
0
  6
________________
 62
     7
370
     9
100
AcDbLine
 10
90.04944649641811
 20
297.00009
 30
0.0
 11
90.04944649641811
 21
291.00027
 31
0.0
  0
LINE
  5
ADC6
330
A
100
AcDbEntity
  8
0
  6
________________
 62
     7
370
     9
100
AcDbLine
 10
90.54943149641804
 20
290.5002850000001
 30
0.0
 11
95.74927549641802
 21
290.5002850000001
 31
0.0
  0
LINE
  5
ADC7
330
A
100
AcDbEntity
  8
0
  6
________________
 62
     7
370
     9
100
AcDbLine
 10
99.24917049641795
 20
279.3006210000001
 30
0.0
 11
99.24917049641795
 21
291.9102932048236
 31
0.0
  0
LINE
  5
ADC8
330
A
100
AcDbEntity
  8
0
  6
________________
 62
     7
370
     9
100
AcDbLine
 10
99.24917049641795
 20
266.0909667951764
 30
0.0
 11
99.24917049641795
 21
278.7006389999999
 31
0.0
  0
LINE
  5
ADC9
330
A
100
AcDbEntity
  8
0
  6
________________
 62
     7
370
     9
100
AcDbLine
 10
98.94917949641808
 20
279.00063
 30
0.0
 11
99.24917049641795
 21
278.7006389999999
 31
0.0
  0
LINE
  5
ADCA
330
A
100
AcDbEntity
  8
0
  6
________________
 62
     7
370
     9
100
AcDbLine
 10
99.24917049641795
 20
279.3006210000001
 30
0.0
 11
98.94917949641808
 21
279.00063
 31
0.0
  0
LINE
  5
ADCB
330
A
100
AcDbEntity
  8
0
  6
________________
 62
     7
370
     9
100
AcDbLine
 10
91.69939703122577
 20
253.0014099958585
 30
0.0
 11
91.69939703130285
 21
254.2013739958584
 31
0.0
  0
LINE
  5
ADCC
330
A
100
AcDbEntity
  8
0
  6
________________
 62
     7
370
     9
100
AcDbLine
 10
73.79993403130288
 20
254.2013739970075
 30
0.0
 11
73.79993403122603
 21
253.0014099970074
 31
0.0
  0
LINE
  5
ADCD
330
A
100
AcDbEntity
  8
0
  6
Continuous
 62
     3
370
     0
100
AcDbLine
 10
78.74978553388291
 20
291.3752587466911
 30
0.0
 11
78.74978553174037
 21
261.001189358441
 31
0.0
  0
LINE
  5
ADCE
330
A
100
AcDbEntity
  8
0
  6
Continuous
 62
     3
370
     0
100
AcDbLine
 10
86.74954553173848
 20
261.001189358441
 30
0.0
 11
86.74954553375346
 21
291.3752587461777
 31
0.0
  0
LINE
  5
ADCF
330
A
100
AcDbEntity
  8
0
  6
Continuous
 62
     3
370
     0
100
AcDbLine
 10
86.7495455336882
 20
291.3752587461777
 30
0.0
 11
86.12456428372866
 21
292.0002399962177
 31
0.0
  0
LINE
  5
ADD0
330
A
100
AcDbEntity
  8
0
  6
Continuous
 62
     3
370
     0
100
AcDbLine
 10
79.37476678373037
 20
292.0002399966511
 30
0.0
 11
78.74978553369033
 21
291.3752587466911
 31
0.0
  0
LINE
  5
ADD1
330
A
100
AcDbEntity
  8
0
  6
________________
 62
     7
370
     9
100
AcDbLine
 10
94.29931901902887
 20
289.3503194953801
 30
0.0
 11
92.91594127533722
 21
289.3503194955572
 31
0.0
  0
LINE
  5
ADD2
330
A
100
AcDbEntity
  8
0
  6
________________
 62
     7
370
     9
100
AcDbLine
 10
92.9159412726483
 20
268.3509494955572
 30
0.0
 11
94.29931901633995
 21
268.3509494953801
 31
0.0
  0
LINE
  5
ADD3
330
A
100
AcDbEntity
  8
0
  6
________________
 62
     7
370
     9
100
AcDbLine
 10
92.91594127533722
 20
289.3503194955572
 30
0.0
 11
92.59840815349185
 21
288.8003359955978
 31
0.0
  0
LINE
  5
ADD4
330
A
100
AcDbEntity
  8
0
  6
________________
 62
     7
370
     9
100
AcDbLine
 10
92.5984081509439
 20
268.9009329955977
 30
0.0
 11
92.9159412726483
 21
268.3509494955572
 31
0.0
  0
LINE
  5
ADD5
330
A
100
AcDbEntity
  8
0
  6
________________
 62
     7
370
     9
100
AcDbLine
 10
89.6828767600316
 20
268.3509494959712
 30
0.0
 11
90.00040988187675
 21
268.9009329959304
 31
0.0
  0
LINE
  5
ADD6
330
A
100
AcDbEntity
  8
0
  6
________________
 62
     7
370
     9
100
AcDbLine
 10
90.00040988442493
 20
288.8003359959305
 30
0.0
 11
89.68287676272053
 21
289.350319495971
 31
0.0
  0
LINE
  5
ADD7
330
A
100
AcDbEntity
  8
0
  6
________________
 62
     7
370
     9
100
AcDbLine
 10
89.68287676272053
 20
289.350319495971
 30
0.0
 11
88.29949901902887
 21
289.3503194961481
 31
0.0
  0
LINE
  5
ADD8
330
A
100
AcDbEntity
  8
0
  6
________________
 62
     7
370
     9
100
AcDbLine
 10
88.29949901633995
 20
268.3509494961481
 30
0.0
 11
89.6828767600316
 21
268.3509494959712
 31
0.0
  0
ARC
  5
ADD9
330
A
100
AcDbEntity
  8
0
  6
________________
 62
     7
370
     9
100
AcDbCircle
 10
-91.29940901905434
 20
289.5503134957642
 30
0.0
 40
1.499954999999947
210
0.0
220
0.0
230
-1.0
100
AcDbArc
 50
210.0000000073374
 51
330.0000000073251
  0
ARC
  5
ADDA
330
A
100
AcDbEntity
  8
0
  6
________________
 62
     7
370
     9
100
AcDbCircle
 10
-91.29940901631426
 20
268.150955495764
 30
0.0
 40
1.499955000000016
210
0.0
220
0.0
230
-1.0
100
AcDbArc
 50
30.00000000733578
 51
89.9999943127471
  0
ARC
  5
ADDB
330
A
100
AcDbEntity
  8
0
  6
________________
 62
     7
370
     9
100
AcDbCircle
 10
-91.29940901631426
 20
268.150955495764
 30
0.0
 40
1.499955000000047
210
0.0
220
0.0
230
-1.0
100
AcDbArc
 50
89.9999943127471
 51
150.0000000073418
  0
LINE
  5
ADDC
330
A
100
AcDbEntity
  8
0
  6
________________
 62
     7
370
     9
100
AcDbLine
 10
75.81645427398871
 20
268.350949497953
 30
0.0
 11
77.19983201768036
 21
268.3509494979523
 31
0.0
  0
LINE
  5
ADDD
330
A
100
AcDbEntity
  8
0
  6
________________
 62
     7
370
     9
100
AcDbLine
 10
77.19983201768832
 20
289.3503194979526
 30
0.0
 11
75.81645427399667
 21
289.350319497953
 31
0.0
  0
LINE
  5
ADDE
330
A
100
AcDbEntity
  8
0
  6
________________
 62
     7
370
     9
100
AcDbLine
 10
75.81645427399667
 20
289.350319497953
 30
0.0
 11
75.49892115222156
 21
288.800335997953
 31
0.0
  0
LINE
  5
ADDF
330
A
100
AcDbEntity
  8
0
  6
________________
 62
     7
370
     9
100
AcDbLine
 10
75.49892115221405
 20
268.9009329979531
 30
0.0
 11
75.81645427398871
 21
268.350949497953
 31
0.0
  0
LINE
  5
ADE0
330
A
100
AcDbEntity
  8
0
  6
________________
 62
     7
370
     9
100
AcDbLine
 10
72.58338976137202
 20
268.3509494979542
 30
0.0
 11
72.90092288314713
 21
268.900932997954
 31
0.0
  0
LINE
  5
ADE1
330
A
100
AcDbEntity
  8
0
  6
________________
 62
     7
370
     9
100
AcDbLine
 10
72.90092288315441
 20
288.8003359979541
 30
0.0
 11
72.58338976137998
 21
289.3503194979542
 31
0.0
  0
LINE
  5
ADE2
330
A
100
AcDbEntity
  8
0
  6
________________
 62
     7
370
     9
100
AcDbLine
 10
71.20001201768036
 20
268.3509494979546
 30
0.0
 11
72.58338976137202
 21
268.3509494979542
 31
0.0
  0
LINE
  5
ADE3
330
A
100
AcDbEntity
  8
0
  6
________________
 62
     7
370
     9
100
AcDbLine
 10
72.58338976137998
 20
289.3503194979542
 30
0.0
 11
71.2000120176881
 21
289.3503194979546
 31
0.0
  0
ARC
  5
ADE4
330
A
100
AcDbEntity
  8
0
  6
________________
 62
     7
370
     9
100
AcDbCircle
 10
-74.19992201768036
 20
268.1509554979536
 30
0.0
 40
1.499955000000005
210
0.0
220
0.0
230
-1.0
100
AcDbArc
 50
30.00000000001534
 51
89.99999390382604
  0
ARC
  5
ADE5
330
A
100
AcDbEntity
  8
0
  6
________________
 62
     7
370
     9
100
AcDbCircle
 10
-74.19992201768036
 20
268.1509554979536
 30
0.0
 40
1.499954999999975
210
0.0
220
0.0
230
-1.0
100
AcDbArc
 50
89.99999390382604
 51
150.0000000000245
  0
ARC
  5
ADE6
330
A
100
AcDbEntity
  8
0
  6
________________
 62
     7
370
     9
100
AcDbCircle
 10
-74.19992201768832
 20
289.5503134979535
 30
0.0
 40
1.499955000000005
210
0.0
220
0.0
230
-1.0
100
AcDbArc
 50
210.0000000000153
 51
330.0000000000252
  0
LINE
  5
ADE7
330
A
100
AcDbEntity
  8
0
  6
________________
 62
     7
370
     9
100
AcDbLine
 10
88.29949901813256
 20
282.3505294957238
 30
0.0
 11
87.64951852764534
 21
282.350529495807
 31
0.0
  0
LINE
  5
ADE8
330
A
100
AcDbEntity
  8
0
  6
________________
 62
     7
370
     9
100
AcDbLine
 10
77.8498125446713
 20
282.3505294970616
 30
0.0
 11
77.19983201051991
 21
282.3505294971449
 31
0.0
  0
LINE
  5
ADE9
330
A
100
AcDbEntity
  8
0
  6
________________
 62
     7
370
     9
100
AcDbLine
 10
77.19983201051718
 20
275.350739497145
 30
0.0
 11
77.849812544222
 21
275.3507394970618
 31
0.0
  0
LINE
  5
ADEA
330
A
100
AcDbEntity
  8
0
  6
________________
 62
     7
370
     9
100
AcDbLine
 10
87.64951854422202
 20
275.3507394958069
 30
0.0
 11
88.29949901723626
 21
275.3507394957237
 31
0.0
  0
LINE
  5
ADEB
330
A
100
AcDbEntity
  8
0
  6
________________
 62
     7
370
     9
100
AcDbLine
 10
87.64951852032141
 20
284.2721289918727
 30
0.0
 11
77.8498125203214
 21
284.2721289925018
 31
0.0
  0
LINE
  5
ADEC
330
A
100
AcDbEntity
  8
0
  6
________________
 62
     7
370
     9
100
AcDbLine
 10
77.8498125196254
 20
273.4291400009959
 30
0.0
 11
87.64951851962519
 21
273.4291400003667
 31
0.0
  0
LINE
  5
ADEE
330
A
100
AcDbEntity
  8
0
  6
Continuous
 62
     7
370
     0
100
AcDbLine
 10
0.0
 20
0.0
 30
0.0
 11
165.5000000000002
 21
0.0
 31
0.0
  0
TEXT
  5
13023
330
A
100
AcDbEntity
  8
0
  6
Continuous
 62
     7
370
     0
100
AcDbText
 10
-19.27958831692892
 20
208.3513788660469
 30
-0.00000000026315
 40
20.0
  1
SLAK-2
100
AcDbText
  0
LINE
  5
13800
330
A
100
AcDbEntity
  8
0
  6
ByBlock
 62
     4
370
     0
100
AcDbLine
 10
77.74978632795751
 20
131.9279743194729
 30
-0.00000000026315
 11
82.19982419788673
 21
135.0203800046534
 31
-0.00000000026315
  0
LINE
  5
13801
330
A
100
AcDbEntity
  8
0
  6
ByBlock
 62
     4
370
     0
100
AcDbLine
 10
82.19982419788673
 20
135.0203800046534
 30
-0.00000000026315
 11
84.05764345859666
 21
132.1009497378235
 31
-0.00000000026315
  0
LINE
  5
13802
330
A
100
AcDbEntity
  8
0
  6
ByBlock
 62
     4
370
     0
100
AcDbLine
 10
84.05764345859666
 20
132.1009497378235
 30
-0.00000000026315
 11
87.74977679121437
 21
134.2821259213229
 31
-0.00000000026315
  0
LINE
  5
13803
330
A
100
AcDbEntity
  8
0
  6
ByBlock
 62
     4
370
     0
100
AcDbLine
 10
77.74978632795751
 20
126.9279743194729
 30
-0.00000000026315
 11
82.19982419788673
 21
130.0203800046534
 31
-0.00000000026315
  0
LINE
  5
13804
330
A
100
AcDbEntity
  8
0
  6
ByBlock
 62
     4
370
     0
100
AcDbLine
 10
82.19982419788673
 20
130.0203800046534
 30
-0.00000000026315
 11
84.05764345859666
 21
127.1009497378235
 31
-0.00000000026315
  0
LINE
  5
13805
330
A
100
AcDbEntity
  8
0
  6
ByBlock
 62
     4
370
     0
100
AcDbLine
 10
84.05764345859666
 20
127.1009497378235
 30
-0.00000000026315
 11
87.74977679121437
 21
129.2821259213229
 31
-0.00000000026315
  0
LINE
  5
1381B
330
A
100
AcDbEntity
  8
0
  6
________________
 62
     7
370
     9
100
AcDbLine
 10
87.74951551818117
 20
134.2819715708522
 30
-0.00000000015019
 11
87.74951551818117
 21
252.00144
 31
0.0
  0
LINE
  5
1381C
330
A
100
AcDbEntity
  8
0
  6
________________
 62
     7
370
     9
100
AcDbLine
 10
77.74981551818132
 20
131.9279946042473
 30
-0.0000000001532718
 11
77.74981551818132
 21
252.00144
 31
0.0
  0
LINE
  5
138CC
330
A
100
AcDbEntity
  8
0
  6
CENTER
 62
     1
370
     0
100
AcDbLine
 10
63.42315245660606
 20
279.0006300019759
 30
0.0
 11
70.05291346221756
 21
279.00063
 31
0.0
  0
ENDSEC
  0
SECTION
  2
OBJECTS
  0
DICTIONARY
  5
19
330
0
100
AcDbDictionary
281
     1
  3
ACAD_GROUP
350
1A
  3
ACAD_IMAGE_VARS
350
8009
  3
ACAD_LAYOUT
350
1E
  3
ACAD_MLINESTYLE
350
1B
  3
ACAD_PLOTSETTINGS
350
22
  3
ACAD_PLOTSTYLENAME
350
1F
  3
ACAD_SCALELIST
350
6C1
  3
ACAD_WIPEOUT_VARS
350
23
  3
AcDbVariableDictionary
350
162B
  3
APPDATA
350
8008
  3
ASE_INDEX_DICTIONARY
350
7E94
  3
DWGPROPS
350
138F2
  0
DICTIONARY
  5
A84
330
14
100
AcDbDictionary
280
     1
281
     1
  3
ADSK_XREC_LAYER_RECONCILED
360
A85
  0
DICTIONARY
  5
941
330
A
100
AcDbDictionary
280
     1
281
     1
  3
ACAD_SORTENTS
360
942
  0
DICTIONARY
  5
1A
102
{ACAD_REACTORS
330
19
102
}
330
19
100
AcDbDictionary
281
     1
  0
RASTERVARIABLES
  5
8009
102
{ACAD_REACTORS
330
19
102
}
330
19
100
AcDbRasterVariables
 90
        0
 70
     1
 71
     1
 72
     0
  0
DICTIONARY
  5
1E
102
{ACAD_REACTORS
330
19
102
}
330
19
100
AcDbDictionary
281
     1
  3
Layout1
350
21
  3
Model
350
20
  0
DICTIONARY
  5
1B
102
{ACAD_REACTORS
330
19
102
}
330
19
100
AcDbDictionary
281
     1
  3
Standard
350
1C
  0
DICTIONARY
  5
22
102
{ACAD_REACTORS
330
19
102
}
330
19
100
AcDbDictionary
281
     1
  0
ACDBDICTIONARYWDFLT
  5
1F
102
{ACAD_REACTORS
330
19
102
}
330
19
100
AcDbDictionary
281
     1
  3
Normal
350
1D
100
AcDbDictionaryWithDefault
340
1D
  0
DICTIONARY
  5
6C1
102
{ACAD_REACTORS
330
19
102
}
330
19
100
AcDbDictionary
281
     1
  3
A0
350
6C2
  3
A1
350
6C3
  3
A2
350
6C4
  3
A3
350
6C5
  3
A4
350
6C6
  3
A5
350
6C7
  3
A6
350
6C8
  3
A7
350
6C9
  3
A8
350
6CA
  3
A9
350
6CB
  3
B0
350
6CC
  3
B1
350
6CD
  3
B2
350
6CE
  3
B3
350
6CF
  3
B4
350
6D0
  3
B5
350
6D1
  3
B6
350
6D2
  3
B7
350
6D3
  3
B8
350
6D4
  3
B9
350
6D5
  3
C0
350
6D6
  3
C1
350
6D7
  3
C2
350
6D8
  3
C3
350
6D9
  3
C4
350
6DA
  3
C5
350
6DB
  3
C6
350
6DC
  3
C7
350
6DD
  3
C8
350
6DE
  3
C9
350
6DF
  3
D0
350
6E0
  3
D1
350
6E1
  3
D2
350
6E2
  0
WIPEOUTVARIABLES
  5
23
330
19
100
AcDbWipeoutVariables
 70
     1
  0
DICTIONARY
  5
162B
102
{ACAD_REACTORS
330
19
102
}
330
19
100
AcDbDictionary
281
     1
  3
CANNOSCALE
350
138F3
  0
DICTIONARY
  5
8008
102
{ACAD_REACTORS
330
19
102
}
330
19
100
AcDbDictionary
281
     1
  0
DICTIONARY
  5
7E94
102
{ACAD_REACTORS
330
19
102
}
330
19
100
AcDbDictionary
281
     1
  3
ASEBlockHierarchyIndexRecord
350
7E95
1001
DCO15
1040
1709986235.667
  0
XRECORD
  5
138F2
102
{ACAD_REACTORS
330
19
102
}
330
19
100
AcDbXrecord
280
     1
  1
DWGPROPS COOKIE
  2

  3

  4

  6

  7

  8
renzo.ceresoli
  9

300
=
301
=
302
=
303
=
304
=
305
=
306
=
307
=
308
=
309
=
 40
0.0
 41
2455524.39369213
 42
2456210.312845174
  1

 90
        0
  0
XRECORD
  5
A85
102
{ACAD_REACTORS
330
A84
102
}
330
A84
100
AcDbXrecord
280
     1
290
     1
  0
SORTENTSTABLE
  5
942
102
{ACAD_REACTORS
330
941
102
}
330
941
100
AcDbSortentsTable
330
A
331
0
  5
6384
  0
LAYOUT
  5
21
102
{ACAD_REACTORS
330
1E
102
}
330
1E
100
AcDbPlotSettings
  1

  2

  4

  6

 40
0.0
 41
0.0
 42
0.0
 43
0.0
 44
0.0
 45
0.0
 46
0.0
 47
0.0
 48
0.0
 49
0.0
140
0.0
141
0.0
142
1.0
143
1.0
 70
     0
 72
     0
 73
     0
 74
     0
  7

 75
     0
147
1.0
148
0.0
149
0.0
100
AcDbLayout
  1
Layout1
 70
     0
 71
     1
 10
0.0
 20
0.0
 11
12.0
 21
9.0
 12
0.0
 22
0.0
 32
0.0
 14
1.000000000000000E+20
 24
1.000000000000000E+20
 34
1.000000000000000E+20
 15
-1.000000000000000E+20
 25
-1.000000000000000E+20
 35
-1.000000000000000E+20
146
0.0
 13
0.0
 23
0.0
 33
0.0
 16
1.0
 26
0.0
 36
0.0
 17
0.0
 27
1.0
 37
0.0
 76
     0
330
B
  0
LAYOUT
  5
20
102
{ACAD_REACTORS
330
1E
102
}
330
1E
100
AcDbPlotSettings
  1

  2
none_device
  4
Letter_(8.50_x_11.00_Inches)
  6

 40
6.35
 41
6.35
 42
6.35
 43
6.35
 44
215.9
 45
279.4
 46
0.0
 47
0.0
 48
0.0000000000000142
 49
0.0
140
679.3784867802524
141
467.3541899950005
142
1.0
143
64.70271302669072
 70
 11280
 72
     0
 73
     1
 74
     4
  7

 75
     0
147
0.0154553024629352
148
-0.0000000000000142
149
0.0
100
AcDbLayout
  1
Model
 70
     0
 71
     0
 10
0.0
 20
0.0
 11
0.0
 21
0.0
 12
0.0
 22
0.0
 32
0.0
 14
0.0
 24
0.0
 34
0.0
 15
0.0
 25
0.0
 35
0.0
146
0.0
 13
0.0
 23
0.0
 33
0.0
 16
0.0
 26
0.0
 36
0.0
 17
0.0
 27
0.0
 37
0.0
 76
     0
330
A
331
15
1001
ACAD_PSEXT
1000
AL-C9100(D1A073)
1000
EPSON AL-C9100 Advanced
1000
IP_192.168.0.169
1000

1070
     0
  0
MLINESTYLE
  5
1C
102
{ACAD_REACTORS
330
1B
102
}
330
1B
100
AcDbMlineStyle
  2
STANDARD
 70
     0
  3

 62
     0
 51
90.0
 52
90.0
 71
     2
 49
0.5
 62
   256
  6
BYLAYER
 49
-0.5
 62
   256
  6
BYLAYER
  0
ACDBPLACEHOLDER
  5
1D
102
{ACAD_REACTORS
330
1F
102
}
330
1F
  0
SCALE
  5
6C2
102
{ACAD_REACTORS
330
6C1
102
}
330
6C1
100
AcDbScale
 70
     0
300
1:1
140
1.0
141
1.0
290
     1
  0
SCALE
  5
6C3
102
{ACAD_REACTORS
330
6C1
102
}
330
6C1
100
AcDbScale
 70
     0
300
1:2
140
1.0
141
2.0
290
     0
  0
SCALE
  5
6C4
102
{ACAD_REACTORS
330
6C1
102
}
330
6C1
100
AcDbScale
 70
     0
300
1:4
140
1.0
141
4.0
290
     0
  0
SCALE
  5
6C5
102
{ACAD_REACTORS
330
6C1
102
}
330
6C1
100
AcDbScale
 70
     0
300
1:5
140
1.0
141
5.0
290
     0
  0
SCALE
  5
6C6
102
{ACAD_REACTORS
330
6C1
102
}
330
6C1
100
AcDbScale
 70
     0
300
1:8
140
1.0
141
8.0
290
     0
  0
SCALE
  5
6C7
102
{ACAD_REACTORS
330
6C1
102
}
330
6C1
100
AcDbScale
 70
     0
300
1:10
140
1.0
141
10.0
290
     0
  0
SCALE
  5
6C8
102
{ACAD_REACTORS
330
6C1
102
}
330
6C1
100
AcDbScale
 70
     0
300
1:16
140
1.0
141
16.0
290
     0
  0
SCALE
  5
6C9
102
{ACAD_REACTORS
330
6C1
102
}
330
6C1
100
AcDbScale
 70
     0
300
1:20
140
1.0
141
20.0
290
     0
  0
SCALE
  5
6CA
102
{ACAD_REACTORS
330
6C1
102
}
330
6C1
100
AcDbScale
 70
     0
300
1:30
140
1.0
141
30.0
290
     0
  0
SCALE
  5
6CB
102
{ACAD_REACTORS
330
6C1
102
}
330
6C1
100
AcDbScale
 70
     0
300
1:40
140
1.0
141
40.0
290
     0
  0
SCALE
  5
6CC
102
{ACAD_REACTORS
330
6C1
102
}
330
6C1
100
AcDbScale
 70
     0
300
1:50
140
1.0
141
50.0
290
     0
  0
SCALE
  5
6CD
102
{ACAD_REACTORS
330
6C1
102
}
330
6C1
100
AcDbScale
 70
     0
300
1:100
140
1.0
141
100.0
290
     0
  0
SCALE
  5
6CE
102
{ACAD_REACTORS
330
6C1
102
}
330
6C1
100
AcDbScale
 70
     0
300
2:1
140
2.0
141
1.0
290
     0
  0
SCALE
  5
6CF
102
{ACAD_REACTORS
330
6C1
102
}
330
6C1
100
AcDbScale
 70
     0
300
4:1
140
4.0
141
1.0
290
     0
  0
SCALE
  5
6D0
102
{ACAD_REACTORS
330
6C1
102
}
330
6C1
100
AcDbScale
 70
     0
300
8:1
140
8.0
141
1.0
290
     0
  0
SCALE
  5
6D1
102
{ACAD_REACTORS
330
6C1
102
}
330
6C1
100
AcDbScale
 70
     0
300
10:1
140
10.0
141
1.0
290
     0
  0
SCALE
  5
6D2
102
{ACAD_REACTORS
330
6C1
102
}
330
6C1
100
AcDbScale
 70
     0
300
100:1
140
100.0
141
1.0
290
     0
  0
SCALE
  5
6D3
102
{ACAD_REACTORS
330
6C1
102
}
330
6C1
100
AcDbScale
 70
     0
300
1/128" = 1'-0"
140
0.0078125
141
12.0
290
     0
  0
SCALE
  5
6D4
102
{ACAD_REACTORS
330
6C1
102
}
330
6C1
100
AcDbScale
 70
     0
300
1/64" = 1'-0"
140
0.015625
141
12.0
290
     0
  0
SCALE
  5
6D5
102
{ACAD_REACTORS
330
6C1
102
}
330
6C1
100
AcDbScale
 70
     0
300
1/32" = 1'-0"
140
0.03125
141
12.0
290
     0
  0
SCALE
  5
6D6
102
{ACAD_REACTORS
330
6C1
102
}
330
6C1
100
AcDbScale
 70
     0
300
1/16" = 1'-0"
140
0.0625
141
12.0
290
     0
  0
SCALE
  5
6D7
102
{ACAD_REACTORS
330
6C1
102
}
330
6C1
100
AcDbScale
 70
     0
300
3/32" = 1'-0"
140
0.09375
141
12.0
290
     0
  0
SCALE
  5
6D8
102
{ACAD_REACTORS
330
6C1
102
}
330
6C1
100
AcDbScale
 70
     0
300
1/8" = 1'-0"
140
0.125
141
12.0
290
     0
  0
SCALE
  5
6D9
102
{ACAD_REACTORS
330
6C1
102
}
330
6C1
100
AcDbScale
 70
     0
300
3/16" = 1'-0"
140
0.1875
141
12.0
290
     0
  0
SCALE
  5
6DA
102
{ACAD_REACTORS
330
6C1
102
}
330
6C1
100
AcDbScale
 70
     0
300
1/4" = 1'-0"
140
0.25
141
12.0
290
     0
  0
SCALE
  5
6DB
102
{ACAD_REACTORS
330
6C1
102
}
330
6C1
100
AcDbScale
 70
     0
300
3/8" = 1'-0"
140
0.375
141
12.0
290
     0
  0
SCALE
  5
6DC
102
{ACAD_REACTORS
330
6C1
102
}
330
6C1
100
AcDbScale
 70
     0
300
1/2" = 1'-0"
140
0.5
141
12.0
290
     0
  0
SCALE
  5
6DD
102
{ACAD_REACTORS
330
6C1
102
}
330
6C1
100
AcDbScale
 70
     0
300
3/4" = 1'-0"
140
0.75
141
12.0
290
     0
  0
SCALE
  5
6DE
102
{ACAD_REACTORS
330
6C1
102
}
330
6C1
100
AcDbScale
 70
     0
300
1" = 1'-0"
140
1.0
141
12.0
290
     0
  0
SCALE
  5
6DF
102
{ACAD_REACTORS
330
6C1
102
}
330
6C1
100
AcDbScale
 70
     0
300
1-1/2" = 1'-0"
140
1.5
141
12.0
290
     0
  0
SCALE
  5
6E0
102
{ACAD_REACTORS
330
6C1
102
}
330
6C1
100
AcDbScale
 70
     0
300
3" = 1'-0"
140
3.0
141
12.0
290
     0
  0
SCALE
  5
6E1
102
{ACAD_REACTORS
330
6C1
102
}
330
6C1
100
AcDbScale
 70
     0
300
6" = 1'-0"
140
6.0
141
12.0
290
     0
  0
SCALE
  5
6E2
102
{ACAD_REACTORS
330
6C1
102
}
330
6C1
100
AcDbScale
 70
     0
300
1'-0" = 1'-0"
140
12.0
141
12.0
290
     0
  0
DICTIONARYVAR
  5
138F3
102
{ACAD_REACTORS
330
162B
102
}
330
162B
100
DictionaryVariables
280
     0
  1
1:1
  0
XRECORD
  5
7E95
102
{ACAD_REACTORS
330
7E94
102
}
330
7E94
100
AcDbXrecord
280
     1
330
0
330
0
330
0
  0
ENDSEC
  0
EOF
