  0
SECTION
  2
HEADER
  9
$ACADVER
  1
AC1015
  9
$ACADMAINTVER
 70
    20
  9
$DWGCODEPAGE
  3
ANSI_1252
  9
$INSBASE
 10
267.5068505439835
 20
0.0
 30
0.0
  9
$EXTMIN
 10
-0.1209166785183697
 20
-0.1223034147815269
 30
-0.0015258207003583
  9
$EXTMAX
 10
3962.620966994719
 20
4007.817353565297
 30
0.0000000349246037
  9
$LIMMIN
 10
0.0
 20
0.0
  9
$LIMMAX
 10
420.0
 20
297.0
  9
$ORTHOMODE
 70
     1
  9
$REGENMODE
 70
     1
  9
$FILLMODE
 70
     1
  9
$QTEXTMODE
 70
     0
  9
$MIRRTEXT
 70
     1
  9
$LTSCALE
 40
0.5
  9
$ATTMODE
 70
     1
  9
$TEXTSIZE
 40
5.86670481121007
  9
$TRACEWID
 40
1.0
  9
$TEXTSTYLE
  7
Standard
  9
$CLAYER
  8
0
  9
$CELTYPE
  6
ByLayer
  9
$CECOLOR
 62
   256
  9
$CELTSCALE
 40
1.0
  9
$DISPSILH
 70
     0
  9
$DIMSCALE
 40
1.0
  9
$DIMASZ
 40
2.5
  9
$DIMEXO
 40
0.0
  9
$DIMDLI
 40
3.75
  9
$DIMRND
 40
0.0
  9
$DIMDLE
 40
0.0
  9
$DIMEXE
 40
1.25
  9
$DIMTP
 40
0.0
  9
$DIMTM
 40
0.0
  9
$DIMTXT
 40
2.5
  9
$DIMCEN
 40
2.5
  9
$DIMTSZ
 40
0.0
  9
$DIMTOL
 70
     0
  9
$DIMLIM
 70
     0
  9
$DIMTIH
 70
     0
  9
$DIMTOH
 70
     0
  9
$DIMSE1
 70
     0
  9
$DIMSE2
 70
     0
  9
$DIMTAD
 70
     1
  9
$DIMZIN
 70
     8
  9
$DIMBLK
  1

  9
$DIMASO
 70
     1
  9
$DIMSHO
 70
     1
  9
$DIMPOST
  1

  9
$DIMAPOST
  1

  9
$DIMALT
 70
     0
  9
$DIMALTD
 70
     3
  9
$DIMALTF
 40
0.03937007874016
  9
$DIMLFAC
 40
1.0
  9
$DIMTOFL
 70
     1
  9
$DIMTVP
 40
0.0
  9
$DIMTIX
 70
     0
  9
$DIMSOXD
 70
     0
  9
$DIMSAH
 70
     0
  9
$DIMBLK1
  1

  9
$DIMBLK2
  1

  9
$DIMSTYLE
  2
ISO-25
  9
$DIMCLRD
 70
     3
  9
$DIMCLRE
 70
     3
  9
$DIMCLRT
 70
     0
  9
$DIMTFAC
 40
0.8
  9
$DIMGAP
 40
0.625
  9
$DIMJUST
 70
     0
  9
$DIMSD1
 70
     0
  9
$DIMSD2
 70
     0
  9
$DIMTOLJ
 70
     0
  9
$DIMTZIN
 70
     8
  9
$DIMALTZ
 70
     0
  9
$DIMALTTZ
 70
     0
  9
$DIMUPT
 70
     0
  9
$DIMDEC
 70
     2
  9
$DIMTDEC
 70
     2
  9
$DIMALTU
 70
     2
  9
$DIMALTTD
 70
     3
  9
$DIMTXSTY
  7
Standard
  9
$DIMAUNIT
 70
     0
  9
$DIMADEC
 70
     2
  9
$DIMALTRND
 40
0.0
  9
$DIMAZIN
 70
     2
  9
$DIMDSEP
 70
    44
  9
$DIMATFIT
 70
     3
  9
$DIMFRAC
 70
     0
  9
$DIMLDRBLK
  1

  9
$DIMLUNIT
 70
     2
  9
$DIMLWD
 70
    -2
  9
$DIMLWE
 70
    -2
  9
$DIMTMOVE
 70
     0
  9
$LUNITS
 70
     2
  9
$LUPREC
 70
     4
  9
$SKETCHINC
 40
1.0
  9
$FILLETRAD
 40
5.0
  9
$AUNITS
 70
     0
  9
$AUPREC
 70
     0
  9
$MENU
  1
.
  9
$ELEVATION
 40
0.0
  9
$PELEVATION
 40
0.0
  9
$THICKNESS
 40
0.0
  9
$LIMCHECK
 70
     0
  9
$CHAMFERA
 40
0.0
  9
$CHAMFERB
 40
0.0
  9
$CHAMFERC
 40
20.0
  9
$CHAMFERD
 40
0.0
  9
$SKPOLY
 70
     0
  9
$TDCREATE
 40
2455315.380036111
  9
$TDUCREATE
 40
2455315.296702778
  9
$TDUPDATE
 40
2455315.381364503
  9
$TDUUPDATE
 40
2455315.298031169
  9
$TDINDWG
 40
0.0013291204
  9
$TDUSRTIMER
 40
0.0013289352
  9
$USRTIMER
 70
     1
  9
$ANGBASE
 50
0.0
  9
$ANGDIR
 70
     0
  9
$PDMODE
 70
     0
  9
$PDSIZE
 40
0.0
  9
$PLINEWID
 40
0.0
  9
$SPLFRAME
 70
     0
  9
$SPLINETYPE
 70
     6
  9
$SPLINESEGS
 70
     8
  9
$HANDSEED
  5
107E
  9
$SURFTAB1
 70
     6
  9
$SURFTAB2
 70
     6
  9
$SURFTYPE
 70
     6
  9
$SURFU
 70
     6
  9
$SURFV
 70
     6
  9
$UCSBASE
  2

  9
$UCSNAME
  2

  9
$UCSORG
 10
0.0
 20
0.0
 30
0.0
  9
$UCSXDIR
 10
1.0
 20
0.0
 30
0.0
  9
$UCSYDIR
 10
0.0
 20
1.0
 30
0.0
  9
$UCSORTHOREF
  2

  9
$UCSORTHOVIEW
 70
     0
  9
$UCSORGTOP
 10
0.0
 20
0.0
 30
0.0
  9
$UCSORGBOTTOM
 10
0.0
 20
0.0
 30
0.0
  9
$UCSORGLEFT
 10
0.0
 20
0.0
 30
0.0
  9
$UCSORGRIGHT
 10
0.0
 20
0.0
 30
0.0
  9
$UCSORGFRONT
 10
0.0
 20
0.0
 30
0.0
  9
$UCSORGBACK
 10
0.0
 20
0.0
 30
0.0
  9
$PUCSBASE
  2

  9
$PUCSNAME
  2

  9
$PUCSORG
 10
0.0
 20
0.0
 30
0.0
  9
$PUCSXDIR
 10
1.0
 20
0.0
 30
0.0
  9
$PUCSYDIR
 10
0.0
 20
1.0
 30
0.0
  9
$PUCSORTHOREF
  2

  9
$PUCSORTHOVIEW
 70
     0
  9
$PUCSORGTOP
 10
0.0
 20
0.0
 30
0.0
  9
$PUCSORGBOTTOM
 10
0.0
 20
0.0
 30
0.0
  9
$PUCSORGLEFT
 10
0.0
 20
0.0
 30
0.0
  9
$PUCSORGRIGHT
 10
0.0
 20
0.0
 30
0.0
  9
$PUCSORGFRONT
 10
0.0
 20
0.0
 30
0.0
  9
$PUCSORGBACK
 10
0.0
 20
0.0
 30
0.0
  9
$USERI1
 70
     0
  9
$USERI2
 70
     0
  9
$USERI3
 70
     0
  9
$USERI4
 70
     0
  9
$USERI5
 70
     0
  9
$USERR1
 40
0.0
  9
$USERR2
 40
0.0
  9
$USERR3
 40
0.0
  9
$USERR4
 40
0.0
  9
$USERR5
 40
0.0
  9
$WORLDVIEW
 70
     1
  9
$SHADEDGE
 70
     3
  9
$SHADEDIF
 70
    70
  9
$TILEMODE
 70
     1
  9
$MAXACTVP
 70
    64
  9
$PINSBASE
 10
0.0
 20
0.0
 30
0.0
  9
$PLIMCHECK
 70
     0
  9
$PEXTMIN
 10
1.000000000000000E+20
 20
1.000000000000000E+20
 30
1.000000000000000E+20
  9
$PEXTMAX
 10
-1.000000000000000E+20
 20
-1.000000000000000E+20
 30
-1.000000000000000E+20
  9
$PLIMMIN
 10
0.0
 20
0.0
  9
$PLIMMAX
 10
420.0
 20
297.0
  9
$UNITMODE
 70
     0
  9
$VISRETAIN
 70
     1
  9
$PLINEGEN
 70
     0
  9
$PSLTSCALE
 70
     1
  9
$TREEDEPTH
 70
  3020
  9
$CMLSTYLE
  2
Standard
  9
$CMLJUST
 70
     0
  9
$CMLSCALE
 40
20.0
  9
$PROXYGRAPHICS
 70
     1
  9
$MEASUREMENT
 70
     1
  9
$CELWEIGHT
370
    -1
  9
$ENDCAPS
280
     0
  9
$JOINSTYLE
280
     0
  9
$LWDISPLAY
290
     0
  9
$INSUNITS
 70
     4
  9
$HYPERLINKBASE
  1

  9
$STYLESHEET
  1
monochrome.ctb
  9
$XEDIT
290
     1
  9
$CEPSNTYPE
380
     0
  9
$PSTYLEMODE
290
     1
  9
$FINGERPRINTGUID
  2
{C5899123-0478-4EFE-84B0-92BE19C09D8B}
  9
$VERSIONGUID
  2
{FD260309-06AE-4204-907C-7EA8B57D53FE}
  9
$EXTNAMES
290
     1
  9
$PSVPSCALE
 40
0.0
  9
$OLESTARTUP
290
     0
  0
ENDSEC
  0
SECTION
  2
CLASSES
  0
CLASS
  1
ACDBDICTIONARYWDFLT
  2
AcDbDictionaryWithDefault
  3
ObjectDBX Classes
 90
        0
280
     0
281
     0
  0
CLASS
  1
ACDBPLACEHOLDER
  2
AcDbPlaceHolder
  3
ObjectDBX Classes
 90
        0
280
     0
281
     0
  0
CLASS
  1
LAYOUT
  2
AcDbLayout
  3
ObjectDBX Classes
 90
        0
280
     0
281
     0
  0
CLASS
  1
DICTIONARYVAR
  2
AcDbDictionaryVar
  3
ObjectDBX Classes
 90
        0
280
     0
281
     0
  0
CLASS
  1
MATERIAL
  2
AcDbMaterial
  3
ObjectDBX Classes
 90
     1153
280
     0
281
     0
  0
CLASS
  1
VISUALSTYLE
  2
AcDbVisualStyle
  3
ObjectDBX Classes
 90
     4095
280
     0
281
     0
  0
CLASS
  1
TABLESTYLE
  2
AcDbTableStyle
  3
ObjectDBX Classes
 90
     4095
280
     0
281
     0
  0
CLASS
  1
SCALE
  2
AcDbScale
  3
ObjectDBX Classes
 90
     1153
280
     0
281
     0
  0
CLASS
  1
MLEADERSTYLE
  2
AcDbMLeaderStyle
  3
ACDB_MLEADERSTYLE_CLASS
 90
     4095
280
     0
281
     0
  0
CLASS
  1
CELLSTYLEMAP
  2
AcDbCellStyleMap
  3
ObjectDBX Classes
 90
     1152
280
     0
281
     0
  0
CLASS
  1
SORTENTSTABLE
  2
AcDbSortentsTable
  3
ObjectDBX Classes
 90
        0
280
     0
281
     0
  0
ENDSEC
  0
SECTION
  2
TABLES
  0
TABLE
  2
VPORT
  5
19
330
0
100
AcDbSymbolTable
 70
     1
  0
VPORT
  5
630
330
19
100
AcDbSymbolTableRecord
100
AcDbViewportTableRecord
  2
*Active
 70
     0
 10
0.0
 20
0.0
 11
1.0
 21
1.0
 12
1945.290644760622
 22
1942.6352342058
 13
0.0
 23
0.0
 14
10.0
 24
10.0
 15
10.0
 25
10.0
 16
0.0
 26
0.0
 36
1.0
 17
0.0
 27
0.0
 37
0.0
 40
4534.632430087087
 41
1.611330698287219
 42
50.0
 43
0.0
 44
0.0
 50
0.0
 51
0.0
 71
     0
 72
   100
 73
     1
 74
     2
 75
     0
 76
     0
 77
     0
 78
     0
281
     0
 65
     1
110
0.0
120
0.0
130
0.0
111
1.0
121
0.0
131
0.0
112
0.0
122
1.0
132
0.0
 79
     0
146
0.0
  0
ENDTAB
  0
TABLE
  2
LTYPE
  5
14
330
0
100
AcDbSymbolTable
 70
     5
  0
LTYPE
  5
15
330
14
100
AcDbSymbolTableRecord
100
AcDbLinetypeTableRecord
  2
ByBlock
 70
     0
  3

 72
    65
 73
     0
 40
0.0
  0
LTYPE
  5
16
330
14
100
AcDbSymbolTableRecord
100
AcDbLinetypeTableRecord
  2
ByLayer
 70
     0
  3

 72
    65
 73
     0
 40
0.0
  0
LTYPE
  5
8
330
14
100
AcDbSymbolTableRecord
100
AcDbLinetypeTableRecord
  2
Continuous
 70
     0
  3
Solid line
 72
    65
 73
     0
 40
0.0
  0
ENDTAB
  0
TABLE
  2
LAYER
  5
10
330
0
100
AcDbSymbolTable
 70
     9
  0
LAYER
  5
4
102
{ACAD_XDICTIONARY
360
68A
102
}
330
10
100
AcDbSymbolTableRecord
100
AcDbLayerTableRecord
  2
0
 70
     0
 62
     7
  6
Continuous
370
    -3
390
5
  0
LAYER
  5
34
330
10
100
AcDbSymbolTableRecord
100
AcDbLayerTableRecord
  2
Defpoints
 70
     0
 62
     7
  6
Continuous
290
     0
370
    -3
390
5
  0
ENDTAB
  0
TABLE
  2
STYLE
  5
11
330
0
100
AcDbSymbolTable
 70
     6
  0
STYLE
  5
12
330
11
100
AcDbSymbolTableRecord
100
AcDbTextStyleTableRecord
  2
Standard
 70
     0
 40
0.0
 41
0.9
 50
0.0
 71
     0
 42
5.86670481121007
  3
simplex.shx
  4

  0
ENDTAB
  0
TABLE
  2
VIEW
  5
17
330
0
100
AcDbSymbolTable
 70
     0
  0
ENDTAB
  0
TABLE
  2
UCS
  5
18
330
0
100
AcDbSymbolTable
 70
     0
  0
ENDTAB
  0
TABLE
  2
APPID
  5
1B
330
0
100
AcDbSymbolTable
 70
     3
  0
APPID
  5
1C
330
1B
100
AcDbSymbolTableRecord
100
AcDbRegAppTableRecord
  2
ACAD
 70
     0
  0
APPID
  5
683
330
1B
100
AcDbSymbolTableRecord
100
AcDbRegAppTableRecord
  2
ACAD_MLEADERVER
 70
     0
  0
APPID
  5
69C
330
1B
100
AcDbSymbolTableRecord
100
AcDbRegAppTableRecord
  2
DCO15
 70
     0
  0
ENDTAB
  0
TABLE
  2
DIMSTYLE
  5
1D
330
0
100
AcDbSymbolTable
 70
     2
100
AcDbDimStyleTable
 71
     1
340
1E
  0
DIMSTYLE
105
1E
330
1D
100
AcDbSymbolTableRecord
100
AcDbDimStyleTableRecord
  2
ISO-25
 70
     0
 41
2.5
 42
0.0
 43
3.75
 44
1.25
 73
     0
 74
     0
 77
     1
 78
     8
140
2.5
141
2.5
143
0.03937007874016
147
0.625
171
     3
172
     1
176
     3
177
     3
271
     2
272
     2
274
     3
278
    44
283
     0
284
     8
340
12
  0
DIMSTYLE
105
B3E
330
1D
100
AcDbSymbolTableRecord
100
AcDbDimStyleTableRecord
  2
Standard
 70
     0
 41
1.25
 42
1.0
 44
0.75
 73
     0
 74
     0
 77
     1
140
2.5
146
0.8
147
1.25
176
     7
177
     7
178
     7
271
     2
340
12
  0
ENDTAB
  0
TABLE
  2
BLOCK_RECORD
  5
1
330
0
100
AcDbSymbolTable
 70
    37
  0
BLOCK_RECORD
  5
2
102
{ACAD_XDICTIONARY
360
B50
102
}
330
1
100
AcDbSymbolTableRecord
100
AcDbBlockTableRecord
  2
*Model_Space
340
A
  0
BLOCK_RECORD
  5
C
330
1
100
AcDbSymbolTableRecord
100
AcDbBlockTableRecord
  2
*Paper_Space
340
F
  0
ENDTAB
  0
ENDSEC
  0
SECTION
  2
BLOCKS
  0
BLOCK
  5
3
330
2
100
AcDbEntity
  8
0
100
AcDbBlockBegin
  2
*Model_Space
 70
     0
 10
0.0
 20
0.0
 30
0.0
  3
*Model_Space
  1

  0
ENDBLK
  5
9
330
2
100
AcDbEntity
  8
0
100
AcDbBlockEnd
  0
BLOCK
  5
D
330
C
100
AcDbEntity
 67
     1
  8
0
100
AcDbBlockBegin
  2
*Paper_Space
 70
     0
 10
0.0
 20
0.0
 30
0.0
  3
*Paper_Space
  1

  0
ENDBLK
  5
E
330
C
100
AcDbEntity
 67
     1
  8
0
100
AcDbBlockEnd
  0
ENDSEC
  0
SECTION
  2
ENTITIES
  0
TEXT
  5
B4F
330
2
100
AcDbEntity
  8
0
 62
     7
100
AcDbText
 10
1678.933854890385
 20
3807.695039087324
 30
0.0
 40
200.0
  1
BZQ6
 41
0.9
100
AcDbText
  0
LINE
  5
B52
330
2
100
AcDbEntity
  8
0
  6
Continuous
 62
     7
100
AcDbLine
 10
1432.000031862772
 20
37.99999728281637
 30
0.0
 11
1432.000031862772
 21
34.99999227281569
 31
0.0
  0
LINE
  5
B53
330
2
100
AcDbEntity
  8
0
  6
Continuous
 62
     7
100
AcDbLine
 10
1432.000031862772
 20
34.99999227281569
 30
0.0
 11
1432.000031862772
 21
31.99998726281592
 31
0.0
  0
LINE
  5
B54
330
2
100
AcDbEntity
  8
0
  6
Continuous
 62
     7
100
AcDbLine
 10
2587.000031910591
 20
31.99998726035528
 30
0.0
 11
2587.000031910413
 21
34.99999227035551
 31
0.0
  0
LINE
  5
B55
330
2
100
AcDbEntity
  8
0
  6
Continuous
 62
     7
100
AcDbLine
 10
2587.000031910413
 20
34.99999227035551
 30
0.0
 11
2587.000031910224
 21
37.99999728035527
 31
0.0
  0
LINE
  5
B56
330
2
100
AcDbEntity
  8
0
  6
Continuous
 62
     9
100
AcDbLine
 10
2587.000031910562
 20
32.49999227035551
 30
0.0
 11
2587.000031910413
 21
34.99999227035551
 31
0.0
  0
ARC
  5
B57
330
2
100
AcDbEntity
  8
0
  6
Continuous
 62
     9
100
AcDbCircle
 10
2558.000031861802
 20
783.9999922658103
 30
0.0
 40
2.499999999999945
100
AcDbArc
 50
90.00000000291818
 51
0.0000000028921165
  0
ARC
  5
B58
330
2
100
AcDbEntity
  8
0
  6
Continuous
 62
     9
100
AcDbCircle
 10
2455.000031862323
 20
35.19999232185
 30
0.0
 40
1.99999999999889
100
AcDbArc
 50
180.0000000017978
 51
90.00000000177175
  0
ARC
  5
B59
330
2
100
AcDbEntity
  8
0
  6
Continuous
 62
     9
100
AcDbCircle
 10
2465.000031862332
 20
35.19999232216924
 30
0.0
 40
2.000000000000667
100
AcDbArc
 50
180.0000000017978
 51
90.00000000177175
  0
LINE
  5
B5A
330
2
100
AcDbEntity
  8
0
  6
Continuous
 62
     9
100
AcDbLine
 10
2585.000031909422
 20
47.99999226676027
 30
0.0
 11
2585.000031909482
 21
48.99999226947102
 31
0.0
  0
LINE
  5
B5B
330
2
100
AcDbEntity
  8
0
  6
Continuous
 62
     9
100
AcDbLine
 10
2585.000031909482
 20
48.99999226947102
 30
0.0
 11
2585.000031910362
 21
62.99999226822365
 31
0.0
  0
LINE
  5
B5C
330
2
100
AcDbEntity
  8
0
  6
Continuous
 62
     7
100
AcDbLine
 10
2584.500031909533
 20
49.86601767331558
 30
0.0
 11
2584.500031910362
 21
62.99999226820637
 31
0.0
  0
LINE
  5
B5D
330
2
100
AcDbEntity
  8
0
  6
Continuous
 62
     7
100
AcDbLine
 10
2584.500031910362
 20
62.99999226820637
 30
0.0
 11
2584.500031911281
 21
77.49999226679256
 31
0.0
  0
LINE
  5
B5E
330
2
100
AcDbEntity
  8
0
  6
Continuous
 62
     9
100
AcDbLine
 10
2585.000031910362
 20
62.99999226822365
 30
0.0
 11
2585.000031911312
 21
77.99999226676163
 31
0.0
  0
LINE
  5
B5F
330
2
100
AcDbEntity
  8
0
  6
Continuous
 62
     7
100
AcDbLine
 10
2587.500031909422
 20
47.99999226660247
 30
0.0
 11
2587.500031910362
 21
62.9999922680654
 31
0.0
  0
LINE
  5
B60
330
2
100
AcDbEntity
  8
0
  6
Continuous
 62
     7
100
AcDbLine
 10
2587.500031910362
 20
62.9999922680654
 30
0.0
 11
2587.500031911312
 21
77.99999226660247
 31
0.0
  0
LINE
  5
B61
330
2
100
AcDbEntity
  8
0
  6
Continuous
 62
     9
100
AcDbLine
 10
2545.000031863212
 20
24.99999226679256
 30
0.0
 11
2547.000031910371
 21
24.99999226679256
 31
0.0
  0
LINE
  5
B62
330
2
100
AcDbEntity
  8
0
  6
Continuous
 62
     7
100
AcDbLine
 10
2544.500031863651
 20
22.49999226679256
 30
0.0
 11
2547.000031910371
 21
22.49999226679256
 31
0.0
  0
LINE
  5
B63
330
2
100
AcDbEntity
  8
0
  6
Continuous
 62
     9
100
AcDbLine
 10
2547.000031910371
 20
24.99999226679256
 30
0.0
 11
2562.000031910371
 21
24.99999226679256
 31
0.0
  0
LINE
  5
B64
330
2
100
AcDbEntity
  8
0
  6
Continuous
 62
     7
100
AcDbLine
 10
2547.000031910371
 20
22.49999226679256
 30
0.0
 11
2562.000031910371
 21
22.49999226679256
 31
0.0
  0
LINE
  5
B65
330
2
100
AcDbEntity
  8
0
  6
Continuous
 62
     7
100
AcDbLine
 10
2545.000031863121
 20
25.49999226679256
 30
0.0
 11
2547.000031910371
 21
25.49999226679256
 31
0.0
  0
LINE
  5
B66
330
2
100
AcDbEntity
  8
0
  6
Continuous
 62
     7
100
AcDbLine
 10
2547.000031910371
 20
25.49999226679256
 30
0.0
 11
2561.500031910371
 21
25.49999226679256
 31
0.0
  0
LINE
  5
B67
330
2
100
AcDbEntity
  8
0
  6
Continuous
 62
     7
100
AcDbLine
 10
2584.500031910362
 20
52.99999226776754
 30
0.0
 11
2557.000031910362
 21
52.99999226776754
 31
0.0
  0
LINE
  5
B68
330
2
100
AcDbEntity
  8
0
  6
Continuous
 62
     7
100
AcDbLine
 10
2557.000031910362
 20
52.99999226776754
 30
0.0
 11
2557.000031910362
 21
39.9999923184223
 31
0.0
  0
LINE
  5
B69
330
2
100
AcDbEntity
  8
0
  6
Continuous
 62
     7
100
AcDbLine
 10
2557.000031910362
 20
29.9999923184223
 30
0.0
 11
2557.000031910362
 21
25.49999226776754
 31
0.0
  0
LINE
  5
B6A
330
2
100
AcDbEntity
  8
0
  6
Continuous
 62
     7
100
AcDbLine
 10
2537.000031910371
 20
54.49999226776753
 30
0.0
 11
2555.50303892503
 21
72.99999226776754
 31
0.0
  0
LINE
  5
B6B
330
2
100
AcDbEntity
  8
0
  6
Continuous
 62
     7
100
AcDbLine
 10
2555.50303892503
 20
72.99999226776754
 30
0.0
 11
2584.500031910362
 21
72.99999226776754
 31
0.0
  0
LINE
  5
B6C
330
2
100
AcDbEntity
  8
0
  6
Continuous
 62
     7
100
AcDbLine
 10
2537.000031910371
 20
39.9999923190694
 30
0.0
 11
2537.000031910371
 21
54.49999226776753
 31
0.0
  0
LINE
  5
B6D
330
2
100
AcDbEntity
  8
0
  6
Continuous
 62
     7
100
AcDbLine
 10
1434.500031865413
 20
773.4999922723131
 30
0.0
 11
1434.500031865462
 21
744.4999922723131
 31
0.0
  0
LINE
  5
B6E
330
2
100
AcDbEntity
  8
0
  6
Continuous
 62
     9
100
AcDbLine
 10
1434.000031865413
 20
773.9999922723122
 30
0.0
 11
1434.000031865462
 21
743.9999922723123
 31
0.0
  0
LINE
  5
B6F
330
2
100
AcDbEntity
  8
0
  6
Continuous
 62
     7
100
AcDbLine
 10
1431.500031865413
 20
773.9999922723086
 30
0.0
 11
1431.500031865462
 21
743.9999922723086
 31
0.0
  0
LINE
  5
B70
330
2
100
AcDbEntity
  8
0
  6
Continuous
 62
     7
100
AcDbLine
 10
1434.500031864781
 20
768.9999922723022
 30
0.0
 11
1451.000031864781
 21
768.9999922723296
 31
0.0
  0
LINE
  5
B71
330
2
100
AcDbEntity
  8
0
  6
Continuous
 62
     7
100
AcDbLine
 10
1451.000031864781
 20
768.9999922723296
 30
0.0
 11
1451.000031864754
 21
789.9999922723286
 31
0.0
  0
LINE
  5
B72
330
2
100
AcDbEntity
  8
0
  6
Continuous
 62
     7
100
AcDbLine
 10
1471.000031864791
 20
767.4999922723595
 30
0.0
 11
1452.500031864822
 21
748.9999922723313
 31
0.0
  0
LINE
  5
B73
330
2
100
AcDbEntity
  8
0
  6
Continuous
 62
     7
100
AcDbLine
 10
1452.500031864822
 20
748.9999922723313
 30
0.0
 11
1434.500031864821
 21
748.9999922723036
 31
0.0
  0
LINE
  5
B74
330
2
100
AcDbEntity
  8
0
  6
Continuous
 62
     7
100
AcDbLine
 10
1471.000031864754
 20
789.9999922723605
 30
0.0
 11
1471.000031864791
 21
767.4999922723595
 31
0.0
  0
LINE
  5
B75
330
2
100
AcDbEntity
  8
0
  6
Continuous
 62
     7
100
AcDbLine
 10
1441.000031863741
 20
799.9999922723036
 30
0.0
 11
1441.000031864132
 21
789.9999922723045
 31
0.0
  0
LINE
  5
B76
330
2
100
AcDbEntity
  8
0
  6
Continuous
 62
     7
100
AcDbLine
 10
1481.00003186373
 20
799.9999922738593
 30
0.0
 11
1441.000031863741
 21
799.9999922723036
 31
0.0
  0
LINE
  5
B77
330
2
100
AcDbEntity
  8
0
  6
Continuous
 62
     7
100
AcDbLine
 10
1481.00003186373
 20
799.9999922738593
 30
0.0
 11
1481.000031864132
 21
789.9999922738607
 31
0.0
  0
LINE
  5
B78
330
2
100
AcDbEntity
  8
0
  6
Continuous
 62
     7
100
AcDbLine
 10
1481.000031864132
 20
789.9999922738607
 30
0.0
 11
1441.000031864132
 21
789.9999922723036
 31
0.0
  0
LINE
  5
B79
330
2
100
AcDbEntity
  8
0
  6
Continuous
 62
     9
100
AcDbLine
 10
2585.000031863181
 20
743.9999922668407
 30
0.0
 11
2585.000031861664
 21
773.9999922668407
 31
0.0
  0
LINE
  5
B7A
330
2
100
AcDbEntity
  8
0
  6
Continuous
 62
     7
100
AcDbLine
 10
2587.500031863181
 20
743.9999922669676
 30
0.0
 11
2587.500031861664
 21
773.9999922669676
 31
0.0
  0
LINE
  5
B7B
330
2
100
AcDbEntity
  8
0
  6
Continuous
 62
     7
100
AcDbLine
 10
2584.500031863163
 20
744.4999922668158
 30
0.0
 11
2584.500031861693
 21
773.4999922668158
 31
0.0
  0
CIRCLE
  5
B7C
330
2
100
AcDbEntity
  8
0
  6
Continuous
 62
     7
100
AcDbCircle
 10
2558.000031861731
 20
783.9999922595183
 30
0.0
 40
1.69999999999959
  0
LINE
  5
B7D
330
2
100
AcDbEntity
  8
0
  6
Continuous
 62
     7
100
AcDbLine
 10
2557.278344025281
 20
782.7499922594998
 30
0.0
 11
2556.556656188763
 21
783.9999922594793
 31
0.0
  0
LINE
  5
B7E
330
2
100
AcDbEntity
  8
0
  6
Continuous
 62
     7
100
AcDbLine
 10
2558.721719698251
 20
782.7499922595384
 30
0.0
 11
2557.278344025281
 21
782.7499922594998
 31
0.0
  0
LINE
  5
B7F
330
2
100
AcDbEntity
  8
0
  6
Continuous
 62
     7
100
AcDbLine
 10
2559.443407534713
 20
783.9999922595575
 30
0.0
 11
2558.721719698251
 21
782.7499922595384
 31
0.0
  0
LINE
  5
B80
330
2
100
AcDbEntity
  8
0
  6
Continuous
 62
     7
100
AcDbLine
 10
2558.721719698191
 20
785.2499922595384
 30
0.0
 11
2559.443407534713
 21
783.9999922595575
 31
0.0
  0
LINE
  5
B81
330
2
100
AcDbEntity
  8
0
  6
Continuous
 62
     7
100
AcDbLine
 10
2557.278344025214
 20
785.2499922594997
 30
0.0
 11
2558.721719698191
 21
785.2499922595398
 31
0.0
  0
LINE
  5
B82
330
2
100
AcDbEntity
  8
0
  6
Continuous
 62
     7
100
AcDbLine
 10
2556.556656188763
 20
783.9999922594793
 30
0.0
 11
2557.278344025214
 21
785.2499922594997
 31
0.0
  0
LINE
  5
B83
330
2
100
AcDbEntity
  8
0
  6
Continuous
 62
     7
100
AcDbLine
 10
2548.000031861493
 20
789.9999922653046
 30
0.0
 11
2548.00003186263
 21
767.4999922653037
 31
0.0
  0
LINE
  5
B84
330
2
100
AcDbEntity
  8
0
  6
Continuous
 62
     7
100
AcDbLine
 10
2568.000031862552
 20
768.9999922663169
 30
0.0
 11
2568.000031861493
 21
789.9999922663155
 31
0.0
  0
LINE
  5
B85
330
2
100
AcDbEntity
  8
0
  6
Continuous
 62
     7
100
AcDbLine
 10
2584.500031862552
 20
768.9999922671504
 30
0.0
 11
2568.000031862552
 21
768.9999922663169
 31
0.0
  0
LINE
  5
B86
330
2
100
AcDbEntity
  8
0
  6
Continuous
 62
     7
100
AcDbLine
 10
2566.500031863572
 20
748.9999922662405
 30
0.0
 11
2584.500031863572
 21
748.9999922671504
 31
0.0
  0
CIRCLE
  5
B87
330
2
100
AcDbEntity
  8
0
  6
Continuous
 62
     7
100
AcDbCircle
 10
2558.000031861802
 20
783.9999922658103
 30
0.0
 40
2.100000000000434
  0
LINE
  5
B88
330
2
100
AcDbEntity
  8
0
  6
Continuous
 62
     7
100
AcDbLine
 10
2548.00003186263
 20
767.4999922653037
 30
0.0
 11
2566.500031863572
 21
748.9999922662405
 31
0.0
  0
LINE
  5
B89
330
2
100
AcDbEntity
  8
0
  6
Continuous
 62
     7
100
AcDbLine
 10
2538.000031861993
 20
799.9999922651336
 30
0.0
 11
2538.000031862122
 21
789.9999922651327
 31
0.0
  0
LINE
  5
B8A
330
2
100
AcDbEntity
  8
0
  6
Continuous
 62
     7
100
AcDbLine
 10
2578.000031861993
 20
799.9999922656615
 30
0.0
 11
2538.000031861993
 21
799.9999922651336
 31
0.0
  0
LINE
  5
B8B
330
2
100
AcDbEntity
  8
0
  6
Continuous
 62
     7
100
AcDbLine
 10
2578.000031861993
 20
799.9999922656615
 30
0.0
 11
2578.000031862123
 21
789.9999922656616
 31
0.0
  0
LINE
  5
B8C
330
2
100
AcDbEntity
  8
0
  6
Continuous
 62
     7
100
AcDbLine
 10
2578.000031862123
 20
789.9999922656616
 30
0.0
 11
2538.000031862122
 21
789.9999922651327
 31
0.0
  0
LINE
  5
B8D
330
2
100
AcDbEntity
  8
0
  6
Continuous
 62
     7
100
AcDbLine
 10
1416.300031862762
 20
47.49999227281569
 30
0.0
 11
1416.300031862762
 21
22.49999227281614
 31
0.0
  0
LINE
  5
B8E
330
2
100
AcDbEntity
  8
0
  6
Continuous
 62
     7
100
AcDbLine
 10
1422.000031862771
 20
47.49999227281569
 30
0.0
 11
1422.000031862771
 21
22.49999227281614
 31
0.0
  0
LINE
  5
B8F
330
2
100
AcDbEntity
  8
0
  6
Continuous
 62
     7
100
AcDbLine
 10
1416.000031862772
 20
22.79999227281587
 30
0.0
 11
1416.000031862772
 21
47.1999922728155
 31
0.0
  0
LINE
  5
B90
330
2
100
AcDbEntity
  8
0
  6
Continuous
 62
     9
100
AcDbLine
 10
1432.000031862772
 20
37.99999227281569
 30
0.0
 11
1432.000031862772
 21
35.00012490034442
 31
0.0
  0
LINE
  5
B91
330
2
100
AcDbEntity
  8
0
  6
Continuous
 62
     9
100
AcDbLine
 10
1432.000031862772
 20
35.00012490034442
 30
0.0
 11
1432.000031862772
 21
31.99999227281569
 31
0.0
  0
LINE
  5
B92
330
2
100
AcDbEntity
  8
0
  6
Continuous
 62
     7
100
AcDbLine
 10
1434.000031863663
 20
48.99999227338776
 30
0.0
 11
1434.00003186353
 21
47.00390563476048
 31
0.0
  0
LINE
  5
B93
330
2
100
AcDbEntity
  8
0
  6
Continuous
 62
     7
100
AcDbLine
 10
1434.00003186353
 20
47.00390563476048
 30
0.0
 11
1434.000031863521
 21
46.78913458304805
 31
0.0
  0
LINE
  5
B94
330
2
100
AcDbEntity
  8
0
  6
Continuous
 62
     7
100
AcDbLine
 10
1434.00003186349
 20
46.33780278535778
 30
0.0
 11
1434.00003186188
 21
20.99999227338776
 31
0.0
  0
LINE
  5
B95
330
2
100
AcDbEntity
  8
0
  6
Continuous
 62
     7
100
AcDbLine
 10
1433.000031863663
 20
48.99999227345188
 30
0.0
 11
1433.000031863583
 21
47.70179800903133
 31
0.0
  0
LINE
  5
B96
330
2
100
AcDbEntity
  8
0
  6
Continuous
 62
     7
100
AcDbLine
 10
1433.000031863541
 20
47.09756428042237
 30
0.0
 11
1433.00003186188
 21
20.99999227345188
 31
0.0
  0
LINE
  5
B97
330
2
100
AcDbEntity
  8
0
  6
Continuous
 62
     7
100
AcDbLine
 10
1437.000031862772
 20
47.00039014430877
 30
0.0
 11
1437.000031862772
 21
46.48453671450943
 31
0.0
  0
LINE
  5
B98
330
2
100
AcDbEntity
  8
0
  6
Continuous
 62
     7
100
AcDbLine
 10
1437.000031862772
 20
46.0519147877676
 30
0.0
 11
1437.000031862772
 21
19.9999922881093
 31
0.0
  0
LINE
  5
B99
330
2
100
AcDbEntity
  8
0
  6
Continuous
 62
     9
100
AcDbLine
 10
1435.000031862772
 20
47.00039014430877
 30
0.0
 11
1435.000031862772
 21
46.37720939439486
 31
0.0
  0
LINE
  5
B9A
330
2
100
AcDbEntity
  8
0
  6
Continuous
 62
     9
100
AcDbLine
 10
1435.000031862772
 20
45.96953018011254
 30
0.0
 11
1435.000031862772
 21
37.49999235483028
 31
0.0
  0
LINE
  5
B9B
330
2
100
AcDbEntity
  8
0
  6
Continuous
 62
     9
100
AcDbLine
 10
1435.000031862772
 20
37.49999235483028
 30
0.0
 11
1435.000031862772
 21
34.99999227395483
 31
0.0
  0
LINE
  5
B9C
330
2
100
AcDbEntity
  8
0
  6
Continuous
 62
     9
100
AcDbLine
 10
1435.000031862772
 20
34.99999227395529
 30
0.0
 11
1435.000031862772
 21
32.49999235482937
 31
0.0
  0
LINE
  5
B9D
330
2
100
AcDbEntity
  8
0
  6
Continuous
 62
     9
100
AcDbLine
 10
1435.000031862772
 20
32.49999235482937
 30
0.0
 11
1435.000031862772
 21
19.99999227345051
 31
0.0
  0
LINE
  5
B9E
330
2
100
AcDbEntity
  8
0
  6
Continuous
 62
     7
100
AcDbLine
 10
1435.000031862772
 20
47.00039014430877
 30
0.0
 11
1437.000031862772
 21
47.0003901443074
 31
0.0
  0
LINE
  5
B9F
330
2
100
AcDbEntity
  8
0
  6
Continuous
 62
     7
100
AcDbLine
 10
1434.000031862772
 20
47.00031105862627
 30
0.0
 11
1434.000031862772
 21
46.78913458350234
 31
0.0
  0
LINE
  5
BA0
330
2
100
AcDbEntity
  8
0
  6
Continuous
 62
     7
100
AcDbLine
 10
1434.000031862772
 20
46.33780278573931
 30
0.0
 11
1434.000031862772
 21
20.99999227345188
 31
0.0
  0
LINE
  5
BA1
330
2
100
AcDbEntity
  8
0
  6
Continuous
 62
     7
100
AcDbLine
 10
1434.000031862772
 20
47.00031105862627
 30
0.0
 11
1435.000031862772
 21
47.00039014430877
 31
0.0
  0
LINE
  5
BA2
330
2
100
AcDbEntity
  8
0
  6
Continuous
 62
     7
100
AcDbLine
 10
2603.000031909651
 20
47.19999227135258
 30
0.0
 11
2603.000031911173
 21
22.79999227135249
 31
0.0
  0
LINE
  5
BA3
330
2
100
AcDbEntity
  8
0
  6
Continuous
 62
     7
100
AcDbLine
 10
2602.70003191118
 20
22.49999227133367
 30
0.0
 11
2602.700031909632
 21
47.49999227133367
 31
0.0
  0
LINE
  5
BA4
330
2
100
AcDbEntity
  8
0
  6
Continuous
 62
     7
100
AcDbLine
 10
2597.000031911181
 20
22.49999227097851
 30
0.0
 11
2597.000031909633
 21
47.49999227097851
 31
0.0
  0
LINE
  5
BA5
330
2
100
AcDbEntity
  8
0
  6
Continuous
 62
     9
100
AcDbLine
 10
2587.000031910591
 20
31.99999227035551
 30
0.0
 11
2587.000031910413
 21
34.99991659988655
 31
0.0
  0
LINE
  5
BA6
330
2
100
AcDbEntity
  8
0
  6
Continuous
 62
     9
100
AcDbLine
 10
2587.000031910413
 20
34.99991659988655
 30
0.0
 11
2587.000031910224
 21
37.99999227035551
 31
0.0
  0
LINE
  5
BA7
330
2
100
AcDbEntity
  8
0
  6
Continuous
 62
     7
100
AcDbLine
 10
2586.000031910382
 20
21.99999227275839
 30
0.0
 11
2586.00003191042
 21
48.99999226965838
 31
0.0
  0
LINE
  5
BA8
330
2
100
AcDbEntity
  8
0
  6
Continuous
 62
     7
100
AcDbLine
 10
2585.000031910382
 20
21.99999227275839
 30
0.0
 11
2585.000031910382
 21
22.99621584732859
 31
0.0
  0
LINE
  5
BA9
330
2
100
AcDbEntity
  8
0
  6
Continuous
 62
     7
100
AcDbLine
 10
2585.000031910382
 20
22.99621584732859
 30
0.0
 11
2585.000031910402
 21
32.49999231759967
 31
0.0
  0
LINE
  5
BAA
330
2
100
AcDbEntity
  8
0
  6
Continuous
 62
     7
100
AcDbLine
 10
2585.000031910402
 20
37.49999231759967
 30
0.0
 11
2585.00003191042
 21
48.99999226965838
 31
0.0
  0
LINE
  5
BAB
330
2
100
AcDbEntity
  8
0
  6
Continuous
 62
     7
100
AcDbLine
 10
2585.000031911141
 20
22.99981038424312
 30
0.0
 11
2585.000031910553
 21
32.49999231759967
 31
0.0
  0
LINE
  5
BAC
330
2
100
AcDbEntity
  8
0
  6
Continuous
 62
     7
100
AcDbLine
 10
2585.000031910242
 20
37.49999231759967
 30
0.0
 11
2585.000031909533
 21
48.99999226959653
 31
0.0
  0
LINE
  5
BAD
330
2
100
AcDbEntity
  8
0
  6
Continuous
 62
     7
100
AcDbLine
 10
2585.000031911141
 20
22.99981038424312
 30
0.0
 11
2584.00003191114
 21
22.99976526194496
 31
0.0
  0
LINE
  5
BAE
330
2
100
AcDbEntity
  8
0
  6
Continuous
 62
     9
100
AcDbLine
 10
2584.00003191114
 20
22.99976526194496
 30
0.0
 11
2584.000031909471
 21
49.99999226953469
 31
0.0
  0
LINE
  5
BAF
330
2
100
AcDbEntity
  8
0
  6
Continuous
 62
     7
100
AcDbLine
 10
2584.00003191114
 20
22.99976526194496
 30
0.0
 11
2582.000031911141
 21
22.99976526182081
 31
0.0
  0
LINE
  5
BB0
330
2
100
AcDbEntity
  8
0
  6
Continuous
 62
     7
100
AcDbLine
 10
2582.000031911141
 20
22.99976526182081
 30
0.0
 11
2582.000031909471
 21
49.99999226463751
 31
0.0
  0
LINE
  5
BB1
330
2
100
AcDbEntity
  8
0
  6
Continuous
 62
     4
100
AcDbLine
 10
1423.000031862772
 20
13.99999227275839
 30
0.0
 11
1431.000031862772
 21
13.99999227275839
 31
0.0
  0
LINE
  5
BB2
330
2
100
AcDbEntity
  8
0
  6
Continuous
 62
     4
100
AcDbLine
 10
1423.000031862772
 20
799.9999922727597
 30
0.0
 11
1423.000031862772
 21
13.99999227275975
 31
0.0
  0
LINE
  5
BB3
330
2
100
AcDbEntity
  8
0
  6
Continuous
 62
     4
100
AcDbLine
 10
1431.000031862772
 20
799.9999922727597
 30
0.0
 11
1423.000031862772
 21
799.9999922727597
 31
0.0
  0
LINE
  5
BB4
330
2
100
AcDbEntity
  8
0
  6
Continuous
 62
     4
100
AcDbLine
 10
1431.000031862772
 20
13.99999227275839
 30
0.0
 11
1431.000031862772
 21
799.9999922727597
 31
0.0
  0
LINE
  5
BB5
330
2
100
AcDbEntity
  8
0
  6
Continuous
 62
     4
100
AcDbLine
 10
2596.000031862772
 20
799.9999922727588
 30
0.0
 11
2588.000031862772
 21
799.9999922722613
 31
0.0
  0
LINE
  5
BB6
330
2
100
AcDbEntity
  8
0
  6
Continuous
 62
     4
100
AcDbLine
 10
2596.000031911712
 20
13.99999227275839
 30
0.0
 11
2596.000031862772
 21
799.9999922727588
 31
0.0
  0
LINE
  5
BB7
330
2
100
AcDbEntity
  8
0
  6
Continuous
 62
     4
100
AcDbLine
 10
2588.000031862772
 20
799.9999922722613
 30
0.0
 11
2588.000031911211
 21
21.99999227275839
 31
0.0
  0
LINE
  5
BB8
330
2
100
AcDbEntity
  8
0
  6
Continuous
 62
     4
100
AcDbLine
 10
2588.000031911211
 20
21.99999227275839
 30
0.0
 11
2588.000031911712
 21
13.99999227226135
 31
0.0
  0
LINE
  5
BB9
330
2
100
AcDbEntity
  8
0
  6
Continuous
 62
     4
100
AcDbLine
 10
2588.000031911712
 20
13.99999227226135
 30
0.0
 11
2596.000031911712
 21
13.99999227275839
 31
0.0
  0
LINE
  5
BBA
330
2
100
AcDbEntity
  8
0
  6
Continuous
 62
     9
100
AcDbLine
 10
1459.000031862713
 20
42.49999222183987
 30
0.0
 11
1437.000031862772
 21
42.49999222182077
 31
0.0
  0
LINE
  5
BBB
330
2
100
AcDbEntity
  8
0
  6
Continuous
 62
     7
100
AcDbLine
 10
1432.000031863192
 20
44.49999222194356
 30
0.0
 11
1433.000031863463
 21
43.49999222168344
 31
0.0
  0
LINE
  5
BBC
330
2
100
AcDbEntity
  8
0
  6
Continuous
 62
     7
100
AcDbLine
 10
1459.000031862781
 20
44.49999222196857
 30
0.0
 11
1437.000031862772
 21
44.49999222194856
 31
0.0
  0
LINE
  5
BBD
330
2
100
AcDbEntity
  8
0
  6
Continuous
 62
     7
100
AcDbLine
 10
1433.000031863372
 20
44.49999222194492
 30
0.0
 11
1432.000031863192
 21
44.49999222194356
 31
0.0
  0
LINE
  5
BBE
330
2
100
AcDbEntity
  8
0
  6
Continuous
 62
     9
100
AcDbLine
 10
1472.000031863021
 20
24.49999222185261
 30
0.0
 11
1437.000031862772
 21
24.49999222182078
 31
0.0
  0
LINE
  5
BBF
330
2
100
AcDbEntity
  8
0
  6
Continuous
 62
     7
100
AcDbLine
 10
1472.000031863021
 20
24.49999222185261
 30
0.0
 11
1472.000031863021
 21
27.9999922397742
 31
0.0
  0
LINE
  5
BC0
330
2
100
AcDbEntity
  8
0
  6
Continuous
 62
     7
100
AcDbLine
 10
1472.000031863212
 20
22.49999222198085
 30
0.0
 11
1437.000031862772
 21
22.49999222194765
 31
0.0
  0
LINE
  5
BC1
330
2
100
AcDbEntity
  8
0
  6
Continuous
 62
     7
100
AcDbLine
 10
1433.00003186198
 20
22.49999222194492
 30
0.0
 11
1432.000031863221
 21
22.49999222194356
 31
0.0
  0
LINE
  5
BC2
330
2
100
AcDbEntity
  8
0
  6
Continuous
 62
     7
100
AcDbLine
 10
1433.00003186208
 20
23.49999222080578
 30
0.0
 11
1432.000031863221
 21
22.49999222194356
 31
0.0
  0
LINE
  5
BC3
330
2
100
AcDbEntity
  8
0
  6
Continuous
 62
     7
100
AcDbLine
 10
1472.000031863212
 20
22.49999222198085
 30
0.0
 11
1472.000031863212
 21
24.49999222185261
 31
0.0
  0
LINE
  5
BC4
330
2
100
AcDbEntity
  8
0
  6
Continuous
 62
     7
100
AcDbLine
 10
1432.267981055552
 20
23.49999222187944
 30
0.0
 11
1432.267981055552
 21
23.74999222187944
 31
0.0
  0
LINE
  5
BC5
330
2
100
AcDbEntity
  8
0
  6
Continuous
 62
     7
100
AcDbLine
 10
1432.267981055552
 20
23.74999222194492
 30
0.0
 11
1432.000031863212
 21
23.74999222194356
 31
0.0
  0
LINE
  5
BC6
330
2
100
AcDbEntity
  8
0
  6
Continuous
 62
     7
100
AcDbLine
 10
1432.000031863212
 20
23.74999222194356
 30
0.0
 11
1432.000031863212
 21
31.94998227574797
 31
0.0
  0
LINE
  5
BC7
330
2
100
AcDbEntity
  8
0
  6
Continuous
 62
     7
100
AcDbLine
 10
1432.000031863212
 20
31.94998227574797
 30
0.0
 11
1432.000031863212
 21
31.99999227281569
 31
0.0
  0
LINE
  5
BC8
330
2
100
AcDbEntity
  8
0
  6
Continuous
 62
     7
100
AcDbLine
 10
1432.000031863205
 20
37.99999227281569
 30
0.0
 11
1432.000031863205
 21
38.04999936005288
 31
0.0
  0
LINE
  5
BC9
330
2
100
AcDbEntity
  8
0
  6
Continuous
 62
     7
100
AcDbLine
 10
1432.000031863205
 20
38.04999936005288
 30
0.0
 11
1432.000031863205
 21
43.24999222194356
 31
0.0
  0
LINE
  5
BCA
330
2
100
AcDbEntity
  8
0
  6
Continuous
 62
     7
100
AcDbLine
 10
1432.000031863205
 20
43.24999222194356
 30
0.0
 11
1432.267981055531
 21
43.24999222194356
 31
0.0
  0
LINE
  5
BCB
330
2
100
AcDbEntity
  8
0
  6
Continuous
 62
     7
100
AcDbLine
 10
1432.267981055531
 20
43.24999222187943
 30
0.0
 11
1432.267981055531
 21
43.49999222187943
 31
0.0
  0
LINE
  5
BCC
330
2
100
AcDbEntity
  8
0
  6
Continuous
 62
     7
100
AcDbLine
 10
1432.267981055531
 20
43.49999222194355
 30
0.0
 11
1432.000031863205
 21
43.49999222194355
 31
0.0
  0
LINE
  5
BCD
330
2
100
AcDbEntity
  8
0
  6
Continuous
 62
     7
100
AcDbLine
 10
1432.000031863205
 20
43.49999222194355
 30
0.0
 11
1432.000031863192
 21
44.49999222194356
 31
0.0
  0
LINE
  5
BCE
330
2
100
AcDbEntity
  8
0
  6
Continuous
 62
     7
100
AcDbLine
 10
1432.000031863221
 20
22.49999222194356
 30
0.0
 11
1432.000031863212
 21
23.49999222194356
 31
0.0
  0
LINE
  5
BCF
330
2
100
AcDbEntity
  8
0
  6
Continuous
 62
     7
100
AcDbLine
 10
1432.000031863212
 20
23.49999222194356
 30
0.0
 11
1432.267981055552
 21
23.49999222194356
 31
0.0
  0
LINE
  5
BD0
330
2
100
AcDbEntity
  8
0
  6
Continuous
 62
     7
100
AcDbLine
 10
1437.800031930821
 20
57.10752353797943
 30
0.0
 11
1437.80003300238
 21
46.89246245968024
 31
0.0
  0
ARC
  5
BD1
330
2
100
AcDbEntity
  8
0
  6
Continuous
 62
     7
100
AcDbCircle
 10
1435.819911314891
 20
54.21264168265452
 30
0.0
 40
3.507309311987233
100
AcDbArc
 50
55.62758316846649
 51
167.1798631684872
  0
LINE
  5
BD2
330
2
100
AcDbEntity
  8
0
  6
Continuous
 62
     7
100
AcDbLine
 10
1432.400033456612
 20
49.00910274398938
 30
0.0
 11
1432.40003420868
 21
54.99088276897783
 31
0.0
  0
ARC
  5
BD3
330
2
100
AcDbEntity
  8
0
  6
Continuous
 62
     7
100
AcDbCircle
 10
1435.819911309771
 20
49.78734469288156
 30
0.0
 40
3.507310231731812
100
AcDbArc
 50
192.8201478636629
 51
304.3724278636393
  0
ARC
  5
BD4
330
2
100
AcDbEntity
  8
0
  6
Continuous
 62
     7
100
AcDbCircle
 10
1439.45003186304
 20
55.94999233116459
 30
0.0
 40
0.4500000000002843
100
AcDbArc
 50
89.99999664493637
 51
173.6206373008552
  0
ARC
  5
BD5
330
2
100
AcDbEntity
  8
0
  6
Continuous
 62
     7
100
AcDbCircle
 10
1439.45003186304
 20
55.94999233116459
 30
0.0
 40
0.4499999999997372
100
AcDbArc
 50
173.6206373008552
 51
179.9999966449624
  0
LINE
  5
BD6
330
2
100
AcDbEntity
  8
0
  6
Continuous
 62
     7
100
AcDbLine
 10
1439.000031863041
 20
55.94999235751493
 30
0.0
 11
1439.000031400452
 21
48.04999435751461
 31
0.0
  0
ARC
  5
BD7
330
2
100
AcDbEntity
  8
0
  6
Continuous
 62
     7
100
AcDbCircle
 10
1439.450031400452
 20
48.04999433116472
 30
0.0
 40
0.4500000000007284
100
AcDbArc
 50
179.9999966449624
 51
186.3796339523279
  0
ARC
  5
BD8
330
2
100
AcDbEntity
  8
0
  6
Continuous
 62
     7
100
AcDbCircle
 10
1439.450031400452
 20
48.04999433116472
 30
0.0
 40
0.4500000000002231
100
AcDbArc
 50
186.3796339523279
 51
269.9999966449364
  0
LINE
  5
BD9
330
2
100
AcDbEntity
  8
0
  6
Continuous
 62
     7
100
AcDbLine
 10
1439.450031374103
 20
47.5999943311649
 30
0.0
 11
1439.550031374103
 21
47.59999432530821
 31
0.0
  0
ARC
  5
BDA
330
2
100
AcDbEntity
  8
0
  6
Continuous
 62
     7
100
AcDbCircle
 10
1439.550031400453
 20
48.0499943253094
 30
0.0
 40
0.4500000000002843
100
AcDbArc
 50
269.9999966449364
 51
353.6203667979123
  0
ARC
  5
BDB
330
2
100
AcDbEntity
  8
0
  6
Continuous
 62
     7
100
AcDbCircle
 10
1439.550031400453
 20
48.0499943253094
 30
0.0
 40
0.4499999999992074
100
AcDbArc
 50
353.6203667978863
 51
359.9999966449364
  0
LINE
  5
BDC
330
2
100
AcDbEntity
  8
0
  6
Continuous
 62
     7
100
AcDbLine
 10
1440.000031400452
 20
48.04999429895815
 30
0.0
 11
1440.000031429723
 21
48.54999429895816
 31
0.0
  0
ARC
  5
BDD
330
2
100
AcDbEntity
  8
0
  6
Continuous
 62
     7
100
AcDbCircle
 10
1440.450030429722
 20
48.54999327260884
 30
0.0
 40
0.449999000000039
100
AcDbArc
 50
89.99986932073035
 51
179.9998693207043
  0
LINE
  5
BDE
330
2
100
AcDbEntity
  8
0
  6
Continuous
 62
     7
100
AcDbLine
 10
1440.450031456083
 20
48.99999227260877
 30
0.0
 11
1440.550031456072
 21
48.99999426675231
 31
0.0
  0
ARC
  5
BDF
330
2
100
AcDbEntity
  8
0
  6
Continuous
 62
     7
100
AcDbCircle
 10
1440.550031429722
 20
48.54999426675249
 30
0.0
 40
0.4499999999998403
100
AcDbArc
 50
359.9999966449624
 51
89.99999664493637
  0
LINE
  5
BE0
330
2
100
AcDbEntity
  8
0
  6
Continuous
 62
     7
100
AcDbLine
 10
1441.000031429723
 20
48.5499942404017
 30
0.0
 11
1441.000031397523
 21
47.99999424040197
 31
0.0
  0
LINE
  5
BE1
330
2
100
AcDbEntity
  8
0
  6
Continuous
 62
     7
100
AcDbLine
 10
1441.000031397523
 20
47.99999424040197
 30
0.0
 11
1444.700031397522
 21
47.99999402374306
 31
0.0
  0
LINE
  5
BE2
330
2
100
AcDbEntity
  8
0
  6
Continuous
 62
     7
100
AcDbLine
 10
1444.700031397522
 20
47.99999402374306
 30
0.0
 11
1444.700031362381
 21
47.39999402374269
 31
0.0
  0
LINE
  5
BE3
330
2
100
AcDbEntity
  8
0
  6
Continuous
 62
     7
100
AcDbLine
 10
1444.700031362381
 20
47.39999402374269
 30
0.0
 11
1448.235380532282
 21
47.39999360578894
 31
0.0
  0
ARC
  5
BE4
330
2
100
AcDbEntity
  8
0
  6
Continuous
 62
     7
100
AcDbCircle
 10
1448.000031041363
 20
47.31567401779876
 30
0.0
 40
0.2499983515828815
100
AcDbArc
 50
19.71127840086235
 51
84.71062540090541
  0
LINE
  5
BE5
330
2
100
AcDbEntity
  8
0
  6
Continuous
 62
     7
100
AcDbLine
 10
1448.023077372021
 20
47.56460782915564
 30
0.0
 11
1446.049703382723
 21
47.74730794470952
 31
0.0
  0
LINE
  5
BE6
330
2
100
AcDbEntity
  8
0
  6
Continuous
 62
     7
100
AcDbLine
 10
1446.049703382723
 20
47.74730794470952
 30
0.0
 11
1446.072751397303
 21
47.99624194336092
 31
0.0
  0
LINE
  5
BE7
330
2
100
AcDbEntity
  8
0
  6
Continuous
 62
     7
100
AcDbLine
 10
1446.072751397303
 20
47.99624194336092
 30
0.0
 11
1448.046123102622
 21
47.81354466381071
 31
0.0
  0
ARC
  5
BE8
330
2
100
AcDbEntity
  8
0
  6
Continuous
 62
     7
100
AcDbCircle
 10
1448.000029047453
 20
47.31567451528462
 30
0.0
 40
0.4999993467145551
100
AcDbArc
 50
9.708685039770493
 51
84.71049303982344
  0
LINE
  5
BE9
330
2
100
AcDbEntity
  8
0
  6
Continuous
 62
     7
100
AcDbLine
 10
1448.492867362381
 20
47.39999380164635
 30
0.0
 11
1449.200029362391
 21
47.39999376023752
 31
0.0
  0
LINE
  5
BEA
330
2
100
AcDbEntity
  8
0
  6
Continuous
 62
     7
100
AcDbLine
 10
1449.200029362391
 20
47.39999376023752
 30
0.0
 11
1449.200029397523
 21
47.99999376023743
 31
0.0
  0
LINE
  5
BEB
330
2
100
AcDbEntity
  8
0
  6
Continuous
 62
     7
100
AcDbLine
 10
1449.200029397523
 20
47.99999376023743
 30
0.0
 11
1451.000029397522
 21
47.99999365483517
 31
0.0
  0
LINE
  5
BEC
330
2
100
AcDbEntity
  8
0
  6
Continuous
 62
     7
100
AcDbLine
 10
1451.000029397522
 20
47.99999365483517
 30
0.0
 11
1451.000029350673
 21
47.19999365483545
 31
0.0
  0
ARC
  5
BED
330
2
100
AcDbEntity
  8
0
  6
Continuous
 62
     7
100
AcDbCircle
 10
1450.200029350672
 20
47.1999937016817
 30
0.0
 40
0.7999999999999135
100
AcDbArc
 50
269.9999966449364
 51
359.9999966449624
  0
LINE
  5
BEE
330
2
100
AcDbEntity
  8
0
  6
Continuous
 62
     7
100
AcDbLine
 10
1450.200029303831
 20
46.39999370168061
 30
0.0
 11
1437.800031770883
 21
46.39999387054785
 31
0.0
  0
ARC
  5
BEF
330
2
100
AcDbEntity
  8
0
  6
Continuous
 62
     7
100
AcDbCircle
 10
1435.843835533589
 20
49.80260384694338
 30
0.0
 40
3.924851381929462
100
AcDbArc
 50
191.6640903182863
 51
299.8950483183281
  0
LINE
  5
BF0
330
2
100
AcDbEntity
  8
0
  6
Continuous
 62
     7
100
AcDbLine
 10
1432.000033456612
 20
49.00910276741161
 30
0.0
 11
1432.000033106331
 21
54.99088188346013
 31
0.0
  0
ARC
  5
BF1
330
2
100
AcDbEntity
  8
0
  6
Continuous
 62
     7
100
AcDbCircle
 10
1435.84383532532
 20
54.19738043266079
 30
0.0
 40
3.924851596062882
100
AcDbArc
 50
60.10494679292755
 51
168.3359047928909
  0
LINE
  5
BF2
330
2
100
AcDbEntity
  8
0
  6
Continuous
 62
     7
100
AcDbLine
 10
1437.800031959661
 20
57.59999042778281
 30
0.0
 11
1450.200029959662
 21
57.59998970168044
 31
0.0
  0
ARC
  5
BF3
330
2
100
AcDbEntity
  8
0
  6
Continuous
 62
     7
100
AcDbCircle
 10
1450.200029912821
 20
56.79998970168026
 30
0.0
 40
0.7999999999999135
100
AcDbArc
 50
359.9999966448843
 51
89.99999664493637
  0
LINE
  5
BF4
330
2
100
AcDbEntity
  8
0
  6
Continuous
 62
     7
100
AcDbLine
 10
1451.00002991282
 20
56.79998965483537
 30
0.0
 11
1451.000029865972
 21
55.99999165483677
 31
0.0
  0
LINE
  5
BF5
330
2
100
AcDbEntity
  8
0
  6
Continuous
 62
     7
100
AcDbLine
 10
1451.000029865972
 20
55.99999165483677
 30
0.0
 11
1449.200029865973
 21
55.99999176023903
 31
0.0
  0
LINE
  5
BF6
330
2
100
AcDbEntity
  8
0
  6
Continuous
 62
     7
100
AcDbLine
 10
1449.200029865973
 20
55.99999176023903
 30
0.0
 11
1449.200029901101
 21
56.5999897602378
 31
0.0
  0
LINE
  5
BF7
330
2
100
AcDbEntity
  8
0
  6
Continuous
 62
     7
100
AcDbLine
 10
1449.200029901101
 20
56.5999897602378
 30
0.0
 11
1448.492868792333
 21
56.59999000978041
 31
0.0
  0
ARC
  5
BF8
330
2
100
AcDbEntity
  8
0
  6
Continuous
 62
     7
100
AcDbCircle
 10
1448.000030592771
 20
56.68431006346645
 30
0.0
 40
0.4999993623979361
100
AcDbArc
 50
275.2894180610676
 51
350.2912260611051
  0
LINE
  5
BF9
330
2
100
AcDbEntity
  8
0
  6
Continuous
 62
     7
100
AcDbLine
 10
1448.046123876891
 20
56.18643982780668
 30
0.0
 11
1446.072751866189
 21
56.00374194336064
 31
0.0
  0
LINE
  5
BFA
330
2
100
AcDbEntity
  8
0
  6
Continuous
 62
     7
100
AcDbLine
 10
1446.072751866189
 20
56.00374194336064
 30
0.0
 11
1446.049703880771
 21
56.25267794471028
 31
0.0
  0
LINE
  5
BFB
330
2
100
AcDbEntity
  8
0
  6
Continuous
 62
     7
100
AcDbLine
 10
1446.049703880771
 20
56.25267794471028
 30
0.0
 11
1448.02307674947
 21
56.4353744111545
 31
0.0
  0
ARC
  5
BFC
330
2
100
AcDbEntity
  8
0
  6
Continuous
 62
     7
100
AcDbCircle
 10
1448.000030486653
 20
56.68431037654682
 30
0.0
 40
0.2500004901917225
100
AcDbArc
 50
275.2893136103678
 51
340.2886606104058
  0
LINE
  5
BFD
330
2
100
AcDbEntity
  8
0
  6
Continuous
 62
     7
100
AcDbLine
 10
1448.235381901102
 20
56.59998981672424
 30
0.0
 11
1444.700031901102
 21
56.59999002374298
 31
0.0
  0
LINE
  5
BFE
330
2
100
AcDbEntity
  8
0
  6
Continuous
 62
     7
100
AcDbLine
 10
1444.700031901102
 20
56.59999002374298
 30
0.0
 11
1444.700031865972
 21
55.99999202374283
 31
0.0
  0
LINE
  5
BFF
330
2
100
AcDbEntity
  8
0
  6
Continuous
 62
     7
100
AcDbLine
 10
1444.700031865972
 20
55.99999202374283
 30
0.0
 11
1441.000031865973
 21
55.99999224040221
 31
0.0
  0
LINE
  5
C00
330
2
100
AcDbEntity
  8
0
  6
Continuous
 62
     7
100
AcDbLine
 10
1441.000031865973
 20
55.99999224040221
 30
0.0
 11
1441.000031833773
 21
55.44999224040157
 31
0.0
  0
ARC
  5
C01
330
2
100
AcDbEntity
  8
0
  6
Continuous
 62
     7
100
AcDbCircle
 10
1440.550031833763
 20
55.44999226675236
 30
0.0
 40
0.4500000000007284
100
AcDbArc
 50
269.9999966449364
 51
359.9999966449624
  0
LINE
  5
C02
330
2
100
AcDbEntity
  8
0
  6
Continuous
 62
     7
100
AcDbLine
 10
1440.550031807423
 20
54.99999226675254
 30
0.0
 11
1440.450031807413
 21
54.99999227260741
 31
0.0
  0
ARC
  5
C03
330
2
100
AcDbEntity
  8
0
  6
Continuous
 62
     7
100
AcDbCircle
 10
1440.450031833772
 20
55.44999227260859
 30
0.0
 40
0.4500000000002843
100
AcDbArc
 50
179.9999966449624
 51
269.9999966449364
  0
LINE
  5
C04
330
2
100
AcDbEntity
  8
0
  6
Continuous
 62
     7
100
AcDbLine
 10
1440.000031833773
 20
55.44999229895847
 30
0.0
 11
1440.000031863041
 21
55.94999229895847
 31
0.0
  0
ARC
  5
C05
330
2
100
AcDbEntity
  8
0
  6
Continuous
 62
     7
100
AcDbCircle
 10
1439.55003186304
 20
55.94999232530835
 30
0.0
 40
0.4499999999989522
100
AcDbArc
 50
359.9999966449624
 51
6.37936344935906
  0
ARC
  5
C06
330
2
100
AcDbEntity
  8
0
  6
Continuous
 62
     7
100
AcDbCircle
 10
1439.55003186304
 20
55.94999232530835
 30
0.0
 40
0.4499999999989594
100
AcDbArc
 50
6.37936344935906
 51
89.99999664493637
  0
LINE
  5
C07
330
2
100
AcDbEntity
  8
0
  6
Continuous
 62
     7
100
AcDbLine
 10
1439.55003188939
 20
56.39999232530818
 30
0.0
 11
1439.450031889389
 21
56.39999233116487
 31
0.0
  0
LINE
  5
C08
330
2
100
AcDbEntity
  8
0
  6
Continuous
 62
     9
100
AcDbLine
 10
1460.000031863541
 20
74.99999223976601
 30
0.0
 11
1460.000031863541
 21
55.99999223976784
 31
0.0
  0
LINE
  5
C09
330
2
100
AcDbEntity
  8
0
  6
Continuous
 62
     7
100
AcDbLine
 10
1459.000031863483
 20
55.99999223971554
 30
0.0
 11
1459.000031863483
 21
74.99999223971326
 31
0.0
  0
LINE
  5
C0A
330
2
100
AcDbEntity
  8
0
  6
Continuous
 62
     9
100
AcDbLine
 10
1460.000031863541
 20
74.99999223971326
 30
0.0
 11
1459.000031863483
 21
74.99999223971326
 31
0.0
  0
LINE
  5
C0B
330
2
100
AcDbEntity
  8
0
  6
Continuous
 62
     9
100
AcDbLine
 10
1478.000031863541
 20
62.9999922713937
 30
0.0
 11
1478.000031863541
 21
74.99999223976783
 31
0.0
  0
LINE
  5
C0C
330
2
100
AcDbEntity
  8
0
  6
Continuous
 62
     9
100
AcDbLine
 10
1478.000031863541
 20
74.99999223976783
 30
0.0
 11
1460.000031863541
 21
74.99999223976601
 31
0.0
  0
ARC
  5
C0D
330
2
100
AcDbEntity
  8
0
  6
Continuous
 62
     7
100
AcDbCircle
 10
1460.000031863483
 20
74.99999223971326
 30
0.0
 40
0.9999999999998896
100
AcDbArc
 50
90.0
 51
180.0
  0
LINE
  5
C0E
330
2
100
AcDbEntity
  8
0
  6
Continuous
 62
     9
100
AcDbLine
 10
1460.000031863483
 20
74.99999223976601
 30
0.0
 11
1460.000031863483
 21
75.99999223971327
 31
0.0
  0
LINE
  5
C0F
330
2
100
AcDbEntity
  8
0
  6
Continuous
 62
     7
100
AcDbLine
 10
1460.000031863483
 20
75.99999223971327
 30
0.0
 11
1478.000031863483
 21
75.99999223971645
 31
0.0
  0
LINE
  5
C10
330
2
100
AcDbEntity
  8
0
  6
Continuous
 62
     9
100
AcDbLine
 10
1478.000031863483
 20
74.99999223976783
 30
0.0
 11
1478.000031863483
 21
75.99999223971645
 31
0.0
  0
LINE
  5
C11
330
2
100
AcDbEntity
  8
0
  6
Continuous
 62
     9
100
AcDbLine
 10
1478.000031863541
 20
74.99999223971645
 30
0.0
 11
1479.000031863483
 21
74.99999223971645
 31
0.0
  0
LINE
  5
C12
330
2
100
AcDbEntity
  8
0
  6
Continuous
 62
     7
100
AcDbLine
 10
1479.000031863483
 20
74.99999223971645
 30
0.0
 11
1479.000031863483
 21
62.99999227134185
 31
0.0
  0
ARC
  5
C13
330
2
100
AcDbEntity
  8
0
  6
Continuous
 62
     7
100
AcDbCircle
 10
1478.000031863483
 20
74.99999223971645
 30
0.0
 40
1.000000000001222
100
AcDbArc
 50
0.0
 51
90.0
  0
LINE
  5
C14
330
2
100
AcDbEntity
  8
0
  6
Continuous
 62
     9
100
AcDbLine
 10
1460.000031862213
 20
28.99999224029125
 30
0.0
 11
1460.000031862171
 21
27.99999224022168
 31
0.0
  0
ARC
  5
C15
330
2
100
AcDbEntity
  8
0
  6
Continuous
 62
     7
100
AcDbCircle
 10
1460.000031862213
 20
28.99999224022167
 30
0.0
 40
0.9999999999994455
100
AcDbArc
 50
179.9999999978635
 51
269.9999999978114
  0
LINE
  5
C16
330
2
100
AcDbEntity
  8
0
  6
Continuous
 62
     9
100
AcDbLine
 10
1460.000031862213
 20
28.99999224022167
 30
0.0
 11
1459.000031862202
 21
28.99999224025851
 31
0.0
  0
LINE
  5
C17
330
2
100
AcDbEntity
  8
0
  6
Continuous
 62
     9
100
AcDbLine
 10
1460.000031862213
 20
28.99999224029125
 30
0.0
 11
1478.000031862202
 21
28.99999223962232
 31
0.0
  0
LINE
  5
C18
330
2
100
AcDbEntity
  8
0
  6
Continuous
 62
     9
100
AcDbLine
 10
1478.000031862202
 20
28.99999223962232
 30
0.0
 11
1478.000031862171
 21
27.99999223955138
 31
0.0
  0
LINE
  5
C19
330
2
100
AcDbEntity
  8
0
  6
Continuous
 62
     7
100
AcDbLine
 10
1478.000031862171
 20
27.99999223955138
 30
0.0
 11
1460.000031862171
 21
27.99999224022168
 31
0.0
  0
LINE
  5
C1A
330
2
100
AcDbEntity
  8
0
  6
Continuous
 62
     9
100
AcDbLine
 10
1478.000031862202
 20
28.99999223955138
 30
0.0
 11
1478.500031863052
 21
28.99999223953273
 31
0.0
  0
ARC
  5
C1B
330
2
100
AcDbEntity
  8
0
  6
Continuous
 62
     7
100
AcDbCircle
 10
1478.000031862202
 20
28.99999223955138
 30
0.0
 40
0.9999999999998896
100
AcDbArc
 50
269.9999999978114
 51
300.0000000561913
  0
LINE
  5
C1C
330
2
100
AcDbEntity
  8
0
  6
Continuous
 62
     9
100
AcDbLine
 10
1460.000031862914
 20
47.99999224029079
 30
0.0
 11
1460.000031862622
 21
39.99999235393625
 31
0.0
  0
LINE
  5
C1D
330
2
100
AcDbEntity
  8
0
  6
Continuous
 62
     9
100
AcDbLine
 10
1460.000031862239
 20
29.99999235393625
 30
0.0
 11
1460.000031862213
 21
28.99999224029125
 31
0.0
  0
LINE
  5
C1E
330
2
100
AcDbEntity
  8
0
  6
Continuous
 62
     7
100
AcDbLine
 10
1459.000031862202
 20
28.99999224025851
 30
0.0
 11
1459.000031862238
 21
29.99999235396854
 31
0.0
  0
LINE
  5
C1F
330
2
100
AcDbEntity
  8
0
  6
Continuous
 62
     7
100
AcDbLine
 10
1459.000031862613
 20
39.99999235396854
 30
0.0
 11
1459.000031862913
 21
47.99999224025668
 31
0.0
  0
LINE
  5
C20
330
2
100
AcDbEntity
  8
0
  6
Continuous
 62
     9
100
AcDbLine
 10
1478.000031862202
 20
28.99999223962232
 30
0.0
 11
1478.000031862239
 21
29.99999235335327
 31
0.0
  0
LINE
  5
C21
330
2
100
AcDbEntity
  8
0
  6
Continuous
 62
     9
100
AcDbLine
 10
1478.000031862613
 20
39.99999235335327
 30
0.0
 11
1478.000031862914
 21
47.99999223962049
 31
0.0
  0
LINE
  5
C22
330
2
100
AcDbEntity
  8
0
  6
Continuous
 62
     7
100
AcDbLine
 10
1479.000031862741
 20
43.49999221914458
 30
0.0
 11
1479.000031862723
 21
42.99999227155649
 31
0.0
  0
LINE
  5
C23
330
2
100
AcDbEntity
  8
0
  6
Continuous
 62
     7
100
AcDbLine
 10
1479.000031862623
 20
40.14999227144835
 30
0.0
 11
1479.000031862613
 21
39.99999235332189
 31
0.0
  0
LINE
  5
C24
330
2
100
AcDbEntity
  8
0
  6
Continuous
 62
     7
100
AcDbLine
 10
1479.000031862239
 20
29.99999235332189
 30
0.0
 11
1479.000031862239
 21
29.84999227145045
 31
0.0
  0
CIRCLE
  5
C25
330
2
100
AcDbEntity
  8
0
  6
Continuous
 62
     7
100
AcDbCircle
 10
2465.000031861813
 20
35.19999232216742
 30
0.0
 40
1.300000000000522
  0
LINE
  5
C26
330
2
100
AcDbEntity
  8
0
  6
Continuous
 62
     7
100
AcDbLine
 10
2465.577382130972
 20
36.19999232218606
 30
0.0
 11
2466.154732400192
 21
35.19999232220334
 31
0.0
  0
LINE
  5
C27
330
2
100
AcDbEntity
  8
0
  6
Continuous
 62
     7
100
AcDbLine
 10
2464.422681592591
 20
36.19999232214968
 30
0.0
 11
2465.577382130972
 21
36.19999232218606
 31
0.0
  0
LINE
  5
C28
330
2
100
AcDbEntity
  8
0
  6
Continuous
 62
     7
100
AcDbLine
 10
2463.845331323432
 20
35.19999232213149
 30
0.0
 11
2464.422681592591
 21
36.19999232214968
 31
0.0
  0
LINE
  5
C29
330
2
100
AcDbEntity
  8
0
  6
Continuous
 62
     7
100
AcDbLine
 10
2464.422681592662
 20
34.19999232214968
 30
0.0
 11
2463.845331323432
 21
35.19999232213149
 31
0.0
  0
LINE
  5
C2A
330
2
100
AcDbEntity
  8
0
  6
Continuous
 62
     7
100
AcDbLine
 10
2465.57738213103
 20
34.19999232218652
 30
0.0
 11
2464.422681592662
 21
34.19999232214968
 31
0.0
  0
LINE
  5
C2B
330
2
100
AcDbEntity
  8
0
  6
Continuous
 62
     7
100
AcDbLine
 10
2466.154732400192
 20
35.19999232220334
 30
0.0
 11
2465.57738213103
 21
34.19999232218652
 31
0.0
  0
CIRCLE
  5
C2C
330
2
100
AcDbEntity
  8
0
  6
Continuous
 62
     7
100
AcDbCircle
 10
2455.000031861813
 20
35.19999232185273
 30
0.0
 40
1.300000000000522
  0
LINE
  5
C2D
330
2
100
AcDbEntity
  8
0
  6
Continuous
 62
     7
100
AcDbLine
 10
2455.577382130972
 20
36.19999232187093
 30
0.0
 11
2456.154732400192
 21
35.19999232189003
 31
0.0
  0
LINE
  5
C2E
330
2
100
AcDbEntity
  8
0
  6
Continuous
 62
     7
100
AcDbLine
 10
2454.42268159259
 20
36.19999232183409
 30
0.0
 11
2455.577382130972
 21
36.19999232187093
 31
0.0
  0
LINE
  5
C2F
330
2
100
AcDbEntity
  8
0
  6
Continuous
 62
     7
100
AcDbLine
 10
2453.845331323432
 20
35.19999232181636
 30
0.0
 11
2454.42268159259
 21
36.19999232183409
 31
0.0
  0
LINE
  5
C30
330
2
100
AcDbEntity
  8
0
  6
Continuous
 62
     7
100
AcDbLine
 10
2454.422681592661
 20
34.19999232183409
 30
0.0
 11
2453.845331323432
 21
35.19999232181636
 31
0.0
  0
LINE
  5
C31
330
2
100
AcDbEntity
  8
0
  6
Continuous
 62
     7
100
AcDbLine
 10
2455.577382131043
 20
34.19999232187138
 30
0.0
 11
2454.422681592661
 21
34.19999232183409
 31
0.0
  0
LINE
  5
C32
330
2
100
AcDbEntity
  8
0
  6
Continuous
 62
     7
100
AcDbLine
 10
2456.154732400192
 20
35.19999232189003
 30
0.0
 11
2455.577382131043
 21
34.19999232187138
 31
0.0
  0
ELLIPSE
  5
C33
330
2
100
AcDbEntity
  8
0
  6
Continuous
 62
    92
100
AcDbEllipse
 10
2444.503189867752
 20
35.19999232155351
 30
0.0
 11
-1.7839996711686
 21
-1.783999670707635
 31
0.0
210
0.0
220
0.0
230
1.0
 40
0.9817175512361298
 41
5.507012439495597
 42
7.059358175185304
  0
ELLIPSE
  5
C34
330
2
100
AcDbEntity
  8
0
  6
Continuous
 62
    92
100
AcDbEllipse
 10
2444.503189867752
 20
35.19999232155351
 30
0.0
 11
-1.7839996711686
 21
-1.783999670707635
 31
0.0
210
0.0
220
0.0
230
1.0
 40
0.9817175512361298
 41
3.9177655215956
 42
5.507012439495597
  0
LINE
  5
C35
330
2
100
AcDbEntity
  8
0
  6
Continuous
 62
     7
100
AcDbLine
 10
2468.0000318621
 20
42.69999232227109
 30
0.0
 11
2448.000031862101
 21
42.69999232164082
 31
0.0
  0
LINE
  5
C36
330
2
100
AcDbEntity
  8
0
  6
Continuous
 62
     9
100
AcDbLine
 10
2468.000031862123
 20
41.69999232226291
 30
0.0
 11
2448.000031862122
 21
41.69999232163218
 31
0.0
  0
LINE
  5
C37
330
2
100
AcDbEntity
  8
0
  6
Continuous
 62
     7
100
AcDbLine
 10
2448.000031862101
 20
42.69999232164082
 30
0.0
 11
2448.000031862131
 21
41.69999232163218
 31
0.0
  0
LINE
  5
C38
330
2
100
AcDbEntity
  8
0
  6
Continuous
 62
     7
100
AcDbLine
 10
2468.0000318621
 20
42.69999232227109
 30
0.0
 11
2468.000031862132
 21
41.69999232226291
 31
0.0
  0
LINE
  5
C39
330
2
100
AcDbEntity
  8
0
  6
Continuous
 62
     9
100
AcDbLine
 10
2468.00003186253
 20
28.69999232226291
 30
0.0
 11
2448.00003186253
 21
28.69999232163218
 31
0.0
  0
LINE
  5
C3A
330
2
100
AcDbEntity
  8
0
  6
Continuous
 62
     7
100
AcDbLine
 10
2448.000031862122
 20
41.69999232163218
 30
0.0
 11
2448.00003186253
 21
28.69999232163218
 31
0.0
  0
CIRCLE
  5
C3B
330
2
100
AcDbEntity
  8
0
  6
Continuous
 62
     7
100
AcDbCircle
 10
2465.000031862332
 20
35.19999232216742
 30
0.0
 40
1.650000000001483
  0
CIRCLE
  5
C3C
330
2
100
AcDbEntity
  8
0
  6
Continuous
 62
     7
100
AcDbCircle
 10
2455.000031862323
 20
35.19999232185273
 30
0.0
 40
1.650000000001483
  0
LINE
  5
C3D
330
2
100
AcDbEntity
  8
0
  6
Continuous
 62
     7
100
AcDbLine
 10
2468.000031862123
 20
41.69999232226291
 30
0.0
 11
2468.00003186253
 21
28.69999232226291
 31
0.0
  0
LINE
  5
C3E
330
2
100
AcDbEntity
  8
0
  6
Continuous
 62
     7
100
AcDbLine
 10
2468.000031862572
 20
27.6999923222711
 30
0.0
 11
2448.000031862572
 21
27.69999232164128
 31
0.0
  0
LINE
  5
C3F
330
2
100
AcDbEntity
  8
0
  6
Continuous
 62
     7
100
AcDbLine
 10
2448.000031862543
 20
28.69999232163218
 30
0.0
 11
2448.000031862572
 21
27.69999232164128
 31
0.0
  0
LINE
  5
C40
330
2
100
AcDbEntity
  8
0
  6
Continuous
 62
     7
100
AcDbLine
 10
2468.000031862543
 20
28.69999232226291
 30
0.0
 11
2468.000031862572
 21
27.6999923222711
 31
0.0
  0
LINE
  5
C41
330
2
100
AcDbEntity
  8
0
  6
Continuous
 62
     7
100
AcDbLine
 10
2032.000031890841
 20
58.49999225307147
 30
0.0
 11
2030.973338196222
 21
58.49999225365673
 31
0.0
  0
LINE
  5
C42
330
2
100
AcDbEntity
  8
0
  6
Continuous
 62
     7
100
AcDbLine
 10
2032.000031883454
 20
45.49999225307146
 30
0.0
 11
2032.000031890841
 21
58.49999225307147
 31
0.0
  0
LINE
  5
C43
330
2
100
AcDbEntity
  8
0
  6
Continuous
 62
     7
100
AcDbLine
 10
2032.000031868664
 20
19.49999225307283
 30
0.0
 11
2032.000031870091
 21
21.99999227275839
 31
0.0
  0
LINE
  5
C44
330
2
100
AcDbEntity
  8
0
  6
Continuous
 62
     7
100
AcDbLine
 10
2032.000031870091
 20
21.99999227275839
 30
0.0
 11
2032.000031883454
 21
45.49999225307146
 31
0.0
  0
LINE
  5
C45
330
2
100
AcDbEntity
  8
0
  6
Continuous
 62
     7
100
AcDbLine
 10
2031.500031868672
 20
19.49999225335659
 30
0.0
 11
2032.000031868664
 21
19.49999225307283
 31
0.0
  0
LINE
  5
C46
330
2
100
AcDbEntity
  8
0
  6
Continuous
 62
     7
100
AcDbLine
 10
2031.000058813612
 20
45.49859188503432
 30
0.0
 11
2031.451954946642
 21
21.99999227275839
 31
0.0
  0
LINE
  5
C47
330
2
100
AcDbEntity
  8
0
  6
Continuous
 62
     7
100
AcDbLine
 10
2031.451954946642
 20
21.99999227275839
 30
0.0
 11
2031.500031868672
 21
19.49999225335659
 31
0.0
  0
LINE
  5
C48
330
2
100
AcDbEntity
  8
0
  6
Continuous
 62
     7
100
AcDbLine
 10
2019.962009694982
 20
46.07707153325281
 30
0.0
 11
2031.000058813612
 21
45.49859188503432
 31
0.0
  0
LINE
  5
C49
330
2
100
AcDbEntity
  8
0
  6
Continuous
 62
     7
100
AcDbLine
 10
2019.99341126907
 20
46.67624925408654
 30
0.0
 11
2019.962009694982
 21
46.07707153325281
 31
0.0
  0
ARC
  5
C4A
330
2
100
AcDbEntity
  8
0
  6
Continuous
 62
     7
100
AcDbCircle
 10
2020.392863082962
 20
46.65531487136241
 30
0.0
 40
0.3999999999997887
100
AcDbArc
 50
86.99999996732897
 51
176.9999999673016
  0
LINE
  5
C4B
330
2
100
AcDbEntity
  8
0
  6
Continuous
 62
     7
100
AcDbLine
 10
2021.51228995388
 20
46.9971971327609
 30
0.0
 11
2020.413797465682
 21
47.05476668525216
 31
0.0
  0
LINE
  5
C4C
330
2
100
AcDbEntity
  8
0
  6
Continuous
 62
     7
100
AcDbLine
 10
2021.501822762522
 20
46.79747122581557
 30
0.0
 11
2021.51228995388
 21
46.9971971327609
 31
0.0
  0
LINE
  5
C4D
330
2
100
AcDbEntity
  8
0
  6
Continuous
 62
     7
100
AcDbLine
 10
2024.49771136669
 20
46.64046335538478
 30
0.0
 11
2021.501822762522
 21
46.79747122581557
 31
0.0
  0
LINE
  5
C4E
330
2
100
AcDbEntity
  8
0
  6
Continuous
 62
     7
100
AcDbLine
 10
2024.508178558054
 20
46.84018926232875
 30
0.0
 11
2024.49771136669
 21
46.64046335538478
 31
0.0
  0
LINE
  5
C4F
330
2
100
AcDbEntity
  8
0
  6
Continuous
 62
     7
100
AcDbLine
 10
2027.504067162232
 20
46.68318139189659
 30
0.0
 11
2024.508178558054
 21
46.84018926232875
 31
0.0
  0
LINE
  5
C50
330
2
100
AcDbEntity
  8
0
  6
Continuous
 62
     7
100
AcDbLine
 10
2027.50889370408
 20
47.0573862320889
 30
0.0
 11
2027.504067162232
 21
46.68318139189659
 31
0.0
  0
ARC
  5
C51
330
2
100
AcDbEntity
  8
0
  6
Continuous
 62
     7
100
AcDbCircle
 10
2027.908752571971
 20
47.06801100348821
 30
0.0
 40
0.3999999999997887
100
AcDbArc
 50
86.99999996732897
 51
181.5220654131134
  0
LINE
  5
C52
330
2
100
AcDbEntity
  8
0
  6
Continuous
 62
     7
100
AcDbLine
 10
2028.129412861641
 20
47.45699562601567
 30
0.0
 11
2027.929686954704
 21
47.46746281737751
 31
0.0
  0
ARC
  5
C53
330
2
100
AcDbEntity
  8
0
  6
Continuous
 62
     7
100
AcDbCircle
 10
2028.108478478922
 20
47.05754381212682
 30
0.0
 40
0.4000000000008861
100
AcDbArc
 50
1.522065413035289
 51
86.99999996743306
  0
LINE
  5
C54
330
2
100
AcDbEntity
  8
0
  6
Continuous
 62
     7
100
AcDbLine
 10
2028.502696696955
 20
46.63084543508557
 30
0.0
 11
2028.508337346812
 21
47.06816858352431
 31
0.0
  0
LINE
  5
C55
330
2
100
AcDbEntity
  8
0
  6
Continuous
 62
     7
100
AcDbLine
 10
2031.000031884012
 20
46.49996564238245
 30
0.0
 11
2028.502696696955
 21
46.63084543508557
 31
0.0
  0
LINE
  5
C56
330
2
100
AcDbEntity
  8
0
  6
Continuous
 62
     7
100
AcDbLine
 10
2031.000031890271
 20
57.50001886489826
 30
0.0
 11
2031.000031889422
 21
55.99999227263561
 31
0.0
  0
LINE
  5
C57
330
2
100
AcDbEntity
  8
0
  6
Continuous
 62
     7
100
AcDbLine
 10
2031.000031889422
 20
55.99999227263561
 30
0.0
 11
2031.000031884871
 21
47.99999227263561
 31
0.0
  0
LINE
  5
C58
330
2
100
AcDbEntity
  8
0
  6
Continuous
 62
     7
100
AcDbLine
 10
2031.000031884871
 20
47.99999227263561
 30
0.0
 11
2031.000031884012
 21
46.49996564238245
 31
0.0
  0
LINE
  5
C59
330
2
100
AcDbEntity
  8
0
  6
Continuous
 62
     7
100
AcDbLine
 10
2028.502696703063
 20
57.36913907503549
 30
0.0
 11
2031.000031890271
 21
57.50001886489826
 31
0.0
  0
LINE
  5
C5A
330
2
100
AcDbEntity
  8
0
  6
Continuous
 62
     7
100
AcDbLine
 10
2028.507930298452
 20
56.96337508071247
 30
0.0
 11
2028.502696703063
 21
57.36913907503549
 31
0.0
  0
ARC
  5
C5B
330
2
100
AcDbEntity
  8
0
  6
Continuous
 62
     7
100
AcDbCircle
 10
2028.108478484539
 20
56.94244069844399
 30
0.0
 40
0.399999999999937
100
AcDbArc
 50
272.9999999674439
 51
2.999999967365842
  0
LINE
  5
C5C
330
2
100
AcDbEntity
  8
0
  6
Continuous
 62
     7
100
AcDbLine
 10
2027.929686959851
 20
56.5325216933943
 30
0.0
 11
2028.129412866812
 21
56.54298888452967
 31
0.0
  0
ARC
  5
C5D
330
2
100
AcDbEntity
  8
0
  6
Continuous
 62
     7
100
AcDbCircle
 10
2027.908752577582
 20
56.93197350730861
 30
0.0
 40
0.3999999999986298
100
AcDbArc
 50
182.999999967548
 51
272.9999999674439
  0
LINE
  5
C5E
330
2
100
AcDbEntity
  8
0
  6
Continuous
 62
     7
100
AcDbLine
 10
2027.504067168273
 20
57.31680311936043
 30
0.0
 11
2027.509300763673
 21
56.91103912503741
 31
0.0
  0
LINE
  5
C5F
330
2
100
AcDbEntity
  8
0
  6
Continuous
 62
     7
100
AcDbLine
 10
2024.508178563921
 20
57.15979525233342
 30
0.0
 11
2027.504067168273
 21
57.31680311936043
 31
0.0
  0
LINE
  5
C60
330
2
100
AcDbEntity
  8
0
  6
Continuous
 62
     7
100
AcDbLine
 10
2024.497711372791
 20
57.35952115929149
 30
0.0
 11
2024.508178563921
 21
57.15979525233342
 31
0.0
  0
LINE
  5
C61
330
2
100
AcDbEntity
  8
0
  6
Continuous
 62
     7
100
AcDbLine
 10
2021.50182276843
 20
57.20251329226584
 30
0.0
 11
2024.497711372791
 21
57.35952115929149
 31
0.0
  0
LINE
  5
C62
330
2
100
AcDbEntity
  8
0
  6
Continuous
 62
     7
100
AcDbLine
 10
2021.512289959572
 20
57.0027873853096
 30
0.0
 11
2021.50182276843
 21
57.20251329226584
 31
0.0
  0
LINE
  5
C63
330
2
100
AcDbEntity
  8
0
  6
Continuous
 62
     7
100
AcDbLine
 10
2020.413797471301
 20
56.94521783406617
 30
0.0
 11
2021.512289959572
 21
57.0027873853096
 31
0.0
  0
ARC
  5
C64
330
2
100
AcDbEntity
  8
0
  6
Continuous
 62
     7
100
AcDbCircle
 10
2020.392863089041
 20
57.34466964798048
 30
0.0
 40
0.4000000000003574
100
AcDbArc
 50
182.9999999673918
 51
272.9999999674439
  0
LINE
  5
C65
330
2
100
AcDbEntity
  8
0
  6
Continuous
 62
     7
100
AcDbLine
 10
2019.962009701712
 20
57.92291298657983
 30
0.0
 11
2019.993411275123
 21
57.32373526570928
 31
0.0
  0
LINE
  5
C66
330
2
100
AcDbEntity
  8
0
  6
Continuous
 62
     7
100
AcDbLine
 10
2030.973338196222
 20
58.49999225365673
 30
0.0
 11
2019.962009701712
 21
57.92291298657983
 31
0.0
  0
LINE
  5
C67
330
2
100
AcDbEntity
  8
0
  6
Continuous
 62
     7
100
AcDbLine
 10
1500.50003186359
 20
46.99999227281887
 30
0.0
 11
1495.000031863052
 21
46.9999922728175
 31
0.0
  0
LINE
  5
C68
330
2
100
AcDbEntity
  8
0
  6
Continuous
 62
     7
100
AcDbLine
 10
1487.000031863052
 20
46.99999227281614
 30
0.0
 11
1481.500031863583
 21
46.99999227281614
 31
0.0
  0
LINE
  5
C69
330
2
100
AcDbEntity
  8
0
  6
Continuous
 62
     7
100
AcDbLine
 10
1481.000031863654
 20
46.99999227218268
 30
0.0
 11
1487.000031863052
 21
46.99999227256376
 31
0.0
  0
LINE
  5
C6A
330
2
100
AcDbEntity
  8
0
  6
Continuous
 62
     7
100
AcDbLine
 10
1495.000031863052
 20
46.99999227307126
 30
0.0
 11
1501.000031863654
 21
46.99999227345233
 31
0.0
  0
LINE
  5
C6B
330
2
100
AcDbEntity
  8
0
  6
Continuous
 62
     7
100
AcDbLine
 10
1477.000031863052
 20
56.99999227155331
 30
0.0
 11
1479.056768735123
 21
56.99999227155331
 31
0.0
  0
LINE
  5
C6C
330
2
100
AcDbEntity
  8
0
  6
Continuous
 62
     7
100
AcDbLine
 10
1479.056768735123
 20
56.99999227155331
 30
0.0
 11
1481.914781929412
 21
56.99999227155467
 31
0.0
  0
LINE
  5
C6D
330
2
100
AcDbEntity
  8
0
  6
Continuous
 62
     7
100
AcDbLine
 10
1481.914781929412
 20
56.99999227155467
 30
0.0
 11
1482.18857385688
 21
56.99999227155467
 31
0.0
  0
LINE
  5
C6E
330
2
100
AcDbEntity
  8
0
  6
Continuous
 62
     7
100
AcDbLine
 10
1482.18857385688
 20
56.99999227155467
 30
0.0
 11
1483.615104125312
 21
56.99999227155467
 31
0.0
  0
LINE
  5
C6F
330
2
100
AcDbEntity
  8
0
  6
Continuous
 62
     7
100
AcDbLine
 10
1483.615104125312
 20
56.99999227155467
 30
0.0
 11
1485.762303679454
 21
56.99999227155467
 31
0.0
  0
LINE
  5
C70
330
2
100
AcDbEntity
  8
0
  6
Continuous
 62
     7
100
AcDbLine
 10
1485.762303679454
 20
56.99999227155467
 30
0.0
 11
1487.12281828244
 21
56.99999227155513
 31
0.0
  0
LINE
  5
C71
330
2
100
AcDbEntity
  8
0
  6
Continuous
 62
     7
100
AcDbLine
 10
1490.877245443411
 20
56.99999227155513
 30
0.0
 11
1495.852420677682
 21
56.99999227155649
 31
0.0
  0
LINE
  5
C72
330
2
100
AcDbEntity
  8
0
  6
Continuous
 62
     7
100
AcDbLine
 10
1495.852420677682
 20
56.99999227155649
 30
0.0
 11
1496.381872627882
 21
56.99999227155649
 31
0.0
  0
LINE
  5
C73
330
2
100
AcDbEntity
  8
0
  6
Continuous
 62
     7
100
AcDbLine
 10
1496.381872627882
 20
56.99999227155649
 30
0.0
 11
1497.13795711389
 21
56.99999227155649
 31
0.0
  0
LINE
  5
C74
330
2
100
AcDbEntity
  8
0
  6
Continuous
 62
     7
100
AcDbLine
 10
1497.13795711389
 20
56.99999227155649
 30
0.0
 11
1497.37935784303
 21
56.99999227155649
 31
0.0
  0
LINE
  5
C75
330
2
100
AcDbEntity
  8
0
  6
Continuous
 62
     7
100
AcDbLine
 10
1497.37935784303
 20
56.99999227155649
 30
0.0
 11
1497.615283663212
 21
56.99999227155649
 31
0.0
  0
LINE
  5
C76
330
2
100
AcDbEntity
  8
0
  6
Continuous
 62
     7
100
AcDbLine
 10
1497.615283663212
 20
56.99999227155649
 30
0.0
 11
1497.845661783322
 21
56.99999227155649
 31
0.0
  0
LINE
  5
C77
330
2
100
AcDbEntity
  8
0
  6
Continuous
 62
     7
100
AcDbLine
 10
1497.845661783322
 20
56.99999227155649
 30
0.0
 11
1498.302491027132
 21
56.99999227155649
 31
0.0
  0
LINE
  5
C78
330
2
100
AcDbEntity
  8
0
  6
Continuous
 62
     7
100
AcDbLine
 10
1498.302491027132
 20
56.99999227155649
 30
0.0
 11
1501.000031863052
 21
56.99999227155649
 31
0.0
  0
LINE
  5
C79
330
2
100
AcDbEntity
  8
0
  6
Continuous
 62
     7
100
AcDbLine
 10
1478.500031863062
 20
25.53589065642063
 30
0.0
 11
1503.500031863063
 21
25.53589065642473
 31
0.0
  0
LINE
  5
C7A
330
2
100
AcDbEntity
  8
0
  6
Continuous
 62
     7
100
AcDbLine
 10
1478.500031863062
 20
26.49999227155831
 30
0.0
 11
1503.500031863063
 21
26.4999922715615
 31
0.0
  0
LINE
  5
C7B
330
2
100
AcDbEntity
  8
0
  6
Continuous
 62
     7
100
AcDbLine
 10
1480.500031863063
 20
24.99999227155831
 30
0.0
 11
1501.500031863063
 21
24.9999922715615
 31
0.0
  0
LINE
  5
C7C
330
2
100
AcDbEntity
  8
0
  6
Continuous
 62
     7
100
AcDbLine
 10
1476.800031863053
 20
62.99999227155467
 30
0.0
 11
1501.200031863052
 21
62.99999227155786
 31
0.0
  0
LINE
  5
C7D
330
2
100
AcDbEntity
  8
0
  6
Continuous
 62
     7
100
AcDbLine
 10
1501.500031863051
 20
62.69999227155768
 30
0.0
 11
1476.500031863052
 21
62.69999227155358
 31
0.0
  0
LINE
  5
C7E
330
2
100
AcDbEntity
  8
0
  6
Continuous
 62
     7
100
AcDbLine
 10
1501.500031863051
 20
56.99999227155649
 30
0.0
 11
1476.500031863052
 21
56.99999227155331
 31
0.0
  0
LINE
  5
C7F
330
2
100
AcDbEntity
  8
0
  6
Continuous
 62
     9
100
AcDbLine
 10
1503.500031863052
 20
42.49999227156149
 30
0.0
 11
1478.500031863052
 21
42.49999227155831
 31
0.0
  0
LINE
  5
C80
330
2
100
AcDbEntity
  8
0
  6
Continuous
 62
     7
100
AcDbLine
 10
1479.000031863052
 20
42.99999227155831
 30
0.0
 11
1503.000031863052
 21
42.99999227156149
 31
0.0
  0
LINE
  5
C81
330
2
100
AcDbEntity
  8
0
  6
Continuous
 62
     7
100
AcDbLine
 10
1478.500031863052
 20
40.1499922715584
 30
0.0
 11
1483.048765114654
 21
40.1499922715584
 31
0.0
  0
LINE
  5
C82
330
2
100
AcDbEntity
  8
0
  6
Continuous
 62
     7
100
AcDbLine
 10
1483.048765114654
 20
40.1499922715584
 30
0.0
 11
1503.500031863052
 21
40.14999227156249
 31
0.0
  0
LINE
  5
C83
330
2
100
AcDbEntity
  8
0
  6
Continuous
 62
     7
100
AcDbLine
 10
1503.500031863063
 20
29.84999227156141
 30
0.0
 11
1478.500031863062
 21
29.84999227155822
 31
0.0
  0
LINE
  5
C84
330
2
100
AcDbEntity
  8
0
  6
Continuous
 62
     9
100
AcDbLine
 10
1478.500031863062
 20
27.49999227155786
 30
0.0
 11
1483.048765114654
 21
27.49999227155968
 31
0.0
  0
LINE
  5
C85
330
2
100
AcDbEntity
  8
0
  6
Continuous
 62
     9
100
AcDbLine
 10
1483.048765114654
 20
27.49999227155968
 30
0.0
 11
1503.500031863063
 21
27.4999922715615
 31
0.0
  0
LINE
  5
C86
330
2
100
AcDbEntity
  8
0
  6
Continuous
 62
     7
100
AcDbLine
 10
1503.000031863062
 20
26.9999922715615
 30
0.0
 11
1483.366815784591
 21
26.99999227155831
 31
0.0
  0
LINE
  5
C87
330
2
100
AcDbEntity
  8
0
  6
Continuous
 62
     7
100
AcDbLine
 10
1483.366815784591
 20
26.99999227155831
 30
0.0
 11
1479.000031863063
 21
26.99999227155831
 31
0.0
  0
LINE
  5
C88
330
2
100
AcDbEntity
  8
0
  6
Continuous
 62
     9
100
AcDbLine
 10
1501.000031863052
 20
38.64999227156159
 30
0.0
 11
1484.639018464331
 21
38.6499922715584
 31
0.0
  0
LINE
  5
C89
330
2
100
AcDbEntity
  8
0
  6
Continuous
 62
     9
100
AcDbLine
 10
1484.639018464331
 20
38.6499922715584
 30
0.0
 11
1481.000031863052
 21
38.6499922715584
 31
0.0
  0
LINE
  5
C8A
330
2
100
AcDbEntity
  8
0
  6
Continuous
 62
     9
100
AcDbLine
 10
1501.000031863062
 20
31.34999227156141
 30
0.0
 11
1484.639018464331
 21
31.34999227155959
 31
0.0
  0
LINE
  5
C8B
330
2
100
AcDbEntity
  8
0
  6
Continuous
 62
     9
100
AcDbLine
 10
1484.639018464331
 20
31.34999227155959
 30
0.0
 11
1481.000031863052
 21
31.34999227155822
 31
0.0
  0
LINE
  5
C8C
330
2
100
AcDbEntity
  8
0
  6
Continuous
 62
     7
100
AcDbLine
 10
1503.500031863052
 20
46.99999227156149
 30
0.0
 11
1478.500031863052
 21
46.99999227155831
 31
0.0
  0
LINE
  5
C8D
330
2
100
AcDbEntity
  8
0
  6
Continuous
 62
     7
100
AcDbLine
 10
1503.500031863052
 20
43.49999227156149
 30
0.0
 11
1478.500031863052
 21
43.49999227155786
 31
0.0
  0
LINE
  5
C8E
330
2
100
AcDbEntity
  8
0
  6
Continuous
 62
     9
100
AcDbLine
 10
1497.000031863052
 20
42.99999227156104
 30
0.0
 11
1494.590030268431
 21
42.99999227156104
 31
0.0
  0
LINE
  5
C8F
330
2
100
AcDbEntity
  8
0
  6
Continuous
 62
     9
100
AcDbLine
 10
1487.285517959111
 20
42.99999227155831
 30
0.0
 11
1485.000031863062
 21
42.99999227155831
 31
0.0
  0
LINE
  5
C90
330
2
100
AcDbEntity
  8
0
  6
Continuous
 62
     7
100
AcDbLine
 10
1942.50003186359
 20
46.99999227288162
 30
0.0
 11
1937.000031863052
 21
46.99999227288026
 31
0.0
  0
LINE
  5
C91
330
2
100
AcDbEntity
  8
0
  6
Continuous
 62
     7
100
AcDbLine
 10
1929.000031863052
 20
46.99999227287981
 30
0.0
 11
1923.50003186359
 21
46.99999227287844
 31
0.0
  0
LINE
  5
C92
330
2
100
AcDbEntity
  8
0
  6
Continuous
 62
     7
100
AcDbLine
 10
1923.000031863654
 20
46.99999227224544
 30
0.0
 11
1929.000031863052
 21
46.99999227262651
 31
0.0
  0
LINE
  5
C93
330
2
100
AcDbEntity
  8
0
  6
Continuous
 62
     7
100
AcDbLine
 10
1937.000031863052
 20
46.99999227313355
 30
0.0
 11
1943.000031863654
 21
46.99999227351463
 31
0.0
  0
LINE
  5
C94
330
2
100
AcDbEntity
  8
0
  6
Continuous
 62
     7
100
AcDbLine
 10
1919.000031863052
 20
56.99999227161652
 30
0.0
 11
1922.60071448919
 21
56.99999227161652
 31
0.0
  0
LINE
  5
C95
330
2
100
AcDbEntity
  8
0
  6
Continuous
 62
     7
100
AcDbLine
 10
1922.60071448919
 20
56.99999227161652
 30
0.0
 11
1923.644933289353
 21
56.99999227161652
 31
0.0
  0
LINE
  5
C96
330
2
100
AcDbEntity
  8
0
  6
Continuous
 62
     7
100
AcDbLine
 10
1923.644933289353
 20
56.99999227161652
 30
0.0
 11
1929.12281828244
 21
56.99999227161879
 31
0.0
  0
LINE
  5
C97
330
2
100
AcDbEntity
  8
0
  6
Continuous
 62
     7
100
AcDbLine
 10
1932.877245443411
 20
56.99999227161879
 30
0.0
 11
1935.481581825852
 21
56.99999227161879
 31
0.0
  0
LINE
  5
C98
330
2
100
AcDbEntity
  8
0
  6
Continuous
 62
     7
100
AcDbLine
 10
1935.481581825852
 20
56.99999227161879
 30
0.0
 11
1936.67765912323
 21
56.99999227161879
 31
0.0
  0
LINE
  5
C99
330
2
100
AcDbEntity
  8
0
  6
Continuous
 62
     7
100
AcDbLine
 10
1936.67765912323
 20
56.99999227161879
 30
0.0
 11
1937.811489622603
 21
56.99999227161879
 31
0.0
  0
LINE
  5
C9A
330
2
100
AcDbEntity
  8
0
  6
Continuous
 62
     7
100
AcDbLine
 10
1937.811489622603
 20
56.99999227161879
 30
0.0
 11
1940.342027875031
 21
56.99999227161924
 31
0.0
  0
LINE
  5
C9B
330
2
100
AcDbEntity
  8
0
  6
Continuous
 62
     7
100
AcDbLine
 10
1940.342027875031
 20
56.99999227161924
 30
0.0
 11
1943.000031863052
 21
56.99999227162061
 31
0.0
  0
LINE
  5
C9C
330
2
100
AcDbEntity
  8
0
  6
Continuous
 62
     7
100
AcDbLine
 10
1920.500031863063
 20
25.53589065648294
 30
0.0
 11
1945.500031863063
 21
25.53589065648657
 31
0.0
  0
LINE
  5
C9D
330
2
100
AcDbEntity
  8
0
  6
Continuous
 62
     7
100
AcDbLine
 10
1920.500031863063
 20
26.49999227162061
 30
0.0
 11
1945.500031863063
 21
26.49999227162425
 31
0.0
  0
LINE
  5
C9E
330
2
100
AcDbEntity
  8
0
  6
Continuous
 62
     7
100
AcDbLine
 10
1922.500031863062
 20
24.99999227162107
 30
0.0
 11
1943.500031863063
 21
24.9999922716238
 31
0.0
  0
LINE
  5
C9F
330
2
100
AcDbEntity
  8
0
  6
Continuous
 62
     7
100
AcDbLine
 10
1918.800031863053
 20
62.99999227161652
 30
0.0
 11
1943.200031863052
 21
62.99999227161925
 31
0.0
  0
LINE
  5
CA0
330
2
100
AcDbEntity
  8
0
  6
Continuous
 62
     7
100
AcDbLine
 10
1943.500031863052
 20
62.69999227161952
 30
0.0
 11
1918.500031863052
 21
62.69999227161633
 31
0.0
  0
LINE
  5
CA1
330
2
100
AcDbEntity
  8
0
  6
Continuous
 62
     7
100
AcDbLine
 10
1943.500031863052
 20
56.99999227162061
 30
0.0
 11
1918.500031863052
 21
56.99999227161652
 31
0.0
  0
LINE
  5
CA2
330
2
100
AcDbEntity
  8
0
  6
Continuous
 62
     9
100
AcDbLine
 10
1945.500031863051
 20
42.49999227162425
 30
0.0
 11
1920.500031863052
 21
42.49999227162061
 31
0.0
  0
LINE
  5
CA3
330
2
100
AcDbEntity
  8
0
  6
Continuous
 62
     7
100
AcDbLine
 10
1921.000031863052
 20
42.99999227162106
 30
0.0
 11
1945.000031863052
 21
42.99999227162425
 31
0.0
  0
LINE
  5
CA4
330
2
100
AcDbEntity
  8
0
  6
Continuous
 62
     7
100
AcDbLine
 10
1920.500031863052
 20
40.1499922716207
 30
0.0
 11
1925.048765114654
 21
40.14999227162116
 31
0.0
  0
LINE
  5
CA5
330
2
100
AcDbEntity
  8
0
  6
Continuous
 62
     7
100
AcDbLine
 10
1925.048765114654
 20
40.14999227162116
 30
0.0
 11
1945.500031863051
 21
40.14999227162434
 31
0.0
  0
LINE
  5
CA6
330
2
100
AcDbEntity
  8
0
  6
Continuous
 62
     7
100
AcDbLine
 10
1945.500031863051
 20
29.84999227162371
 30
0.0
 11
1920.500031863063
 21
29.84999227162052
 31
0.0
  0
LINE
  5
CA7
330
2
100
AcDbEntity
  8
0
  6
Continuous
 62
     9
100
AcDbLine
 10
1920.500031863063
 20
27.49999227162061
 30
0.0
 11
1925.048765114654
 21
27.49999227162061
 31
0.0
  0
LINE
  5
CA8
330
2
100
AcDbEntity
  8
0
  6
Continuous
 62
     9
100
AcDbLine
 10
1925.048765114654
 20
27.49999227162061
 30
0.0
 11
1945.500031863063
 21
27.4999922716238
 31
0.0
  0
LINE
  5
CA9
330
2
100
AcDbEntity
  8
0
  6
Continuous
 62
     7
100
AcDbLine
 10
1945.000031863063
 20
26.99999227162425
 30
0.0
 11
1925.366815784591
 21
26.99999227162107
 31
0.0
  0
LINE
  5
CAA
330
2
100
AcDbEntity
  8
0
  6
Continuous
 62
     7
100
AcDbLine
 10
1925.366815784591
 20
26.99999227162107
 30
0.0
 11
1921.000031863052
 21
26.99999227162107
 31
0.0
  0
LINE
  5
CAB
330
2
100
AcDbEntity
  8
0
  6
Continuous
 62
     9
100
AcDbLine
 10
1943.000031863052
 20
38.64999227162434
 30
0.0
 11
1926.639018464331
 21
38.64999227162116
 31
0.0
  0
LINE
  5
CAC
330
2
100
AcDbEntity
  8
0
  6
Continuous
 62
     9
100
AcDbLine
 10
1926.639018464331
 20
38.64999227162116
 30
0.0
 11
1923.000031863052
 21
38.64999227162071
 31
0.0
  0
LINE
  5
CAD
330
2
100
AcDbEntity
  8
0
  6
Continuous
 62
     9
100
AcDbLine
 10
1943.000031863052
 20
31.34999227162371
 30
0.0
 11
1926.639018464331
 21
31.34999227162143
 31
0.0
  0
LINE
  5
CAE
330
2
100
AcDbEntity
  8
0
  6
Continuous
 62
     9
100
AcDbLine
 10
1926.639018464331
 20
31.34999227162143
 30
0.0
 11
1923.000031863052
 21
31.34999227162052
 31
0.0
  0
LINE
  5
CAF
330
2
100
AcDbEntity
  8
0
  6
Continuous
 62
     7
100
AcDbLine
 10
1945.500031863051
 20
46.99999227162424
 30
0.0
 11
1920.500031863052
 21
46.99999227162061
 31
0.0
  0
LINE
  5
CB0
330
2
100
AcDbEntity
  8
0
  6
Continuous
 62
     7
100
AcDbLine
 10
1945.500031863051
 20
43.49999227162379
 30
0.0
 11
1920.500031863052
 21
43.49999227162061
 31
0.0
  0
LINE
  5
CB1
330
2
100
AcDbEntity
  8
0
  6
Continuous
 62
     9
100
AcDbLine
 10
1939.000031863052
 20
42.99999227162243
 30
0.0
 11
1937.613123222303
 21
42.99999227162243
 31
0.0
  0
LINE
  5
CB2
330
2
100
AcDbEntity
  8
0
  6
Continuous
 62
     9
100
AcDbLine
 10
1937.613123222303
 20
42.99999227162243
 30
0.0
 11
1936.590030268431
 21
42.99999227162243
 31
0.0
  0
LINE
  5
CB3
330
2
100
AcDbEntity
  8
0
  6
Continuous
 62
     9
100
AcDbLine
 10
1929.285517959111
 20
42.99999227162106
 30
0.0
 11
1927.000031863052
 21
42.99999227162106
 31
0.0
  0
LINE
  5
CB4
330
2
100
AcDbEntity
  8
0
  6
Continuous
 62
     4
100
AcDbLine
 10
1439.000031863051
 20
55.99999227255148
 30
0.0
 11
1439.002818260989
 21
55.99999227255148
 31
0.0
  0
LINE
  5
CB5
330
2
100
AcDbEntity
  8
0
  6
Continuous
 62
     4
100
AcDbLine
 10
1439.002818260989
 20
55.99999227255148
 30
0.0
 11
1439.997245464441
 21
55.99999227255148
 31
0.0
  0
LINE
  5
CB6
330
2
100
AcDbEntity
  8
0
  6
Continuous
 62
     4
100
AcDbLine
 10
1439.997245464441
 20
55.99999227255148
 30
0.0
 11
1441.000031865973
 21
55.99999227255148
 31
0.0
  0
LINE
  5
CB7
330
2
100
AcDbEntity
  8
0
  6
Continuous
 62
     4
100
AcDbLine
 10
1441.000031865973
 20
55.99999227255148
 30
0.0
 11
1444.700031865972
 21
55.99999227255285
 31
0.0
  0
LINE
  5
CB8
330
2
100
AcDbEntity
  8
0
  6
Continuous
 62
     4
100
AcDbLine
 10
1444.700031865972
 20
55.99999227255285
 30
0.0
 11
1449.200029865973
 21
55.9999922725533
 31
0.0
  0
LINE
  5
CB9
330
2
100
AcDbEntity
  8
0
  6
Continuous
 62
     4
100
AcDbLine
 10
1449.200029865973
 20
55.9999922725533
 30
0.0
 11
1451.000029865972
 21
55.9999922725533
 31
0.0
  0
LINE
  5
CBA
330
2
100
AcDbEntity
  8
0
  6
Continuous
 62
     4
100
AcDbLine
 10
1451.000029865972
 20
55.9999922725533
 30
0.0
 11
2031.000031863052
 21
55.99999227263561
 31
0.0
  0
LINE
  5
CBB
330
2
100
AcDbEntity
  8
0
  6
Continuous
 62
     4
100
AcDbLine
 10
2031.000031863052
 20
55.99999227263561
 30
0.0
 11
2031.000031863063
 21
47.99999227263561
 31
0.0
  0
LINE
  5
CBC
330
2
100
AcDbEntity
  8
0
  6
Continuous
 62
     4
100
AcDbLine
 10
1439.000031863063
 20
47.99999227255148
 30
0.0
 11
1439.000031863063
 21
48.04999433116472
 31
0.0
  0
LINE
  5
CBD
330
2
100
AcDbEntity
  8
0
  6
Continuous
 62
     4
100
AcDbLine
 10
1439.000031863063
 20
48.04999433116472
 30
0.0
 11
1439.000031863051
 21
55.94999233116459
 31
0.0
  0
LINE
  5
CBE
330
2
100
AcDbEntity
  8
0
  6
Continuous
 62
     4
100
AcDbLine
 10
1439.000031863051
 20
55.94999233116459
 30
0.0
 11
1439.000031863051
 21
55.99999227255148
 31
0.0
  0
LINE
  5
CBF
330
2
100
AcDbEntity
  8
0
  6
Continuous
 62
     4
100
AcDbLine
 10
2031.000031863063
 20
47.99999227263561
 30
0.0
 11
1451.000029397522
 21
47.99999227255329
 31
0.0
  0
LINE
  5
CC0
330
2
100
AcDbEntity
  8
0
  6
Continuous
 62
     4
100
AcDbLine
 10
1451.000029397522
 20
47.99999227255329
 30
0.0
 11
1449.200029397523
 21
47.99999227255329
 31
0.0
  0
LINE
  5
CC1
330
2
100
AcDbEntity
  8
0
  6
Continuous
 62
     4
100
AcDbLine
 10
1449.200029397523
 20
47.99999227255329
 30
0.0
 11
1444.700031397522
 21
47.99999227255284
 31
0.0
  0
LINE
  5
CC2
330
2
100
AcDbEntity
  8
0
  6
Continuous
 62
     4
100
AcDbLine
 10
1444.700031397522
 20
47.99999227255284
 30
0.0
 11
1441.000031397523
 21
47.99999227255284
 31
0.0
  0
LINE
  5
CC3
330
2
100
AcDbEntity
  8
0
  6
Continuous
 62
     4
100
AcDbLine
 10
1441.000031397523
 20
47.99999227255284
 30
0.0
 11
1439.99724476644
 21
47.99999227255284
 31
0.0
  0
LINE
  5
CC4
330
2
100
AcDbEntity
  8
0
  6
Continuous
 62
     4
100
AcDbLine
 10
1439.99724476644
 20
47.99999227255284
 30
0.0
 11
1439.002818035113
 21
47.99999227255148
 31
0.0
  0
LINE
  5
CC5
330
2
100
AcDbEntity
  8
0
  6
Continuous
 62
     4
100
AcDbLine
 10
1439.002818035113
 20
47.99999227255148
 30
0.0
 11
1439.000031863063
 21
47.99999227255148
 31
0.0
  0
LINE
  5
CC6
330
2
100
AcDbEntity
  8
0
  6
Continuous
 62
     7
100
AcDbLine
 10
2047.000031861589
 20
12.99999226975478
 30
0.0
 11
2023.000031861589
 21
12.99999227207536
 31
0.0
  0
LINE
  5
CC7
330
2
100
AcDbEntity
  8
0
  6
Continuous
 62
     7
100
AcDbLine
 10
2025.500041832591
 20
22.99999227060153
 30
0.0
 11
2025.619155610204
 21
22.99999227060607
 31
0.0
  0
LINE
  5
CC8
330
2
100
AcDbEntity
  8
0
  6
Continuous
 62
     7
100
AcDbLine
 10
2026.135959631021
 20
22.99999227062335
 30
0.0
 11
2028.716283717932
 21
22.99999227070657
 31
0.0
  0
LINE
  5
CC9
330
2
100
AcDbEntity
  8
0
  6
Continuous
 62
     7
100
AcDbLine
 10
2028.716283717932
 20
22.99999227070657
 30
0.0
 11
2031.432724178014
 21
22.99999227079525
 31
0.0
  0
LINE
  5
CCA
330
2
100
AcDbEntity
  8
0
  6
Continuous
 62
     7
100
AcDbLine
 10
2032.000031870653
 20
22.99999227081435
 30
0.0
 11
2034.747843291263
 21
22.99999227090347
 31
0.0
  0
LINE
  5
CCB
330
2
100
AcDbEntity
  8
0
  6
Continuous
 62
     7
100
AcDbLine
 10
2034.747843291263
 20
22.99999227090347
 30
0.0
 11
2042.465611069982
 21
22.99999227115541
 31
0.0
  0
LINE
  5
CCC
330
2
100
AcDbEntity
  8
0
  6
Continuous
 62
     7
100
AcDbLine
 10
2042.465611069982
 20
22.99999227115541
 30
0.0
 11
2044.500031861913
 21
22.99999227122135
 31
0.0
  0
LINE
  5
CCD
330
2
100
AcDbEntity
  8
0
  6
Continuous
 62
     7
100
AcDbLine
 10
2025.000042357604
 20
22.99999226996033
 30
0.0
 11
2031.432724178014
 21
22.99999227057151
 31
0.0
  0
LINE
  5
CCE
330
2
100
AcDbEntity
  8
0
  6
Continuous
 62
     7
100
AcDbLine
 10
2032.000031870653
 20
22.99999227062654
 30
0.0
 11
2045.000031861913
 21
22.99999227186345
 31
0.0
  0
LINE
  5
CCF
330
2
100
AcDbEntity
  8
0
  6
Continuous
 62
     7
100
AcDbLine
 10
2023.000044456212
 20
12.99999227129956
 30
0.0
 11
2047.000031861653
 21
12.99999227053195
 31
0.0
  0
LINE
  5
CD0
330
2
100
AcDbEntity
  8
0
  6
Continuous
 62
     7
100
AcDbLine
 10
2022.500031859512
 20
6.2999922721051
 30
0.0
 11
2047.500031859512
 21
6.299992269725407
 31
0.0
  0
LINE
  5
CD1
330
2
100
AcDbEntity
  8
0
  6
Continuous
 62
     7
100
AcDbLine
 10
2047.20003185948
 20
5.99999226975342
 30
0.0
 11
2022.80003185948
 21
5.999992272076724
 31
0.0
  0
LINE
  5
CD2
330
2
100
AcDbEntity
  8
0
  6
Continuous
 62
     7
100
AcDbLine
 10
2022.500031860053
 20
11.99999227210537
 30
0.0
 11
2047.500031860053
 21
11.99999226972568
 31
0.0
  0
LINE
  5
CD3
330
2
100
AcDbEntity
  8
0
  6
Continuous
 62
     7
100
AcDbLine
 10
2547.000031864222
 20
12.99999227089756
 30
0.0
 11
2523.000031864222
 21
12.99999227093349
 31
0.0
  0
LINE
  5
CD4
330
2
100
AcDbEntity
  8
0
  6
Continuous
 62
     7
100
AcDbLine
 10
2525.500031879501
 20
22.99999226969885
 30
0.0
 11
2525.617078651532
 21
22.9999922697134
 31
0.0
  0
LINE
  5
CD5
330
2
100
AcDbEntity
  8
0
  6
Continuous
 62
     7
100
AcDbLine
 10
2526.131214857891
 20
22.99999226977843
 30
0.0
 11
2534.733576110521
 21
22.9999922708771
 31
0.0
  0
LINE
  5
CD6
330
2
100
AcDbEntity
  8
0
  6
Continuous
 62
     7
100
AcDbLine
 10
2534.733576110521
 20
22.9999922708771
 30
0.0
 11
2537.336520554433
 21
22.99999227121043
 31
0.0
  0
LINE
  5
CD7
330
2
100
AcDbEntity
  8
0
  6
Continuous
 62
     7
100
AcDbLine
 10
2537.336520554433
 20
22.99999227121043
 30
0.0
 11
2540.498818214694
 21
22.9999922716147
 31
0.0
  0
LINE
  5
CD8
330
2
100
AcDbEntity
  8
0
  6
Continuous
 62
     7
100
AcDbLine
 10
2540.498818214694
 20
22.9999922716147
 30
0.0
 11
2542.456684335051
 21
22.99999227186481
 31
0.0
  0
LINE
  5
CD9
330
2
100
AcDbEntity
  8
0
  6
Continuous
 62
     7
100
AcDbLine
 10
2542.456684335051
 20
22.99999227186481
 30
0.0
 11
2544.500031863592
 21
22.99999227212538
 31
0.0
  0
LINE
  5
CDA
330
2
100
AcDbEntity
  8
0
  6
Continuous
 62
     7
100
AcDbLine
 10
2525.000031880352
 20
22.99999226900855
 30
0.0
 11
2545.000031863593
 21
22.99999227281569
 31
0.0
  0
LINE
  5
CDB
330
2
100
AcDbEntity
  8
0
  6
Continuous
 62
     7
100
AcDbLine
 10
2523.000031884393
 20
12.99999227015769
 30
0.0
 11
2547.00003186428
 21
12.99999227167382
 31
0.0
  0
LINE
  5
CDC
330
2
100
AcDbEntity
  8
0
  6
Continuous
 62
     7
100
AcDbLine
 10
2522.500031862772
 20
6.299992270916391
 30
0.0
 11
2547.500031862772
 21
6.299992270916391
 31
0.0
  0
LINE
  5
CDD
330
2
100
AcDbEntity
  8
0
  6
Continuous
 62
     7
100
AcDbLine
 10
2547.200031862772
 20
5.999992270916209
 30
0.0
 11
2522.800031862771
 21
5.999992270916209
 31
0.0
  0
LINE
  5
CDE
330
2
100
AcDbEntity
  8
0
  6
Continuous
 62
     7
100
AcDbLine
 10
2522.500031862772
 20
11.99999227091575
 30
0.0
 11
2547.500031862772
 21
11.99999227091575
 31
0.0
  0
LINE
  5
CDF
330
2
100
AcDbEntity
  8
0
  6
Continuous
 62
     7
100
AcDbLine
 10
2585.000031861622
 20
29.99999231751554
 30
0.0
 11
2585.000031861702
 21
32.49999231759967
 31
0.0
  0
LINE
  5
CE0
330
2
100
AcDbEntity
  8
0
  6
Continuous
 62
     7
100
AcDbLine
 10
2582.000031910711
 20
29.9999923176124
 30
0.0
 11
2468.000031862492
 21
29.99999232130313
 31
0.0
  0
LINE
  5
CE1
330
2
100
AcDbEntity
  8
0
  6
Continuous
 62
     7
100
AcDbLine
 10
2448.000031862581
 20
29.99999232195023
 30
0.0
 11
2032.000031861764
 21
29.99999233541848
 31
0.0
  0
LINE
  5
CE2
330
2
100
AcDbEntity
  8
0
  6
Continuous
 62
     7
100
AcDbLine
 10
2031.298108796141
 20
29.99999233544077
 30
0.0
 11
1943.846196883911
 21
29.99999233827157
 31
0.0
  0
LINE
  5
CE3
330
2
100
AcDbEntity
  8
0
  6
Continuous
 62
     7
100
AcDbLine
 10
1922.153866843662
 20
29.99999233897461
 30
0.0
 11
1501.846196854241
 21
29.99999235258156
 31
0.0
  0
LINE
  5
CE4
330
2
100
AcDbEntity
  8
0
  6
Continuous
 62
     7
100
AcDbLine
 10
1480.15386687333
 20
29.99999235328323
 30
0.0
 11
1437.000031862871
 21
29.99999235468158
 31
0.0
  0
LINE
  5
CE5
330
2
100
AcDbEntity
  8
0
  6
Continuous
 62
     9
100
AcDbLine
 10
1435.000031861689
 20
32.49999235482937
 30
0.0
 11
1481.000031863052
 21
32.49999235334053
 31
0.0
  0
LINE
  5
CE6
330
2
100
AcDbEntity
  8
0
  6
Continuous
 62
     9
100
AcDbLine
 10
1501.000031863062
 20
32.49999235269342
 30
0.0
 11
1923.000031863062
 21
32.49999233903145
 31
0.0
  0
LINE
  5
CE7
330
2
100
AcDbEntity
  8
0
  6
Continuous
 62
     9
100
AcDbLine
 10
1943.000031863052
 20
32.49999233838344
 30
0.0
 11
2031.250031874481
 21
32.49999233552626
 31
0.0
  0
LINE
  5
CE8
330
2
100
AcDbEntity
  8
0
  6
Continuous
 62
     9
100
AcDbLine
 10
2032.000031876063
 20
32.49999233550261
 30
0.0
 11
2448.000031862413
 21
32.49999232203573
 31
0.0
  0
LINE
  5
CE9
330
2
100
AcDbEntity
  8
0
  6
Continuous
 62
     9
100
AcDbLine
 10
2468.000031862414
 20
32.49999232138771
 30
0.0
 11
2585.000031861693
 21
32.49999231759967
 31
0.0
  0
LINE
  5
CEA
330
2
100
AcDbEntity
  8
0
  6
Continuous
 62
     9
100
AcDbLine
 10
2585.000031861851
 20
37.49999231759967
 30
0.0
 11
2468.000031862251
 21
37.49999232138771
 31
0.0
  0
LINE
  5
CEB
330
2
100
AcDbEntity
  8
0
  6
Continuous
 62
     9
100
AcDbLine
 10
2443.565994692401
 20
37.49999232217851
 30
0.0
 11
2032.000031878903
 21
37.49999233550261
 31
0.0
  0
LINE
  5
CEC
330
2
100
AcDbEntity
  8
0
  6
Continuous
 62
     9
100
AcDbLine
 10
2031.153878031173
 20
37.49999233552944
 30
0.0
 11
1943.000031863052
 21
37.49999233838344
 31
0.0
  0
LINE
  5
CED
330
2
100
AcDbEntity
  8
0
  6
Continuous
 62
     9
100
AcDbLine
 10
1923.000031863062
 20
37.49999233903145
 30
0.0
 11
1501.000031863062
 21
37.49999235269252
 31
0.0
  0
LINE
  5
CEE
330
2
100
AcDbEntity
  8
0
  6
Continuous
 62
     9
100
AcDbLine
 10
1481.000031863052
 20
37.49999235334053
 30
0.0
 11
1435.000031861853
 21
37.49999235483028
 31
0.0
  0
LINE
  5
CEF
330
2
100
AcDbEntity
  8
0
  6
Continuous
 62
     7
100
AcDbLine
 10
1435.000031861689
 20
32.49999235482937
 30
0.0
 11
1435.000031861771
 21
34.99999227395529
 31
0.0
  0
LINE
  5
CF0
330
2
100
AcDbEntity
  8
0
  6
Continuous
 62
     7
100
AcDbLine
 10
1435.000031861771
 20
34.99999227395529
 30
0.0
 11
1435.000031861853
 21
37.49999235483028
 31
0.0
  0
LINE
  5
CF1
330
2
100
AcDbEntity
  8
0
  6
Continuous
 62
     7
100
AcDbLine
 10
2585.000031861851
 20
37.49999231759967
 30
0.0
 11
2585.000031861693
 21
32.49999231759967
 31
0.0
  0
LINE
  5
CF2
330
2
100
AcDbEntity
  8
0
  6
Continuous
 62
     7
100
AcDbLine
 10
1437.000031863505
 20
39.99999235468022
 30
0.0
 11
1480.15386653584
 21
39.99999235328323
 31
0.0
  0
LINE
  5
CF3
330
2
100
AcDbEntity
  8
0
  6
Continuous
 62
     7
100
AcDbLine
 10
1501.846197188812
 20
39.99999235258247
 30
0.0
 11
1922.15386656552
 21
39.99999233897461
 31
0.0
  0
LINE
  5
CF4
330
2
100
AcDbEntity
  8
0
  6
Continuous
 62
     7
100
AcDbLine
 10
1943.846197159131
 20
39.99999233827248
 30
0.0
 11
2031.105801109523
 21
39.99999233544759
 31
0.0
  0
LINE
  5
CF5
330
2
100
AcDbEntity
  8
0
  6
Continuous
 62
     7
100
AcDbLine
 10
2032.000031880321
 20
39.99999233541848
 30
0.0
 11
2448.000031862172
 21
39.9999923219516
 31
0.0
  0
LINE
  5
CF6
330
2
100
AcDbEntity
  8
0
  6
Continuous
 62
     7
100
AcDbLine
 10
2468.000031862171
 20
39.99999232130313
 30
0.0
 11
2582.000031910091
 21
39.99999231761376
 31
0.0
  0
LINE
  5
CF7
330
2
100
AcDbEntity
  8
0
  6
Continuous
 62
     7
100
AcDbLine
 10
2585.000031861864
 20
37.49999231759967
 30
0.0
 11
2585.000031861952
 21
39.99999231751554
 31
0.0
  0
LINE
  5
CF8
330
2
100
AcDbEntity
  8
0
  6
Continuous
 62
     9
100
AcDbLine
 10
1977.000031863572
 20
40.99999218762832
 30
0.0
 11
1945.500031863051
 21
40.99999218961147
 31
0.0
  0
LINE
  5
CF9
330
2
100
AcDbEntity
  8
0
  6
Continuous
 62
     9
100
AcDbLine
 10
1920.500031863063
 20
40.99999219118672
 30
0.0
 11
1503.500031863063
 21
40.99999221744155
 31
0.0
  0
LINE
  5
CFA
330
2
100
AcDbEntity
  8
0
  6
Continuous
 62
     7
100
AcDbLine
 10
1977.000031863972
 20
43.49999218778839
 30
0.0
 11
1945.500031863051
 21
43.49999223069789
 31
0.0
  0
LINE
  5
CFB
330
2
100
AcDbEntity
  8
0
  6
Continuous
 62
     7
100
AcDbLine
 10
1920.500031863063
 20
43.49999223148325
 30
0.0
 11
1503.500031863063
 21
43.4999922445827
 31
0.0
  0
LINE
  5
CFC
330
2
100
AcDbEntity
  8
0
  6
Continuous
 62
     9
100
AcDbLine
 10
1977.000031862623
 20
25.99999218762832
 30
0.0
 11
1945.500031863051
 21
25.99999218961148
 31
0.0
  0
LINE
  5
CFD
330
2
100
AcDbEntity
  8
0
  6
Continuous
 62
     9
100
AcDbLine
 10
1920.500031863063
 20
25.99999219118536
 30
0.0
 11
1503.500031863063
 21
25.99999221744156
 31
0.0
  0
LINE
  5
CFE
330
2
100
AcDbEntity
  8
0
  6
Continuous
 62
     9
100
AcDbLine
 10
1478.500031863052
 20
25.99999221901589
 30
0.0
 11
1472.000031863021
 21
25.99999221942562
 31
0.0
  0
LINE
  5
CFF
330
2
100
AcDbEntity
  8
0
  6
Continuous
 62
     7
100
AcDbLine
 10
1977.000031862713
 20
23.49999218778839
 30
0.0
 11
1472.000031863041
 21
23.49999221958569
 31
0.0
  0
LINE
  5
D00
330
2
100
AcDbEntity
  8
0
  6
Continuous
 62
     9
100
AcDbLine
 10
1983.000031862539
 20
11.999992204509
 30
0.0
 11
1983.000031862671
 21
13.999992204509
 31
0.0
  0
LINE
  5
D01
330
2
100
AcDbEntity
  8
0
  6
Continuous
 62
     7
100
AcDbLine
 10
1982.000031862539
 20
11.99999220463587
 30
0.0
 11
1983.000031862539
 21
11.99999220457175
 31
0.0
  0
LINE
  5
D02
330
2
100
AcDbEntity
  8
0
  6
Continuous
 62
     9
100
AcDbLine
 10
2015.000031862539
 20
11.99999220246491
 30
0.0
 11
2015.000031862672
 21
13.99999220246491
 31
0.0
  0
LINE
  5
D03
330
2
100
AcDbEntity
  8
0
  6
Continuous
 62
     7
100
AcDbLine
 10
1983.000031862539
 20
11.999992204509
 30
0.0
 11
2015.000031862539
 21
11.99999220246491
 31
0.0
  0
LINE
  5
D04
330
2
100
AcDbEntity
  8
0
  6
Continuous
 62
     7
100
AcDbLine
 10
2016.000031862539
 20
11.99999220246491
 30
0.0
 11
2016.000031862672
 21
13.99999220246491
 31
0.0
  0
LINE
  5
D05
330
2
100
AcDbEntity
  8
0
  6
Continuous
 62
     7
100
AcDbLine
 10
2015.000031862539
 20
11.99999220252812
 30
0.0
 11
2016.000031862539
 21
11.99999220246491
 31
0.0
  0
LINE
  5
D06
330
2
100
AcDbEntity
  8
0
  6
Continuous
 62
     7
100
AcDbLine
 10
1987.500031865431
 20
57.49999220485415
 30
0.0
 11
1984.500031865431
 21
57.49999220504514
 31
0.0
  0
LINE
  5
D07
330
2
100
AcDbEntity
  8
0
  6
Continuous
 62
     7
100
AcDbLine
 10
1984.500031865431
 20
57.49999220504514
 30
0.0
 11
1981.500031865431
 21
57.49999220523659
 31
0.0
  0
LINE
  5
D08
330
2
100
AcDbEntity
  8
0
  6
Continuous
 62
     7
100
AcDbLine
 10
1980.50003186594
 20
65.49999220529935
 30
0.0
 11
1984.50003186594
 21
65.49999220504514
 31
0.0
  0
LINE
  5
D09
330
2
100
AcDbEntity
  8
0
  6
Continuous
 62
     7
100
AcDbLine
 10
1984.50003186594
 20
65.49999220504514
 30
0.0
 11
1988.50003186594
 21
65.49999220479094
 31
0.0
  0
LINE
  5
D0A
330
2
100
AcDbEntity
  8
0
  6
Continuous
 62
     7
100
AcDbLine
 10
2012.500031899623
 20
57.4999922032639
 30
0.0
 11
2009.500031899623
 21
57.4999922034549
 31
0.0
  0
LINE
  5
D0B
330
2
100
AcDbEntity
  8
0
  6
Continuous
 62
     7
100
AcDbLine
 10
2009.500031899623
 20
57.4999922034549
 30
0.0
 11
2006.500031899623
 21
57.49999220364589
 31
0.0
  0
LINE
  5
D0C
330
2
100
AcDbEntity
  8
0
  6
Continuous
 62
     7
100
AcDbLine
 10
2005.50003190013
 20
65.49999220370864
 30
0.0
 11
2009.50003190013
 21
65.49999220345489
 31
0.0
  0
LINE
  5
D0D
330
2
100
AcDbEntity
  8
0
  6
Continuous
 62
     7
100
AcDbLine
 10
2009.50003190013
 20
65.49999220345489
 30
0.0
 11
2013.500031900131
 21
65.49999220320024
 31
0.0
  0
LINE
  5
D0E
330
2
100
AcDbEntity
  8
0
  6
Continuous
 62
     9
100
AcDbLine
 10
1977.000031864554
 20
43.49999220472182
 30
0.0
 11
2017.00003186454
 21
43.4999922021766
 31
0.0
  0
LINE
  5
D0F
330
2
100
AcDbEntity
  8
0
  6
Continuous
 62
     7
100
AcDbLine
 10
1977.00003186474
 20
46.49999220491372
 30
0.0
 11
2017.000031864732
 21
46.4999922023685
 31
0.0
  0
LINE
  5
D10
330
2
100
AcDbEntity
  8
0
  6
Continuous
 62
     7
100
AcDbLine
 10
2017.00003186454
 20
43.4999922021766
 30
0.0
 11
2017.000031864732
 21
46.49999220236532
 31
0.0
  0
LINE
  5
D11
330
2
100
AcDbEntity
  8
0
  6
Continuous
 62
     7
100
AcDbLine
 10
1977.000031864554
 20
43.49999220472182
 30
0.0
 11
1977.00003186474
 21
46.49999220491054
 31
0.0
  0
LINE
  5
D12
330
2
100
AcDbEntity
  8
0
  6
Continuous
 62
     7
100
AcDbLine
 10
1977.000031863283
 20
23.49999220472182
 30
0.0
 11
2017.000031863263
 21
23.4999922021766
 31
0.0
  0
LINE
  5
D13
330
2
100
AcDbEntity
  8
0
  6
Continuous
 62
     7
100
AcDbLine
 10
2017.000031863263
 20
23.4999922021766
 30
0.0
 11
2017.00003186368
 21
29.99999233590461
 31
0.0
  0
LINE
  5
D14
330
2
100
AcDbEntity
  8
0
  6
Continuous
 62
     7
100
AcDbLine
 10
2017.000031864313
 20
39.9999923359037
 30
0.0
 11
2017.00003186454
 21
43.4999922021766
 31
0.0
  0
LINE
  5
D15
330
2
100
AcDbEntity
  8
0
  6
Continuous
 62
     7
100
AcDbLine
 10
1977.000031863283
 20
23.49999220472182
 30
0.0
 11
1977.00003186369
 21
29.99999233719882
 31
0.0
  0
LINE
  5
D16
330
2
100
AcDbEntity
  8
0
  6
Continuous
 62
     7
100
AcDbLine
 10
1977.000031864332
 20
39.99999233719882
 30
0.0
 11
1977.000031864554
 21
43.49999220472182
 31
0.0
  0
LINE
  5
D17
330
2
100
AcDbEntity
  8
0
  6
Continuous
 62
     7
100
AcDbLine
 10
1977.00003186582
 20
63.49999220520294
 30
0.0
 11
2017.000031865811
 21
63.49999220265636
 31
0.0
  0
LINE
  5
D18
330
2
100
AcDbEntity
  8
0
  6
Continuous
 62
     9
100
AcDbLine
 10
2017.00003186562
 20
60.4999922024649
 30
0.0
 11
1977.000031865631
 21
60.49999220500922
 31
0.0
  0
LINE
  5
D19
330
2
100
AcDbEntity
  8
0
  6
Continuous
 62
     7
100
AcDbLine
 10
2017.000031865811
 20
63.49999220265454
 30
0.0
 11
2017.00003186562
 21
60.4999922024649
 31
0.0
  0
LINE
  5
D1A
330
2
100
AcDbEntity
  8
0
  6
Continuous
 62
     7
100
AcDbLine
 10
1977.000031865631
 20
60.49999220500922
 30
0.0
 11
1977.00003186582
 21
63.4999922051984
 31
0.0
  0
LINE
  5
D1B
330
2
100
AcDbEntity
  8
0
  6
Continuous
 62
     7
100
AcDbLine
 10
1977.000031865504
 20
58.49999220500922
 30
0.0
 11
2017.000031865491
 21
58.49999220246536
 31
0.0
  0
LINE
  5
D1C
330
2
100
AcDbEntity
  8
0
  6
Continuous
 62
     7
100
AcDbLine
 10
2017.00003186562
 20
60.4999922024649
 30
0.0
 11
2017.000031865491
 21
58.49999220246536
 31
0.0
  0
LINE
  5
D1D
330
2
100
AcDbEntity
  8
0
  6
Continuous
 62
     7
100
AcDbLine
 10
1977.000031865631
 20
60.49999220500922
 30
0.0
 11
1977.000031865504
 21
58.49999220500922
 31
0.0
  0
ARC
  5
D1E
330
2
100
AcDbEntity
  8
0
  6
Continuous
 62
     7
100
AcDbCircle
 10
1997.000031865153
 20
52.99999220469863
 30
0.0
 40
4.299999999999846
100
AcDbArc
 50
44.24072005367344
 51
135.7592799463265
  0
LINE
  5
D1F
330
2
100
AcDbEntity
  8
0
  6
Continuous
 62
     7
100
AcDbLine
 10
2017.000031865491
 20
58.4999922034267
 30
0.0
 11
2017.000031865331
 21
55.99999227263379
 31
0.0
  0
LINE
  5
D20
330
2
100
AcDbEntity
  8
0
  6
Continuous
 62
     7
100
AcDbLine
 10
2017.000031864822
 20
47.99999227263379
 30
0.0
 11
2017.000031864732
 21
46.49999220342533
 31
0.0
  0
LINE
  5
D21
330
2
100
AcDbEntity
  8
0
  6
Continuous
 62
     7
100
AcDbLine
 10
1977.000031865504
 20
58.49999220597192
 30
0.0
 11
1977.00003186534
 21
55.99999227262833
 31
0.0
  0
LINE
  5
D22
330
2
100
AcDbEntity
  8
0
  6
Continuous
 62
     7
100
AcDbLine
 10
1977.00003186484
 20
47.99999227262833
 30
0.0
 11
1977.00003186474
 21
46.49999220597192
 31
0.0
  0
LINE
  5
D23
330
2
100
AcDbEntity
  8
0
  6
Continuous
 62
     7
100
AcDbLine
 10
2017.000031863204
 20
22.49999220233667
 30
0.0
 11
1982.000031863204
 21
22.49999220456357
 31
0.0
  0
LINE
  5
D24
330
2
100
AcDbEntity
  8
0
  6
Continuous
 62
     7
100
AcDbLine
 10
1982.000031863204
 20
22.49999220456357
 30
0.0
 11
1982.000031863172
 21
21.99999227275839
 31
0.0
  0
LINE
  5
D25
330
2
100
AcDbEntity
  8
0
  6
Continuous
 62
     7
100
AcDbLine
 10
1982.000031862662
 20
13.99999227275839
 30
0.0
 11
1982.000031862539
 21
11.99999220456357
 31
0.0
  0
LINE
  5
D26
330
2
100
AcDbEntity
  8
0
  6
Continuous
 62
     7
100
AcDbLine
 10
1982.000031862539
 20
11.99999220456357
 30
0.0
 11
1983.000031862539
 21
11.9999922044999
 31
0.0
  0
LINE
  5
D27
330
2
100
AcDbEntity
  8
0
  6
Continuous
 62
     7
100
AcDbLine
 10
1983.000031862539
 20
11.9999922044999
 30
0.0
 11
2015.000031862539
 21
11.99999220246491
 31
0.0
  0
LINE
  5
D28
330
2
100
AcDbEntity
  8
0
  6
Continuous
 62
     7
100
AcDbLine
 10
2015.000031862539
 20
11.99999220246491
 30
0.0
 11
2017.000031862539
 21
11.99999220233667
 31
0.0
  0
LINE
  5
D29
330
2
100
AcDbEntity
  8
0
  6
Continuous
 62
     7
100
AcDbLine
 10
2017.000031862539
 20
11.99999220233667
 30
0.0
 11
2017.000031862314
 21
8.49999220233667
 31
0.0
  0
LINE
  5
D2A
330
2
100
AcDbEntity
  8
0
  6
Continuous
 62
     7
100
AcDbLine
 10
2017.000031862314
 20
8.49999220233667
 30
0.0
 11
1979.000031862313
 21
8.499992204755017
 31
0.0
  0
ARC
  5
D2B
330
2
100
AcDbEntity
  8
0
  6
Continuous
 62
     7
100
AcDbCircle
 10
1979.000031862439
 20
10.49999220475501
 30
0.0
 40
2.000000000000667
100
AcDbArc
 50
179.9999999963523
 51
269.9999999963523
  0
LINE
  5
D2C
330
2
100
AcDbEntity
  8
0
  6
Continuous
 62
     7
100
AcDbLine
 10
2017.000031863272
 20
23.4999922021766
 30
0.0
 11
2017.000031863204
 21
22.49999220233667
 31
0.0
  0
LINE
  5
D2D
330
2
100
AcDbEntity
  8
0
  6
Continuous
 62
     7
100
AcDbLine
 10
1977.000031862439
 20
10.49999220488189
 30
0.0
 11
1977.000031863272
 21
23.49999220472182
 31
0.0
  0
LINE
  5
D2E
330
2
100
AcDbEntity
  8
0
  6
Continuous
 62
     4
100
AcDbLine
 10
2588.000031862772
 20
21.99999227275839
 30
0.0
 11
2032.000031861004
 21
21.99999227275839
 31
0.0
  0
LINE
  5
D2F
330
2
100
AcDbEntity
  8
0
  6
Continuous
 62
     4
100
AcDbLine
 10
2032.000031861004
 20
21.99999227275839
 30
0.0
 11
2031.451954946642
 21
21.99999227275839
 31
0.0
  0
LINE
  5
D30
330
2
100
AcDbEntity
  8
0
  6
Continuous
 62
     4
100
AcDbLine
 10
2031.451954946642
 20
21.99999227275839
 30
0.0
 11
1982.000031862772
 21
21.99999227275839
 31
0.0
  0
LINE
  5
D31
330
2
100
AcDbEntity
  8
0
  6
Continuous
 62
     4
100
AcDbLine
 10
2588.000031862772
 20
13.99999227275839
 30
0.0
 11
2588.000031862772
 21
21.99999227275839
 31
0.0
  0
LINE
  5
D32
330
2
100
AcDbEntity
  8
0
  6
Continuous
 62
     4
100
AcDbLine
 10
1982.000031862772
 20
13.99999227275839
 30
0.0
 11
2588.000031862772
 21
13.99999227275839
 31
0.0
  0
LINE
  5
D33
330
2
100
AcDbEntity
  8
0
  6
Continuous
 62
     4
100
AcDbLine
 10
1982.000031862772
 20
21.99999227275839
 30
0.0
 11
1982.000031862772
 21
13.99999227275839
 31
0.0
  0
LINE
  5
D34
330
2
100
AcDbEntity
  8
0
  6
Continuous
 62
     7
100
AcDbLine
 10
1410.000031862772
 20
799.9999924009085
 30
0.0
 11
1423.000031862772
 21
799.9999924009085
 31
0.0
  0
LINE
  5
D35
330
2
100
AcDbEntity
  8
0
  6
Continuous
 62
     7
100
AcDbLine
 10
1431.000031862772
 20
799.9999924009085
 30
0.0
 11
1441.000031863741
 21
799.9999924009085
 31
0.0
  0
LINE
  5
D36
330
2
100
AcDbEntity
  8
0
  6
Continuous
 62
     7
100
AcDbLine
 10
1481.00003186373
 20
799.9999924009085
 30
0.0
 11
2538.000031861993
 21
799.9999924009085
 31
0.0
  0
LINE
  5
D37
330
2
100
AcDbEntity
  8
0
  6
Continuous
 62
     7
100
AcDbLine
 10
2578.000031861993
 20
799.9999924009085
 30
0.0
 11
2588.000031862772
 21
799.9999924009085
 31
0.0
  0
LINE
  5
D38
330
2
100
AcDbEntity
  8
0
  6
Continuous
 62
     7
100
AcDbLine
 10
2596.000031862772
 20
799.9999924009085
 30
0.0
 11
2610.000031862772
 21
799.9999924009085
 31
0.0
  0
LINE
  5
D39
330
2
100
AcDbEntity
  8
0
  6
Continuous
 62
     7
100
AcDbLine
 10
2610.000031862772
 20
799.9999924009085
 30
0.0
 11
2610.000031862772
 21
-0.0000075990924415
 31
0.0
  0
LINE
  5
D3A
330
2
100
AcDbEntity
  8
0
  6
Continuous
 62
     7
100
AcDbLine
 10
2610.000031862772
 20
-0.0000075990924415
 30
0.0
 11
1410.000031862772
 21
-0.0000075990924415
 31
0.0
  0
ELLIPSE
  5
D3B
330
2
100
AcDbEntity
  8
0
  6
Continuous
 62
     9
100
AcDbEllipse
 10
2520.258998281363
 20
710.2589588194937
 30
0.0
 11
27.83488918612598
 21
27.83488918612642
 31
0.0
210
0.0
220
0.0
230
1.0
 40
0.889126490715993
 41
5.556410252859888
 42
7.009960361499286
  0
LINE
  5
D3C
330
2
100
AcDbEntity
  8
0
  6
Continuous
 62
     9
100
AcDbLine
 10
1495.38408513503
 20
747.5051808561516
 30
0.0
 11
2524.615978590513
 21
747.5051808561516
 31
0.0
  0
ELLIPSE
  5
D3D
330
2
100
AcDbEntity
  8
0
  6
Continuous
 62
     9
100
AcDbEllipse
 10
1499.741065444181
 20
710.2589588194937
 30
0.0
 11
-27.83488918612598
 21
27.83488918612642
 31
0.0
210
0.0
220
0.0
230
1.0
 40
0.889126490715993
 41
5.556410252859888
 42
7.009960361499286
  0
LINE
  5
D3E
330
2
100
AcDbEntity
  8
0
  6
Continuous
 62
     9
100
AcDbLine
 10
1462.49484340753
 20
85.38404567317275
 30
0.0
 11
1462.49484340753
 21
714.6159391286437
 31
0.0
  0
ELLIPSE
  5
D3F
330
2
100
AcDbEntity
  8
0
  6
Continuous
 62
     9
100
AcDbEllipse
 10
1499.741065444181
 20
89.74102598232139
 30
0.0
 11
-27.83488918612598
 21
-27.83488918612642
 31
0.0
210
0.0
220
0.0
230
1.0
 40
0.889126490715993
 41
5.556410252859888
 42
5.817015373287549
  0
LINE
  5
D40
330
2
100
AcDbEntity
  8
0
  6
Continuous
 62
     9
100
AcDbLine
 10
2524.615978590513
 20
52.49480394566536
 30
0.0
 11
2032.000031887423
 21
52.49480394566536
 31
0.0
  0
ELLIPSE
  5
D41
330
2
100
AcDbEntity
  8
0
  6
Continuous
 62
     9
100
AcDbEllipse
 10
2520.258998281363
 20
89.74102598232276
 30
0.0
 11
27.83488918612598
 21
-27.83488918612642
 31
0.0
210
0.0
220
0.0
230
1.0
 40
0.8891264907159939
 41
0.3658772929872567
 42
0.7267750543196963
  0
ELLIPSE
  5
D42
330
2
100
AcDbEntity
  8
0
  6
Continuous
 62
     9
100
AcDbEllipse
 10
2520.258998281363
 20
89.74102598232276
 30
0.0
 11
27.83488918612598
 21
-27.83488918612642
 31
0.0
210
0.0
220
0.0
230
1.0
 40
0.8891264907159939
 41
5.556410252859888
 42
5.917163506131552
  0
LINE
  5
D43
330
2
100
AcDbEntity
  8
0
  6
Continuous
 62
     9
100
AcDbLine
 10
2557.505220318013
 20
714.6159391286437
 30
0.0
 11
2557.505220318013
 21
85.38404567317275
 31
0.0
  0
LINE
  5
D44
330
2
100
AcDbEntity
  8
0
  6
Continuous
 62
     7
100
AcDbLine
 10
1410.000031862772
 20
-0.0000075990924415
 30
0.0
 11
1410.000031862772
 21
799.9999924009085
 31
0.0
  0
ELLIPSE
  5
D45
330
2
100
AcDbEntity
  8
0
  6
Continuous
 62
     9
100
AcDbEllipse
 10
1499.741065444181
 20
710.2589588210967
 30
0.0
 11
-12.11720491336976
 21
12.11720491225732
 31
0.0
210
0.0
220
0.0
230
1.0
 40
0.5835560150004764
 41
5.556410252833122
 42
7.009960361472521
  0
LINE
  5
D46
330
2
100
AcDbEntity
  8
0
  6
Continuous
 62
     9
100
AcDbLine
 10
1485.98715892718
 20
714.6159391302462
 30
0.0
 11
1462.49484340753
 21
714.6159391302462
 31
0.0
  0
LINE
  5
D47
330
2
100
AcDbEntity
  8
0
  6
Continuous
 62
     9
100
AcDbLine
 10
1495.38408513503
 20
724.0128653375577
 30
0.0
 11
1495.38408513503
 21
747.5051808561516
 31
0.0
  0
LINE
  5
D48
330
2
100
AcDbEntity
  8
0
  6
Continuous
 62
     9
100
AcDbLine
 10
2557.505220318013
 20
714.6159391302462
 30
0.0
 11
2534.012904798372
 21
714.6159391302462
 31
0.0
  0
ELLIPSE
  5
D49
330
2
100
AcDbEntity
  8
0
  6
Continuous
 62
     9
100
AcDbEllipse
 10
2520.258998281363
 20
710.2589588210967
 30
0.0
 11
12.11720491336976
 21
12.11720491225732
 31
0.0
210
0.0
220
0.0
230
1.0
 40
0.5835560150004754
 41
5.556410252886652
 42
7.009960361526062
  0
LINE
  5
D4A
330
2
100
AcDbEntity
  8
0
  6
Continuous
 62
     9
100
AcDbLine
 10
2524.615978590513
 20
747.5051808561516
 30
0.0
 11
2524.615978590513
 21
724.0128653375577
 31
0.0
  0
LINE
  5
D4B
330
2
100
AcDbEntity
  8
0
  6
Continuous
 62
     9
100
AcDbLine
 10
2524.615978590513
 20
724.0128653375577
 30
0.0
 11
1495.38408513503
 21
724.0128653375577
 31
0.0
  0
LINE
  5
D4C
330
2
100
AcDbEntity
  8
0
  6
Continuous
 62
     9
100
AcDbLine
 10
1485.98715892718
 20
714.6159391296987
 30
0.0
 11
1485.98715892718
 21
85.3840456742264
 31
0.0
  0
LINE
  5
D4D
330
2
100
AcDbEntity
  8
0
  6
Continuous
 62
     9
100
AcDbLine
 10
1485.98715892718
 20
85.38404567477391
 30
0.0
 11
1462.49484340753
 21
85.38404567477391
 31
0.0
  0
LINE
  5
D4E
330
2
100
AcDbEntity
  8
0
  6
Continuous
 62
     9
100
AcDbLine
 10
2557.505220318013
 20
85.38404567477391
 30
0.0
 11
2534.012904798372
 21
85.38404567477391
 31
0.0
  0
LINE
  5
D4F
330
2
100
AcDbEntity
  8
0
  6
Continuous
 62
     9
100
AcDbLine
 10
2534.012904798372
 20
85.3840456742264
 30
0.0
 11
2534.012904798372
 21
714.6159391296987
 31
0.0
  0
LINE
  5
D50
330
2
100
AcDbEntity
  8
0
  6
Continuous
 62
     9
100
AcDbLine
 10
2524.615978590513
 20
52.49480394566536
 30
0.0
 11
2524.615978590513
 21
75.98711946636695
 31
0.0
  0
ELLIPSE
  5
D51
330
2
100
AcDbEntity
  8
0
  6
Continuous
 62
     9
100
AcDbEllipse
 10
2520.258998281363
 20
89.74102598392482
 30
0.0
 11
12.11720491299139
 21
-12.11720491410206
 31
0.0
210
0.0
220
0.0
230
1.0
 40
0.5835560149651704
 41
5.556410252886648
 42
7.009960361526039
  0
ELLIPSE
  5
D52
330
2
100
AcDbEntity
  8
0
  6
Continuous
 62
     9
100
AcDbEllipse
 10
1499.741065444181
 20
89.74102598392482
 30
0.0
 11
-12.11720491298962
 21
-12.11720491410206
 31
0.0
210
0.0
220
0.0
230
1.0
 40
0.5835560149651703
 41
5.556410252833122
 42
7.009960361472519
  0
LINE
  5
D53
330
2
100
AcDbEntity
  8
0
  6
Continuous
 62
     9
100
AcDbLine
 10
1495.384085135039
 20
75.98711946636695
 30
0.0
 11
1495.384085135039
 21
62.99999227123681
 31
0.0
  0
LINE
  5
D54
330
2
100
AcDbEntity
  8
0
  6
Continuous
 62
     9
100
AcDbLine
 10
1495.38408513503
 20
75.98711946636695
 30
0.0
 11
2524.615978590513
 21
75.98711946636695
 31
0.0
  0
ELLIPSE
  5
D55
330
2
100
AcDbEntity
  8
0
  6
Continuous
 62
     9
100
AcDbEllipse
 10
1501.560916615521
 20
708.4391076500856
 30
0.0
 11
7.071067811242669
 21
7.071067812487896
 31
0.0
210
0.0
220
0.0
230
1.0
 40
0.8891264907367228
 41
0.8440212723760971
 42
2.29757138101556
  0
LINE
  5
D56
330
2
100
AcDbEntity
  8
0
  6
Continuous
 62
     9
100
AcDbLine
 10
1492.163990407662
 20
708.4391076503043
 30
0.0
 11
1485.98715892718
 21
714.6159391296987
 31
0.0
  0
LINE
  5
D57
330
2
100
AcDbEntity
  8
0
  6
Continuous
 62
     9
100
AcDbLine
 10
1495.38408513503
 20
724.0128653375577
 30
0.0
 11
1501.560916615521
 21
717.8360338581637
 31
0.0
  0
ELLIPSE
  5
D58
330
2
100
AcDbEntity
  8
0
  6
Continuous
 62
     9
100
AcDbEllipse
 10
2518.43914711003
 20
708.4391076500856
 30
0.0
 11
7.07106781124267
 21
-7.071067812487452
 31
0.0
210
0.0
220
0.0
230
1.0
 40
0.8891264907367229
 41
0.8440212725742332
 42
2.297571381213694
  0
LINE
  5
D59
330
2
100
AcDbEntity
  8
0
  6
Continuous
 62
     9
100
AcDbLine
 10
2518.43914711003
 20
717.8360338581637
 30
0.0
 11
2524.615978590513
 21
724.0128653375577
 31
0.0
  0
LINE
  5
D5A
330
2
100
AcDbEntity
  8
0
  6
Continuous
 62
     9
100
AcDbLine
 10
2534.012904798372
 20
714.6159391296987
 30
0.0
 11
2527.836073317891
 21
708.4391076503043
 31
0.0
  0
ELLIPSE
  5
D5B
330
2
100
AcDbEntity
  8
0
  6
Continuous
 62
     9
100
AcDbEllipse
 10
1501.560916615521
 20
91.56087715557578
 30
0.0
 11
-7.071067812487896
 21
7.071067811243112
 31
0.0
210
0.0
220
0.0
230
1.0
 40
0.8891264906952526
 41
0.8440212723762666
 42
2.29757138101556
  0
LINE
  5
D5C
330
2
100
AcDbEntity
  8
0
  6
Continuous
 62
     9
100
AcDbLine
 10
1501.560916615521
 20
82.16395094793552
 30
0.0
 11
1495.38408513503
 21
75.98711946636695
 31
0.0
  0
LINE
  5
D5D
330
2
100
AcDbEntity
  8
0
  6
Continuous
 62
     9
100
AcDbLine
 10
1485.98715892718
 20
85.3840456742264
 30
0.0
 11
1492.163990407662
 21
91.56087715579497
 31
0.0
  0
ELLIPSE
  5
D5E
330
2
100
AcDbEntity
  8
0
  6
Continuous
 62
     9
100
AcDbEllipse
 10
2518.43914711003
 20
91.56087715557578
 30
0.0
 11
-7.071067812487896
 21
-7.071067811243112
 31
0.0
210
0.0
220
0.0
230
1.0
 40
0.8891264906952526
 41
0.8440212725742293
 42
2.297571381213536
  0
LINE
  5
D5F
330
2
100
AcDbEntity
  8
0
  6
Continuous
 62
     9
100
AcDbLine
 10
2527.836073317891
 20
91.56087715579497
 30
0.0
 11
2534.012904798372
 21
85.3840456742264
 31
0.0
  0
LINE
  5
D60
330
2
100
AcDbEntity
  8
0
  6
Continuous
 62
     9
100
AcDbLine
 10
2524.615978590513
 20
75.98711946636695
 30
0.0
 11
2518.43914711003
 21
82.16395094793552
 31
0.0
  0
LINE
  5
D61
330
2
100
AcDbEntity
  8
0
  6
Continuous
 62
     9
100
AcDbLine
 10
1501.560916615521
 20
717.8360338581637
 30
0.0
 11
2518.43914711003
 21
717.8360338581637
 31
0.0
  0
LINE
  5
D62
330
2
100
AcDbEntity
  8
0
  6
Continuous
 62
     9
100
AcDbLine
 10
2527.836073317891
 20
708.4391076503043
 30
0.0
 11
2527.836073317891
 21
91.56087715579543
 31
0.0
  0
LINE
  5
D63
330
2
100
AcDbEntity
  8
0
  6
Continuous
 62
     9
100
AcDbLine
 10
1492.163990407662
 20
91.56087715579497
 30
0.0
 11
1492.163990407662
 21
708.4391076503043
 31
0.0
  0
LINE
  5
D64
330
2
100
AcDbEntity
  8
0
  6
Continuous
 62
     9
100
AcDbLine
 10
2518.43914711003
 20
82.16395094793552
 30
0.0
 11
1501.560916615521
 21
82.16395094793552
 31
0.0
  0
LINE
  5
D65
330
2
100
AcDbEntity
  8
0
  6
Continuous
 62
     9
100
AcDbLine
 10
2518.43914711003
 20
717.8360338581624
 30
0.0
 11
2518.43914711003
 21
708.4391076507253
 31
0.0
  0
LINE
  5
D66
330
2
100
AcDbEntity
  8
0
  6
Continuous
 62
     9
100
AcDbLine
 10
2527.836073317891
 20
708.4391076500856
 30
0.0
 11
2518.43914711003
 21
708.4391076500856
 31
0.0
  0
LINE
  5
D67
330
2
100
AcDbEntity
  8
0
  6
Continuous
 62
     9
100
AcDbLine
 10
1492.163990407662
 20
708.4391076500856
 30
0.0
 11
1501.560916615521
 21
708.4391076500856
 31
0.0
  0
LINE
  5
D68
330
2
100
AcDbEntity
  8
0
  6
Continuous
 62
     9
100
AcDbLine
 10
1501.560916615521
 20
717.8360338581624
 30
0.0
 11
1501.560916615521
 21
708.4391076507253
 31
0.0
  0
LINE
  5
D69
330
2
100
AcDbEntity
  8
0
  6
Continuous
 62
     9
100
AcDbLine
 10
2518.43914711003
 20
708.4391076507263
 30
0.0
 11
1501.560916615521
 21
708.4391076507263
 31
0.0
  0
LINE
  5
D6A
330
2
100
AcDbEntity
  8
0
  6
Continuous
 62
     9
100
AcDbLine
 10
2518.43914711003
 20
91.56087715621652
 30
0.0
 11
2518.43914711003
 21
708.4391076507263
 31
0.0
  0
LINE
  5
D6B
330
2
100
AcDbEntity
  8
0
  6
Continuous
 62
     9
100
AcDbLine
 10
2518.43914711003
 20
91.56087715557578
 30
0.0
 11
2527.836073317891
 21
91.56087715557578
 31
0.0
  0
LINE
  5
D6C
330
2
100
AcDbEntity
  8
0
  6
Continuous
 62
     9
100
AcDbLine
 10
1501.560916615521
 20
708.4391076507263
 30
0.0
 11
1501.560916615521
 21
91.56087715621652
 31
0.0
  0
LINE
  5
D6D
330
2
100
AcDbEntity
  8
0
  6
Continuous
 62
     9
100
AcDbLine
 10
1501.560916615521
 20
91.56087715557578
 30
0.0
 11
1492.163990407662
 21
91.56087715557578
 31
0.0
  0
LINE
  5
D6E
330
2
100
AcDbEntity
  8
0
  6
Continuous
 62
     9
100
AcDbLine
 10
2518.43914711003
 20
91.56087715621652
 30
0.0
 11
2518.43914711003
 21
82.16395094793552
 31
0.0
  0
LINE
  5
D6F
330
2
100
AcDbEntity
  8
0
  6
Continuous
 62
     9
100
AcDbLine
 10
1501.560916615521
 20
91.56087715621652
 30
0.0
 11
1501.560916615521
 21
82.16395094793552
 31
0.0
  0
LINE
  5
D70
330
2
100
AcDbEntity
  8
0
  6
Continuous
 62
     9
100
AcDbLine
 10
1501.560916615521
 20
91.56087715621652
 30
0.0
 11
2518.43914711003
 21
91.56087715621652
 31
0.0
  0
LINE
  5
D71
330
2
100
AcDbEntity
  8
0
  6
Continuous
 62
     9
100
AcDbLine
 10
1433.00003186293
 20
37.49999227281569
 30
0.0
 11
1432.000031862772
 21
37.49999227281569
 31
0.0
  0
LINE
  5
D72
330
2
100
AcDbEntity
  8
0
  6
Continuous
 62
     9
100
AcDbLine
 10
1432.000031862772
 20
32.49999227281615
 30
0.0
 11
1433.000031862613
 21
32.49999227281615
 31
0.0
  0
LINE
  5
D73
330
2
100
AcDbEntity
  8
0
  6
Continuous
 62
     9
100
AcDbLine
 10
2586.000031910402
 20
32.49999227029275
 30
0.0
 11
2587.000031910562
 21
32.49999227035551
 31
0.0
  0
LINE
  5
D74
330
2
100
AcDbEntity
  8
0
  6
Continuous
 62
     9
100
AcDbLine
 10
2587.000031910253
 20
37.49999227035551
 30
0.0
 11
2586.000031910402
 21
37.49999227029366
 31
0.0
  0
LINE
  5
D75
330
2
100
AcDbEntity
  8
0
  6
Continuous
 62
     9
100
AcDbLine
 10
1981.12503186594
 20
65.49999220525979
 30
0.0
 11
1981.125031865811
 21
63.50001220526064
 31
0.0
  0
LINE
  5
D76
330
2
100
AcDbEntity
  8
0
  6
Continuous
 62
     9
100
AcDbLine
 10
1981.125031865491
 20
58.49997220532168
 30
0.0
 11
1981.125031865453
 21
57.87499220525979
 31
0.0
  0
LINE
  5
D77
330
2
100
AcDbEntity
  8
0
  6
Continuous
 62
     9
100
AcDbLine
 10
1987.875031865453
 20
57.8749922048305
 30
0.0
 11
1987.875031865491
 21
58.49997220489285
 31
0.0
  0
LINE
  5
D78
330
2
100
AcDbEntity
  8
0
  6
Continuous
 62
     9
100
AcDbLine
 10
1987.875031865811
 20
63.50001220483045
 30
0.0
 11
1987.87503186594
 21
65.49999220483051
 31
0.0
  0
LINE
  5
D79
330
2
100
AcDbEntity
  8
0
  6
Continuous
 62
     9
100
AcDbLine
 10
2006.12503190013
 20
65.49999220366953
 30
0.0
 11
2006.125031900014
 21
63.50001220364084
 31
0.0
  0
LINE
  5
D7A
330
2
100
AcDbEntity
  8
0
  6
Continuous
 62
     9
100
AcDbLine
 10
2006.12503189969
 20
58.49997220376053
 30
0.0
 11
2006.125031899653
 21
57.87499220366953
 31
0.0
  0
LINE
  5
D7B
330
2
100
AcDbEntity
  8
0
  6
Continuous
 62
     9
100
AcDbLine
 10
2012.875031899653
 20
57.87499220324071
 30
0.0
 11
2012.87503189969
 21
58.49997220333034
 31
0.0
  0
LINE
  5
D7C
330
2
100
AcDbEntity
  8
0
  6
Continuous
 62
     9
100
AcDbLine
 10
2012.875031900014
 20
63.50001220321201
 30
0.0
 11
2012.87503190013
 21
65.49999220323934
 31
0.0
  0
ARC
  5
D7D
330
2
100
AcDbEntity
  8
0
  6
Continuous
 62
     7
100
AcDbCircle
 10
2585.000031911281
 20
77.49999226676163
 30
0.0
 40
0.5000000000001671
100
AcDbArc
 50
89.99999999635228
 51
179.9999999963262
  0
LINE
  5
D7E
330
2
100
AcDbEntity
  8
0
  6
Continuous
 62
     7
100
AcDbLine
 10
2586.00003191042
 20
47.99999226669751
 30
0.0
 11
2587.500031909422
 21
47.99999226660247
 31
0.0
  0
LINE
  5
D7F
330
2
100
AcDbEntity
  8
0
  6
Continuous
 62
     7
100
AcDbLine
 10
2587.500031911312
 20
77.99999226660247
 30
0.0
 11
2585.000031911312
 21
77.99999226676163
 31
0.0
  0
LINE
  5
D80
330
2
100
AcDbEntity
  8
0
  6
Continuous
 62
     7
100
AcDbLine
 10
2562.000031910371
 20
22.49999226679256
 30
0.0
 11
2562.000031910371
 21
24.99999226679256
 31
0.0
  0
ARC
  5
D81
330
2
100
AcDbEntity
  8
0
  6
Continuous
 62
     7
100
AcDbCircle
 10
2561.500031910371
 20
24.99999226679256
 30
0.0
 40
0.4999999999988347
100
AcDbArc
 50
0.0
 51
90.0
  0
LINE
  5
D82
330
2
100
AcDbEntity
  8
0
  6
Continuous
 62
     7
100
AcDbLine
 10
2588.000031911273
 20
77.249992266572
 30
0.0
 11
2587.500031911273
 21
77.24999226660338
 31
0.0
  0
LINE
  5
D83
330
2
100
AcDbEntity
  8
0
  6
Continuous
 62
     7
100
AcDbLine
 10
2587.500031909462
 20
48.74999226660247
 30
0.0
 11
2588.000031909462
 21
48.74999226657064
 31
0.0
  0
LINE
  5
D84
330
2
100
AcDbEntity
  8
0
  6
Continuous
 62
     7
100
AcDbLine
 10
2561.250031910362
 20
21.99999226679256
 30
0.0
 11
2561.250031910362
 21
22.49999226724867
 31
0.0
  0
LINE
  5
D85
330
2
100
AcDbEntity
  8
0
  6
Continuous
 62
     7
100
AcDbLine
 10
1431.500031864821
 20
773.2499922722763
 30
0.0
 11
1431.000031864503
 21
773.2499922722445
 31
0.0
  0
LINE
  5
D86
330
2
100
AcDbEntity
  8
0
  6
Continuous
 62
     7
100
AcDbLine
 10
1431.000031866373
 20
744.7499922722435
 30
0.0
 11
1431.500031864862
 21
744.7499922722776
 31
0.0
  0
ARC
  5
D87
330
2
100
AcDbEntity
  8
0
  6
Continuous
 62
     7
100
AcDbCircle
 10
1434.000031865413
 20
773.4999922723122
 30
0.0
 40
0.5000000000006111
100
AcDbArc
 50
0.0000000001042204
 51
90.00000000010421
  0
ARC
  5
D88
330
2
100
AcDbEntity
  8
0
  6
Continuous
 62
     7
100
AcDbCircle
 10
1434.000031865462
 20
744.4999922723122
 30
0.0
 40
0.5000000000001671
100
AcDbArc
 50
270.0
 51
0.0
  0
LINE
  5
D89
330
2
100
AcDbEntity
  8
0
  6
Continuous
 62
     7
100
AcDbLine
 10
1434.000031865413
 20
773.9999922723122
 30
0.0
 11
1431.500031865413
 21
773.9999922723095
 31
0.0
  0
LINE
  5
D8A
330
2
100
AcDbEntity
  8
0
  6
Continuous
 62
     7
100
AcDbLine
 10
1431.500031865462
 20
743.9999922723086
 30
0.0
 11
1434.000031865462
 21
743.9999922723123
 31
0.0
  0
LINE
  5
D8B
330
2
100
AcDbEntity
  8
0
  6
Continuous
 62
     7
100
AcDbLine
 10
2587.500031863143
 20
744.7499922669358
 30
0.0
 11
2588.000031862232
 21
744.7499922669285
 31
0.0
  0
LINE
  5
D8C
330
2
100
AcDbEntity
  8
0
  6
Continuous
 62
     7
100
AcDbLine
 10
2588.000031862613
 20
773.2499922669285
 30
0.0
 11
2587.500031861702
 21
773.2499922669358
 31
0.0
  0
LINE
  5
D8D
330
2
100
AcDbEntity
  8
0
  6
Continuous
 62
     7
100
AcDbLine
 10
2585.000031863181
 20
743.9999922668407
 30
0.0
 11
2587.500031863181
 21
743.9999922669662
 31
0.0
  0
LINE
  5
D8E
330
2
100
AcDbEntity
  8
0
  6
Continuous
 62
     7
100
AcDbLine
 10
2587.500031861664
 20
773.9999922669676
 30
0.0
 11
2585.000031861664
 21
773.9999922668407
 31
0.0
  0
ARC
  5
D8F
330
2
100
AcDbEntity
  8
0
  6
Continuous
 62
     7
100
AcDbCircle
 10
2585.000031863163
 20
744.4999922668407
 30
0.0
 40
0.5000000000006111
100
AcDbArc
 50
180.0000000028921
 51
270.0000000029182
  0
ARC
  5
D90
330
2
100
AcDbEntity
  8
0
  6
Continuous
 62
     7
100
AcDbCircle
 10
2585.000031861693
 20
773.4999922668407
 30
0.0
 40
0.5000000000001671
100
AcDbArc
 50
90.00000000281394
 51
180.000000002866
  0
LINE
  5
D91
330
2
100
AcDbEntity
  8
0
  6
Continuous
 62
     7
100
AcDbLine
 10
1422.000031862771
 20
47.49999227281569
 30
0.0
 11
1416.300031862762
 21
47.49999227281569
 31
0.0
  0
LINE
  5
D92
330
2
100
AcDbEntity
  8
0
  6
Continuous
 62
     7
100
AcDbLine
 10
1416.300031862762
 20
22.49999227281614
 30
0.0
 11
1422.000031862771
 21
22.49999227281614
 31
0.0
  0
LINE
  5
D93
330
2
100
AcDbEntity
  8
0
  6
Continuous
 62
     7
100
AcDbLine
 10
1416.300031862762
 20
47.49999227281569
 30
0.0
 11
1416.000031862772
 21
47.1999922728155
 31
0.0
  0
LINE
  5
D94
330
2
100
AcDbEntity
  8
0
  6
Continuous
 62
     7
100
AcDbLine
 10
1416.000031862772
 20
22.79999227281587
 30
0.0
 11
1416.300031862762
 21
22.49999227281614
 31
0.0
  0
LINE
  5
D95
330
2
100
AcDbEntity
  8
0
  6
Continuous
 62
     7
100
AcDbLine
 10
1433.000031862962
 20
37.99999227281569
 30
0.0
 11
1432.000031863205
 21
37.99999227281569
 31
0.0
  0
LINE
  5
D96
330
2
100
AcDbEntity
  8
0
  6
Continuous
 62
     7
100
AcDbLine
 10
1432.000031863205
 20
37.99999227281569
 30
0.0
 11
1431.995031862772
 21
37.99999227281569
 31
0.0
  0
LINE
  5
D97
330
2
100
AcDbEntity
  8
0
  6
Continuous
 62
     7
100
AcDbLine
 10
1431.995031862772
 20
31.99999227281569
 30
0.0
 11
1432.000031863212
 21
31.99999227281569
 31
0.0
  0
LINE
  5
D98
330
2
100
AcDbEntity
  8
0
  6
Continuous
 62
     7
100
AcDbLine
 10
1432.000031863212
 20
31.99999227281569
 30
0.0
 11
1433.000031862581
 21
31.99999227281569
 31
0.0
  0
LINE
  5
D99
330
2
100
AcDbEntity
  8
0
  6
Continuous
 62
     7
100
AcDbLine
 10
1432.005031862771
 20
37.99999227281569
 30
0.0
 11
1432.000031863205
 21
37.99999227281569
 31
0.0
  0
LINE
  5
D9A
330
2
100
AcDbEntity
  8
0
  6
Continuous
 62
     7
100
AcDbLine
 10
1432.000031863205
 20
37.99999227281569
 30
0.0
 11
1431.000031862772
 21
37.99999227281569
 31
0.0
  0
LINE
  5
D9B
330
2
100
AcDbEntity
  8
0
  6
Continuous
 62
     7
100
AcDbLine
 10
1431.000031862772
 20
31.99999227281569
 30
0.0
 11
1432.000031863212
 21
31.99999227281569
 31
0.0
  0
LINE
  5
D9C
330
2
100
AcDbEntity
  8
0
  6
Continuous
 62
     7
100
AcDbLine
 10
1432.000031863212
 20
31.99999227281569
 30
0.0
 11
1432.005031862771
 21
31.99999227281569
 31
0.0
  0
LINE
  5
D9D
330
2
100
AcDbEntity
  8
0
  6
Continuous
 62
     7
100
AcDbLine
 10
1422.000031862013
 20
22.99999227440276
 30
0.0
 11
1423.000031862013
 21
22.99999227433955
 31
0.0
  0
LINE
  5
D9E
330
2
100
AcDbEntity
  8
0
  6
Continuous
 62
     7
100
AcDbLine
 10
1423.00003186353
 20
46.99999227433955
 30
0.0
 11
1422.00003186353
 21
46.99999227440275
 31
0.0
  0
LINE
  5
D9F
330
2
100
AcDbEntity
  8
0
  6
Continuous
 62
     7
100
AcDbLine
 10
1433.00003186188
 20
20.99999227345188
 30
0.0
 11
1434.00003186188
 21
20.99999227338776
 31
0.0
  0
LINE
  5
DA0
330
2
100
AcDbEntity
  8
0
  6
Continuous
 62
     7
100
AcDbLine
 10
1434.000031863663
 20
48.99999227338776
 30
0.0
 11
1433.000031863663
 21
48.99999227345188
 31
0.0
  0
LINE
  5
DA1
330
2
100
AcDbEntity
  8
0
  6
Continuous
 62
     7
100
AcDbLine
 10
1435.000031862772
 20
19.99999227345188
 30
0.0
 11
1437.000031862772
 21
19.99999227345051
 31
0.0
  0
ARC
  5
DA2
330
2
100
AcDbEntity
  8
0
  6
Continuous
 62
     7
100
AcDbCircle
 10
1435.000031862772
 20
20.99999227345188
 30
0.0
 40
0.9999999999994455
100
AcDbArc
 50
180.0
 51
270.0
  0
LINE
  5
DA3
330
2
100
AcDbEntity
  8
0
  6
Continuous
 62
     7
100
AcDbLine
 10
2602.70003191118
 20
22.49999227133367
 30
0.0
 11
2603.000031911173
 21
22.79999227135249
 31
0.0
  0
LINE
  5
DA4
330
2
100
AcDbEntity
  8
0
  6
Continuous
 62
     7
100
AcDbLine
 10
2603.000031909651
 20
47.19999227135258
 30
0.0
 11
2602.700031909632
 21
47.49999227133367
 31
0.0
  0
LINE
  5
DA5
330
2
100
AcDbEntity
  8
0
  6
Continuous
 62
     7
100
AcDbLine
 10
2597.000031911181
 20
22.49999227097851
 30
0.0
 11
2602.70003191118
 21
22.49999227133367
 31
0.0
  0
LINE
  5
DA6
330
2
100
AcDbEntity
  8
0
  6
Continuous
 62
     7
100
AcDbLine
 10
2602.700031909632
 20
47.49999227133367
 30
0.0
 11
2597.000031909633
 21
47.49999227097851
 31
0.0
  0
LINE
  5
DA7
330
2
100
AcDbEntity
  8
0
  6
Continuous
 62
     7
100
AcDbLine
 10
2586.995031910592
 20
31.99999227035551
 30
0.0
 11
2588.000031910591
 21
31.99999227041781
 31
0.0
  0
LINE
  5
DA8
330
2
100
AcDbEntity
  8
0
  6
Continuous
 62
     7
100
AcDbLine
 10
2588.000031910213
 20
37.99999227041781
 30
0.0
 11
2587.000031910224
 21
37.99999227035551
 31
0.0
  0
LINE
  5
DA9
330
2
100
AcDbEntity
  8
0
  6
Continuous
 62
     7
100
AcDbLine
 10
2587.000031910224
 20
37.99999227035551
 30
0.0
 11
2586.995031910223
 21
37.99999227035551
 31
0.0
  0
LINE
  5
DAA
330
2
100
AcDbEntity
  8
0
  6
Continuous
 62
     7
100
AcDbLine
 10
2586.000031910402
 20
31.99999227029366
 30
0.0
 11
2587.005031910592
 21
31.99999227035642
 31
0.0
  0
LINE
  5
DAB
330
2
100
AcDbEntity
  8
0
  6
Continuous
 62
     7
100
AcDbLine
 10
2587.005031910223
 20
37.99999227035641
 30
0.0
 11
2587.000031910224
 21
37.99999227035551
 31
0.0
  0
LINE
  5
DAC
330
2
100
AcDbEntity
  8
0
  6
Continuous
 62
     7
100
AcDbLine
 10
2587.000031910224
 20
37.99999227035551
 30
0.0
 11
2586.000031910402
 21
37.99999227029366
 31
0.0
  0
LINE
  5
DAD
330
2
100
AcDbEntity
  8
0
  6
Continuous
 62
     7
100
AcDbLine
 10
2597.000031910413
 20
46.99999226939143
 30
0.0
 11
2596.000031910413
 21
46.99999226939235
 31
0.0
  0
LINE
  5
DAE
330
2
100
AcDbEntity
  8
0
  6
Continuous
 62
     7
100
AcDbLine
 10
2596.000031910382
 20
22.99999226939235
 30
0.0
 11
2597.000031910382
 21
22.99999226939144
 31
0.0
  0
LINE
  5
DAF
330
2
100
AcDbEntity
  8
0
  6
Continuous
 62
     7
100
AcDbLine
 10
2586.00003191042
 20
48.99999226965838
 30
0.0
 11
2585.00003191042
 21
48.99999226965838
 31
0.0
  0
ARC
  5
DB0
330
2
100
AcDbEntity
  8
0
  6
Continuous
 62
     7
100
AcDbCircle
 10
2584.000031909532
 20
48.99999226953468
 30
0.0
 40
0.9999999999994455
100
AcDbArc
 50
0.0000000035695492
 51
90.00000000354347
  0
LINE
  5
DB1
330
2
100
AcDbEntity
  8
0
  6
Continuous
 62
     7
100
AcDbLine
 10
2584.000031909471
 20
49.99999226953469
 30
0.0
 11
2582.000031909471
 21
49.99999226940918
 31
0.0
  0
LINE
  5
DB2
330
2
100
AcDbEntity
  8
0
  6
Continuous
 62
    92
100
AcDbLine
 10
2444.457066007113
 20
32.69999232155169
 30
0.0
 11
2448.000031862422
 21
32.69999232166356
 31
0.0
  0
LINE
  5
DB3
330
2
100
AcDbEntity
  8
0
  6
Continuous
 62
    92
100
AcDbLine
 10
2448.000031862271
 20
37.69999232166356
 30
0.0
 11
2444.549313728383
 21
37.69999232155488
 31
0.0
  0
LINE
  5
DB4
330
2
100
AcDbEntity
  8
0
  6
Continuous
 62
     7
100
AcDbLine
 10
1483.500031863872
 20
43.49999221886082
 30
0.0
 11
1483.500031863901
 21
42.99999227127137
 31
0.0
  0
LINE
  5
DB5
330
2
100
AcDbEntity
  8
0
  6
Continuous
 62
     7
100
AcDbLine
 10
1498.500031863912
 20
42.99999227127318
 30
0.0
 11
1498.500031863879
 21
43.49999221791631
 31
0.0
  0
LINE
  5
DB6
330
2
100
AcDbEntity
  8
0
  6
Continuous
 62
     7
100
AcDbLine
 10
1479.000031863052
 20
47.99999227155467
 30
0.0
 11
1479.000031863052
 21
46.99999227155467
 31
0.0
  0
LINE
  5
DB7
330
2
100
AcDbEntity
  8
0
  6
Continuous
 62
     7
100
AcDbLine
 10
1503.000031863062
 20
46.99999227155831
 30
0.0
 11
1503.000031863062
 21
47.99999227155786
 31
0.0
  0
LINE
  5
DB8
330
2
100
AcDbEntity
  8
0
  6
Continuous
 62
     7
100
AcDbLine
 10
1477.000031863052
 20
56.99999227155331
 30
0.0
 11
1477.000031863052
 21
55.99999227155331
 31
0.0
  0
LINE
  5
DB9
330
2
100
AcDbEntity
  8
0
  6
Continuous
 62
     7
100
AcDbLine
 10
1501.000031863052
 20
55.99999227155786
 30
0.0
 11
1501.000031863052
 21
56.99999227155649
 31
0.0
  0
LINE
  5
DBA
330
2
100
AcDbEntity
  8
0
  6
Continuous
 62
     7
100
AcDbLine
 10
1478.500031863052
 20
26.49999227155831
 30
0.0
 11
1478.500031863052
 21
25.53589065642063
 31
0.0
  0
LINE
  5
DBB
330
2
100
AcDbEntity
  8
0
  6
Continuous
 62
     7
100
AcDbLine
 10
1503.500031863063
 20
25.53589065642473
 30
0.0
 11
1503.500031863063
 21
26.4999922715615
 31
0.0
  0
LINE
  5
DBC
330
2
100
AcDbEntity
  8
0
  6
Continuous
 62
     7
100
AcDbLine
 10
1478.500031863052
 20
25.53589065642063
 30
0.0
 11
1480.500031863052
 21
24.99999227155831
 31
0.0
  0
LINE
  5
DBD
330
2
100
AcDbEntity
  8
0
  6
Continuous
 62
     7
100
AcDbLine
 10
1501.500031863063
 20
24.9999922715615
 30
0.0
 11
1503.500031863063
 21
25.53589065642473
 31
0.0
  0
LINE
  5
DBE
330
2
100
AcDbEntity
  8
0
  6
Continuous
 62
     7
100
AcDbLine
 10
1485.500031863051
 20
26.99999227123135
 30
0.0
 11
1485.500031863051
 21
26.49999227155831
 31
0.0
  0
LINE
  5
DBF
330
2
100
AcDbEntity
  8
0
  6
Continuous
 62
     7
100
AcDbLine
 10
1496.500031863063
 20
26.49999227156104
 30
0.0
 11
1496.500031863063
 21
26.99999227123362
 31
0.0
  0
LINE
  5
DC0
330
2
100
AcDbEntity
  8
0
  6
Continuous
 62
     7
100
AcDbLine
 10
1501.500031863051
 20
62.69999227155768
 30
0.0
 11
1501.200031863052
 21
62.99999227155786
 31
0.0
  0
LINE
  5
DC1
330
2
100
AcDbEntity
  8
0
  6
Continuous
 62
     7
100
AcDbLine
 10
1476.800031863053
 20
62.99999227155467
 30
0.0
 11
1476.500031863052
 21
62.69999227155358
 31
0.0
  0
LINE
  5
DC2
330
2
100
AcDbEntity
  8
0
  6
Continuous
 62
     7
100
AcDbLine
 10
1501.500031863051
 20
56.99999227155649
 30
0.0
 11
1501.500031863051
 21
62.69999227155768
 31
0.0
  0
LINE
  5
DC3
330
2
100
AcDbEntity
  8
0
  6
Continuous
 62
     7
100
AcDbLine
 10
1476.500031863052
 20
62.69999227155358
 30
0.0
 11
1476.500031863052
 21
56.99999227155331
 31
0.0
  0
ARC
  5
DC4
330
2
100
AcDbEntity
  8
0
  6
Continuous
 62
     7
100
AcDbCircle
 10
1479.000031863052
 20
42.49999227155831
 30
0.0
 40
0.5000000000001671
100
AcDbArc
 50
89.99999999979156
 51
179.9999999998957
  0
ARC
  5
DC5
330
2
100
AcDbEntity
  8
0
  6
Continuous
 62
     7
100
AcDbCircle
 10
1503.000031863062
 20
42.49999227156149
 30
0.0
 40
0.4999999999988347
100
AcDbArc
 50
0.0
 51
90.00000000010421
  0
LINE
  5
DC6
330
2
100
AcDbEntity
  8
0
  6
Continuous
 62
     7
100
AcDbLine
 10
1478.500031863052
 20
42.49999227155831
 30
0.0
 11
1478.500031863052
 21
40.1499922715584
 31
0.0
  0
LINE
  5
DC7
330
2
100
AcDbEntity
  8
0
  6
Continuous
 62
     7
100
AcDbLine
 10
1503.500031863063
 20
40.14999227156249
 30
0.0
 11
1503.500031863063
 21
42.49999227156149
 31
0.0
  0
LINE
  5
DC8
330
2
100
AcDbEntity
  8
0
  6
Continuous
 62
     7
100
AcDbLine
 10
1478.500031863052
 20
29.84999227155822
 30
0.0
 11
1478.500031863052
 21
27.49999227155786
 31
0.0
  0
LINE
  5
DC9
330
2
100
AcDbEntity
  8
0
  6
Continuous
 62
     7
100
AcDbLine
 10
1503.500031863063
 20
27.4999922715615
 30
0.0
 11
1503.500031863063
 21
29.84999227156141
 31
0.0
  0
ARC
  5
DCA
330
2
100
AcDbEntity
  8
0
  6
Continuous
 62
     7
100
AcDbCircle
 10
1503.000031863062
 20
27.4999922715615
 30
0.0
 40
0.5000000000001671
100
AcDbArc
 50
269.9999999997916
 51
359.9999999998958
  0
ARC
  5
DCB
330
2
100
AcDbEntity
  8
0
  6
Continuous
 62
     7
100
AcDbCircle
 10
1479.000031863052
 20
27.49999227155786
 30
0.0
 40
0.5000000000006111
100
AcDbArc
 50
180.0
 51
270.0000000001042
  0
ARC
  5
DCC
330
2
100
AcDbEntity
  8
0
  6
Continuous
 62
     7
100
AcDbCircle
 10
1502.500031863062
 20
38.64999227156159
 30
0.0
 40
1.500000000000055
100
AcDbArc
 50
90.0
 51
180.0
  0
ARC
  5
DCD
330
2
100
AcDbEntity
  8
0
  6
Continuous
 62
     7
100
AcDbCircle
 10
1479.500031863052
 20
38.6499922715584
 30
0.0
 40
1.500000000000055
100
AcDbArc
 50
0.0000000000260551
 51
90.0
  0
ARC
  5
DCE
330
2
100
AcDbEntity
  8
0
  6
Continuous
 62
     7
100
AcDbCircle
 10
1502.500031863062
 20
31.34999227156141
 30
0.0
 40
1.500000000000055
100
AcDbArc
 50
180.000000000026
 51
270.0
  0
ARC
  5
DCF
330
2
100
AcDbEntity
  8
0
  6
Continuous
 62
     7
100
AcDbCircle
 10
1479.500031863052
 20
31.34999227155822
 30
0.0
 40
1.500000000000055
100
AcDbArc
 50
270.0
 51
0.0
  0
LINE
  5
DD0
330
2
100
AcDbEntity
  8
0
  6
Continuous
 62
     7
100
AcDbLine
 10
1501.000031863062
 20
31.34999227156141
 30
0.0
 11
1501.000031863062
 21
38.64999227156159
 31
0.0
  0
LINE
  5
DD1
330
2
100
AcDbEntity
  8
0
  6
Continuous
 62
     7
100
AcDbLine
 10
1481.000031863052
 20
38.6499922715584
 30
0.0
 11
1481.000031863052
 21
31.34999227155822
 31
0.0
  0
LINE
  5
DD2
330
2
100
AcDbEntity
  8
0
  6
Continuous
 62
     7
100
AcDbLine
 10
1503.500031863063
 20
43.49999227156149
 30
0.0
 11
1503.500031863063
 21
46.99999227156149
 31
0.0
  0
LINE
  5
DD3
330
2
100
AcDbEntity
  8
0
  6
Continuous
 62
     7
100
AcDbLine
 10
1478.500031863052
 20
46.99999227155831
 30
0.0
 11
1478.500031863052
 21
43.49999227155786
 31
0.0
  0
ARC
  5
DD4
330
2
100
AcDbEntity
  8
0
  6
Continuous
 62
     7
100
AcDbCircle
 10
1484.500031863052
 20
42.99999227155831
 30
0.0
 40
0.5000000000001671
100
AcDbArc
 50
359.9999999999218
 51
89.99999999979156
  0
ARC
  5
DD5
330
2
100
AcDbEntity
  8
0
  6
Continuous
 62
     7
100
AcDbCircle
 10
1497.500031863063
 20
42.99999227156104
 30
0.0
 40
0.4999999999988347
100
AcDbArc
 50
90.00000000010421
 51
180.0
  0
LINE
  5
DD6
330
2
100
AcDbEntity
  8
0
  6
Continuous
 62
     7
100
AcDbLine
 10
1925.500031863879
 20
43.49999219103165
 30
0.0
 11
1925.500031863912
 21
42.99999227133366
 31
0.0
  0
LINE
  5
DD7
330
2
100
AcDbEntity
  8
0
  6
Continuous
 62
     7
100
AcDbLine
 10
1940.500031863901
 20
42.99999227133548
 30
0.0
 11
1940.500031863872
 21
43.49999219008668
 31
0.0
  0
LINE
  5
DD8
330
2
100
AcDbEntity
  8
0
  6
Continuous
 62
     7
100
AcDbLine
 10
1921.000031863062
 20
47.99999227161743
 30
0.0
 11
1921.000031863062
 21
46.99999227161742
 31
0.0
  0
LINE
  5
DD9
330
2
100
AcDbEntity
  8
0
  6
Continuous
 62
     7
100
AcDbLine
 10
1945.000031863052
 20
46.99999227162061
 30
0.0
 11
1945.000031863052
 21
47.99999227162061
 31
0.0
  0
LINE
  5
DDA
330
2
100
AcDbEntity
  8
0
  6
Continuous
 62
     7
100
AcDbLine
 10
1919.000031863063
 20
56.99999227161652
 30
0.0
 11
1919.000031863063
 21
55.99999227161652
 31
0.0
  0
LINE
  5
DDB
330
2
100
AcDbEntity
  8
0
  6
Continuous
 62
     7
100
AcDbLine
 10
1943.000031863041
 20
55.99999227161925
 30
0.0
 11
1943.000031863041
 21
56.99999227162061
 31
0.0
  0
LINE
  5
DDC
330
2
100
AcDbEntity
  8
0
  6
Continuous
 62
     7
100
AcDbLine
 10
1920.500031863063
 20
26.49999227162061
 30
0.0
 11
1920.500031863063
 21
25.53589065648294
 31
0.0
  0
LINE
  5
DDD
330
2
100
AcDbEntity
  8
0
  6
Continuous
 62
     7
100
AcDbLine
 10
1945.500031863051
 20
25.53589065648657
 30
0.0
 11
1945.500031863051
 21
26.49999227162425
 31
0.0
  0
LINE
  5
DDE
330
2
100
AcDbEntity
  8
0
  6
Continuous
 62
     7
100
AcDbLine
 10
1920.500031863063
 20
25.53589065648294
 30
0.0
 11
1922.500031863062
 21
24.99999227162107
 31
0.0
  0
LINE
  5
DDF
330
2
100
AcDbEntity
  8
0
  6
Continuous
 62
     7
100
AcDbLine
 10
1943.500031863052
 20
24.9999922716238
 30
0.0
 11
1945.500031863051
 21
25.53589065648657
 31
0.0
  0
LINE
  5
DE0
330
2
100
AcDbEntity
  8
0
  6
Continuous
 62
     7
100
AcDbLine
 10
1927.500031863063
 20
26.99999227129365
 30
0.0
 11
1927.500031863063
 21
26.49999227162107
 31
0.0
  0
LINE
  5
DE1
330
2
100
AcDbEntity
  8
0
  6
Continuous
 62
     7
100
AcDbLine
 10
1938.500031863052
 20
26.4999922716238
 30
0.0
 11
1938.500031863052
 21
26.99999227129547
 31
0.0
  0
LINE
  5
DE2
330
2
100
AcDbEntity
  8
0
  6
Continuous
 62
     7
100
AcDbLine
 10
1943.500031863052
 20
62.69999227161952
 30
0.0
 11
1943.200031863052
 21
62.99999227161925
 31
0.0
  0
LINE
  5
DE3
330
2
100
AcDbEntity
  8
0
  6
Continuous
 62
     7
100
AcDbLine
 10
1918.800031863062
 20
62.99999227161652
 30
0.0
 11
1918.500031863052
 21
62.69999227161633
 31
0.0
  0
LINE
  5
DE4
330
2
100
AcDbEntity
  8
0
  6
Continuous
 62
     7
100
AcDbLine
 10
1943.500031863052
 20
56.99999227162061
 30
0.0
 11
1943.500031863052
 21
62.69999227161952
 31
0.0
  0
LINE
  5
DE5
330
2
100
AcDbEntity
  8
0
  6
Continuous
 62
     7
100
AcDbLine
 10
1918.500031863052
 20
62.69999227161633
 30
0.0
 11
1918.500031863052
 21
56.99999227161652
 31
0.0
  0
ARC
  5
DE6
330
2
100
AcDbEntity
  8
0
  6
Continuous
 62
     7
100
AcDbCircle
 10
1921.000031863062
 20
42.49999227162061
 30
0.0
 40
0.5000000000001671
100
AcDbArc
 50
89.99999999979156
 51
179.9999999999218
  0
ARC
  5
DE7
330
2
100
AcDbEntity
  8
0
  6
Continuous
 62
     7
100
AcDbCircle
 10
1945.000031863052
 20
42.49999227162425
 30
0.0
 40
0.5000000000006111
100
AcDbArc
 50
0.0
 51
90.00000000010421
  0
LINE
  5
DE8
330
2
100
AcDbEntity
  8
0
  6
Continuous
 62
     7
100
AcDbLine
 10
1920.500031863063
 20
42.49999227162061
 30
0.0
 11
1920.500031863063
 21
40.1499922716207
 31
0.0
  0
LINE
  5
DE9
330
2
100
AcDbEntity
  8
0
  6
Continuous
 62
     7
100
AcDbLine
 10
1945.500031863051
 20
40.14999227162434
 30
0.0
 11
1945.500031863051
 21
42.49999227162425
 31
0.0
  0
LINE
  5
DEA
330
2
100
AcDbEntity
  8
0
  6
Continuous
 62
     7
100
AcDbLine
 10
1920.500031863063
 20
29.84999227162052
 30
0.0
 11
1920.500031863063
 21
27.49999227162061
 31
0.0
  0
LINE
  5
DEB
330
2
100
AcDbEntity
  8
0
  6
Continuous
 62
     7
100
AcDbLine
 10
1945.500031863051
 20
27.4999922716238
 30
0.0
 11
1945.500031863051
 21
29.84999227162371
 31
0.0
  0
ARC
  5
DEC
330
2
100
AcDbEntity
  8
0
  6
Continuous
 62
     7
100
AcDbCircle
 10
1945.000031863052
 20
27.4999922716238
 30
0.0
 40
0.5000000000001671
100
AcDbArc
 50
269.9999999997916
 51
359.9999999999218
  0
ARC
  5
DED
330
2
100
AcDbEntity
  8
0
  6
Continuous
 62
     7
100
AcDbCircle
 10
1921.000031863062
 20
27.49999227162061
 30
0.0
 40
0.4999999999988347
100
AcDbArc
 50
180.0
 51
270.0000000001042
  0
ARC
  5
DEE
330
2
100
AcDbEntity
  8
0
  6
Continuous
 62
     7
100
AcDbCircle
 10
1944.500031863052
 20
38.64999227162434
 30
0.0
 40
1.500000000000055
100
AcDbArc
 50
90.0
 51
180.0
  0
ARC
  5
DEF
330
2
100
AcDbEntity
  8
0
  6
Continuous
 62
     7
100
AcDbCircle
 10
1921.500031863063
 20
38.64999227162071
 30
0.0
 40
1.500000000000055
100
AcDbArc
 50
0.0000000000260551
 51
90.0
  0
ARC
  5
DF0
330
2
100
AcDbEntity
  8
0
  6
Continuous
 62
     7
100
AcDbCircle
 10
1944.500031863052
 20
31.34999227162371
 30
0.0
 40
1.500000000000055
100
AcDbArc
 50
180.000000000026
 51
270.0
  0
ARC
  5
DF1
330
2
100
AcDbEntity
  8
0
  6
Continuous
 62
     7
100
AcDbCircle
 10
1921.500031863063
 20
31.34999227162052
 30
0.0
 40
1.500000000000055
100
AcDbArc
 50
270.0
 51
0.0
  0
LINE
  5
DF2
330
2
100
AcDbEntity
  8
0
  6
Continuous
 62
     7
100
AcDbLine
 10
1943.000031863052
 20
31.34999227162371
 30
0.0
 11
1943.000031863052
 21
38.64999227162434
 31
0.0
  0
LINE
  5
DF3
330
2
100
AcDbEntity
  8
0
  6
Continuous
 62
     7
100
AcDbLine
 10
1923.000031863062
 20
38.64999227162071
 30
0.0
 11
1923.000031863062
 21
31.34999227162052
 31
0.0
  0
LINE
  5
DF4
330
2
100
AcDbEntity
  8
0
  6
Continuous
 62
     7
100
AcDbLine
 10
1945.500031863051
 20
43.49999227162379
 30
0.0
 11
1945.500031863051
 21
46.99999227162424
 31
0.0
  0
LINE
  5
DF5
330
2
100
AcDbEntity
  8
0
  6
Continuous
 62
     7
100
AcDbLine
 10
1920.500031863063
 20
46.99999227162061
 30
0.0
 11
1920.500031863063
 21
43.49999227162061
 31
0.0
  0
ARC
  5
DF6
330
2
100
AcDbEntity
  8
0
  6
Continuous
 62
     7
100
AcDbCircle
 10
1926.500031863052
 20
42.99999227162106
 30
0.0
 40
0.5000000000001671
100
AcDbArc
 50
359.9999999999218
 51
89.99999999979156
  0
ARC
  5
DF7
330
2
100
AcDbEntity
  8
0
  6
Continuous
 62
     7
100
AcDbCircle
 10
1939.500031863052
 20
42.99999227162243
 30
0.0
 40
0.5000000000006111
100
AcDbArc
 50
90.00000000010421
 51
180.0
  0
LINE
  5
DF8
330
2
100
AcDbEntity
  8
0
  6
Continuous
 62
     7
100
AcDbLine
 10
2023.000031861689
 20
13.99999227207536
 30
0.0
 11
2023.000031861589
 21
12.99999227207536
 31
0.0
  0
LINE
  5
DF9
330
2
100
AcDbEntity
  8
0
  6
Continuous
 62
     7
100
AcDbLine
 10
2047.000031861589
 20
12.99999226975478
 30
0.0
 11
2047.000031861689
 21
13.99999226975524
 31
0.0
  0
LINE
  5
DFA
330
2
100
AcDbEntity
  8
0
  6
Continuous
 62
     7
100
AcDbLine
 10
2044.500031861953
 20
21.99999227122134
 30
0.0
 11
2044.500031861913
 21
22.99999227122135
 31
0.0
  0
LINE
  5
DFB
330
2
100
AcDbEntity
  8
0
  6
Continuous
 62
     7
100
AcDbLine
 10
2025.500031861913
 20
22.99999227060153
 30
0.0
 11
2025.500031861954
 21
21.99999227060243
 31
0.0
  0
LINE
  5
DFC
330
2
100
AcDbEntity
  8
0
  6
Continuous
 62
     7
100
AcDbLine
 10
2025.000031861253
 20
29.99999226995942
 30
0.0
 11
2025.000031861922
 21
22.99999226996033
 31
0.0
  0
LINE
  5
DFD
330
2
100
AcDbEntity
  8
0
  6
Continuous
 62
     7
100
AcDbLine
 10
2045.000031861922
 20
22.99999227186345
 30
0.0
 11
2045.000031861253
 21
29.99999227186345
 31
0.0
  0
LINE
  5
DFE
330
2
100
AcDbEntity
  8
0
  6
Continuous
 62
     7
100
AcDbLine
 10
2047.000031861631
 20
11.99999227053194
 30
0.0
 11
2047.000031861664
 21
12.99999227053195
 31
0.0
  0
LINE
  5
DFF
330
2
100
AcDbEntity
  8
0
  6
Continuous
 62
     7
100
AcDbLine
 10
2023.000031861664
 20
12.99999227129956
 30
0.0
 11
2023.000031861631
 21
11.99999227129956
 31
0.0
  0
LINE
  5
E00
330
2
100
AcDbEntity
  8
0
  6
Continuous
 62
     7
100
AcDbLine
 10
2022.500031859512
 20
6.2999922721051
 30
0.0
 11
2022.80003185948
 21
5.999992272076724
 31
0.0
  0
LINE
  5
E01
330
2
100
AcDbEntity
  8
0
  6
Continuous
 62
     7
100
AcDbLine
 10
2047.20003185948
 20
5.99999226975342
 30
0.0
 11
2047.500031859512
 21
6.299992269725407
 31
0.0
  0
LINE
  5
E02
330
2
100
AcDbEntity
  8
0
  6
Continuous
 62
     7
100
AcDbLine
 10
2022.500031860053
 20
11.99999227210537
 30
0.0
 11
2022.500031859512
 21
6.2999922721051
 31
0.0
  0
LINE
  5
E03
330
2
100
AcDbEntity
  8
0
  6
Continuous
 62
     7
100
AcDbLine
 10
2047.500031859512
 20
6.299992269725407
 30
0.0
 11
2047.500031860053
 21
11.99999226972568
 31
0.0
  0
LINE
  5
E04
330
2
100
AcDbEntity
  8
0
  6
Continuous
 62
     7
100
AcDbLine
 10
2523.000031864222
 20
13.99999227093349
 30
0.0
 11
2523.000031864222
 21
12.99999227093349
 31
0.0
  0
LINE
  5
E05
330
2
100
AcDbEntity
  8
0
  6
Continuous
 62
     7
100
AcDbLine
 10
2547.000031864222
 20
12.99999227089756
 30
0.0
 11
2547.000031864222
 21
13.99999227089756
 31
0.0
  0
LINE
  5
E06
330
2
100
AcDbEntity
  8
0
  6
Continuous
 62
     7
100
AcDbLine
 10
2544.500031863722
 20
21.99999227212538
 30
0.0
 11
2544.500031863592
 21
22.99999227212538
 31
0.0
  0
LINE
  5
E07
330
2
100
AcDbEntity
  8
0
  6
Continuous
 62
     7
100
AcDbLine
 10
2525.500031863592
 20
22.99999226969885
 30
0.0
 11
2525.500031863721
 21
21.99999226969885
 31
0.0
  0
LINE
  5
E08
330
2
100
AcDbEntity
  8
0
  6
Continuous
 62
     7
100
AcDbLine
 10
2525.000031862261
 20
29.99999226900854
 30
0.0
 11
2525.000031863593
 21
22.99999226900855
 31
0.0
  0
LINE
  5
E09
330
2
100
AcDbEntity
  8
0
  6
Continuous
 62
     7
100
AcDbLine
 10
2545.000031863593
 20
22.99999227281569
 30
0.0
 11
2545.000031862261
 21
29.99999227281569
 31
0.0
  0
LINE
  5
E0A
330
2
100
AcDbEntity
  8
0
  6
Continuous
 62
     7
100
AcDbLine
 10
2547.000031864351
 20
11.99999227167382
 30
0.0
 11
2547.000031864293
 21
12.99999227167382
 31
0.0
  0
LINE
  5
E0B
330
2
100
AcDbEntity
  8
0
  6
Continuous
 62
     7
100
AcDbLine
 10
2523.000031864293
 20
12.99999227015769
 30
0.0
 11
2523.000031864351
 21
11.99999227015769
 31
0.0
  0
LINE
  5
E0C
330
2
100
AcDbEntity
  8
0
  6
Continuous
 62
     7
100
AcDbLine
 10
2522.500031862772
 20
6.299992270916391
 30
0.0
 11
2522.800031862771
 21
5.999992270916209
 31
0.0
  0
LINE
  5
E0D
330
2
100
AcDbEntity
  8
0
  6
Continuous
 62
     7
100
AcDbLine
 10
2547.200031862772
 20
5.999992270916209
 30
0.0
 11
2547.500031862772
 21
6.299992270916391
 31
0.0
  0
LINE
  5
E0E
330
2
100
AcDbEntity
  8
0
  6
Continuous
 62
     7
100
AcDbLine
 10
2522.500031862772
 20
11.99999227091575
 30
0.0
 11
2522.500031862772
 21
6.299992270916391
 31
0.0
  0
LINE
  5
E0F
330
2
100
AcDbEntity
  8
0
  6
Continuous
 62
     7
100
AcDbLine
 10
2547.500031862772
 20
6.299992270916391
 30
0.0
 11
2547.500031862772
 21
11.99999227091575
 31
0.0
  0
LINE
  5
E10
330
2
100
AcDbEntity
  8
0
  6
Continuous
 62
     7
100
AcDbLine
 10
2002.50003186464
 20
46.49999220354311
 30
0.0
 11
2002.500031864833
 21
47.99999220354311
 31
0.0
  0
LINE
  5
E11
330
2
100
AcDbEntity
  8
0
  6
Continuous
 62
     7
100
AcDbLine
 10
1991.500031864832
 20
47.99999220495419
 30
0.0
 11
1991.50003186464
 21
46.49999220495556
 31
0.0
  0
LINE
  5
E12
330
2
100
AcDbEntity
  8
0
  6
Continuous
 62
     7
100
AcDbLine
 10
1989.500031863172
 20
22.49999220408654
 30
0.0
 11
1989.500031863172
 21
21.99999227275839
 31
0.0
  0
LINE
  5
E13
330
2
100
AcDbEntity
  8
0
  6
Continuous
 62
     7
100
AcDbLine
 10
2000.500031863172
 20
21.99999227275839
 30
0.0
 11
2000.500031863172
 21
22.49999220338623
 31
0.0
  0
LINE
  5
E14
330
2
100
AcDbEntity
  8
0
  6
Continuous
 62
     7
100
AcDbLine
 10
1980.500031865491
 20
58.49999220529935
 30
0.0
 11
1981.125031865453
 21
57.87499220525979
 31
0.0
  0
LINE
  5
E15
330
2
100
AcDbEntity
  8
0
  6
Continuous
 62
     7
100
AcDbLine
 10
1981.125031865453
 20
57.87499220525979
 30
0.0
 11
1981.500031865431
 21
57.49999220523659
 31
0.0
  0
LINE
  5
E16
330
2
100
AcDbEntity
  8
0
  6
Continuous
 62
     7
100
AcDbLine
 10
1987.500031865431
 20
57.49999220485415
 30
0.0
 11
1987.875031865453
 21
57.8749922048305
 31
0.0
  0
LINE
  5
E17
330
2
100
AcDbEntity
  8
0
  6
Continuous
 62
     7
100
AcDbLine
 10
1987.875031865453
 20
57.8749922048305
 30
0.0
 11
1988.500031865491
 21
58.49999220479094
 31
0.0
  0
LINE
  5
E18
330
2
100
AcDbEntity
  8
0
  6
Continuous
 62
     7
100
AcDbLine
 10
1980.50003186594
 20
65.49999220529935
 30
0.0
 11
1980.500031865811
 21
63.50001156773624
 31
0.0
  0
LINE
  5
E19
330
2
100
AcDbEntity
  8
0
  6
Continuous
 62
     7
100
AcDbLine
 10
1988.500031865811
 20
63.50001156774078
 30
0.0
 11
1988.50003186594
 21
65.49999220479094
 31
0.0
  0
LINE
  5
E1A
330
2
100
AcDbEntity
  8
0
  6
Continuous
 62
     7
100
AcDbLine
 10
2005.50003189969
 20
58.4999922037091
 30
0.0
 11
2006.125031899653
 21
57.87499220366953
 31
0.0
  0
LINE
  5
E1B
330
2
100
AcDbEntity
  8
0
  6
Continuous
 62
     7
100
AcDbLine
 10
2006.125031899653
 20
57.87499220366953
 30
0.0
 11
2006.500031899623
 21
57.49999220364589
 31
0.0
  0
LINE
  5
E1C
330
2
100
AcDbEntity
  8
0
  6
Continuous
 62
     7
100
AcDbLine
 10
2012.500031899623
 20
57.4999922032639
 30
0.0
 11
2012.875031899653
 21
57.87499220324071
 31
0.0
  0
LINE
  5
E1D
330
2
100
AcDbEntity
  8
0
  6
Continuous
 62
     7
100
AcDbLine
 10
2012.875031899653
 20
57.87499220324071
 30
0.0
 11
2013.50003189969
 21
58.49999220320023
 31
0.0
  0
LINE
  5
E1E
330
2
100
AcDbEntity
  8
0
  6
Continuous
 62
     7
100
AcDbLine
 10
2005.50003190013
 20
65.49999220370864
 30
0.0
 11
2005.500031900014
 21
63.50001157496354
 31
0.0
  0
LINE
  5
E1F
330
2
100
AcDbEntity
  8
0
  6
Continuous
 62
     7
100
AcDbLine
 10
2013.500031900014
 20
63.5000115572675
 30
0.0
 11
2013.500031900131
 21
65.49999220320024
 31
0.0
  0
ARC
  5
E20
330
2
100
AcDbEntity
  8
0
  6
Continuous
 62
     7
100
AcDbCircle
 10
63.00003167119029
 20
1689.999992439569
 30
0.0
 40
12.85000000000034
100
AcDbArc
 50
184.4633283435442
 51
295.5366716465534
  0
LINE
  5
E21
330
2
100
AcDbEntity
  8
0
  6
Continuous
 62
     7
100
AcDbLine
 10
50.18900126758126
 20
1688.999992440679
 30
0.0
 11
50.03855027427016
 21
1688.999992440691
 31
0.0
  0
LINE
  5
E22
330
2
100
AcDbEntity
  8
0
  6
Continuous
 62
     7
100
AcDbLine
 10
50.03855027444115
 20
1690.999992440691
 30
0.0
 11
50.18900126775225
 21
1690.999992440678
 31
0.0
  0
ARC
  5
E23
330
2
100
AcDbEntity
  8
0
  6
Continuous
 62
     7
100
AcDbCircle
 10
63.00003167119029
 20
1689.999992439569
 30
0.0
 40
12.85000000000041
100
AcDbArc
 50
64.46332834351716
 51
175.5366716465281
  0
CIRCLE
  5
E24
330
2
100
AcDbEntity
  8
0
  6
Continuous
 62
     7
100
AcDbCircle
 10
63.00003167166323
 20
1695.499992439569
 30
0.0
 40
1.249999999999972
  0
CIRCLE
  5
E25
330
2
100
AcDbEntity
  8
0
  6
Continuous
 62
     7
100
AcDbCircle
 10
63.0000316707119
 20
1684.499992439569
 30
0.0
 40
1.249999999999972
  0
ARC
  5
E26
330
2
100
AcDbEntity
  8
0
  6
Continuous
 62
     7
100
AcDbCircle
 10
63.0000316711721
 20
1689.999992439588
 30
0.0
 40
12.99999999999991
100
AcDbArc
 50
217.9380781040949
 51
322.0343272427906
  0
ARC
  5
E27
330
2
100
AcDbEntity
  8
0
  6
Continuous
 62
     7
100
AcDbCircle
 10
73.39089136262192
 20
1683.997490055372
 30
0.0
 40
2.000000000000114
100
AcDbArc
 50
265.9306824458621
 51
34.04172290110059
  0
ARC
  5
E28
330
2
100
AcDbEntity
  8
0
  6
Continuous
 62
     7
100
AcDbCircle
 10
63.0000316711721
 20
1689.999992439588
 30
0.0
 40
13.00000000000024
100
AcDbArc
 50
337.9380781041386
 51
82.03432724279904
  0
ARC
  5
E29
330
2
100
AcDbEntity
  8
0
  6
Continuous
 62
     7
100
AcDbCircle
 10
63.00292137645374
 20
1701.999992091655
 30
0.0
 40
2.000000000000875
100
AcDbArc
 50
25.93068244582673
 51
154.0417229010817
  0
ARC
  5
E2A
330
2
100
AcDbEntity
  8
0
  6
Continuous
 62
     7
100
AcDbCircle
 10
63.0000316711721
 20
1689.999992439588
 30
0.0
 40
13.00000000000048
100
AcDbArc
 50
97.93807810409735
 51
202.0343272428128
  0
ARC
  5
E2B
330
2
100
AcDbEntity
  8
0
  6
Continuous
 62
     7
100
AcDbCircle
 10
52.60628227443158
 20
1684.002495171739
 30
0.0
 40
2.000000000000274
100
AcDbArc
 50
145.9306824458426
 51
274.0417229010797
  0
CIRCLE
  5
E2C
330
2
100
AcDbEntity
  8
0
  6
Continuous
 62
     7
100
AcDbCircle
 10
63.0000316711721
 20
1689.999992439588
 30
0.0
 40
15.00000000000012
  0
ARC
  5
E2D
330
2
100
AcDbEntity
  8
0
  6
Continuous
 62
     7
100
AcDbCircle
 10
63.00003172635297
 20
3389.999992438717
 30
0.0
 40
12.85000000000044
100
AcDbArc
 50
184.4633283435442
 51
295.5366716465534
  0
LINE
  5
E2E
330
2
100
AcDbEntity
  8
0
  6
Continuous
 62
     7
100
AcDbLine
 10
50.1890013227403
 20
3388.999992439825
 30
0.0
 11
50.03855032943102
 21
3388.999992439838
 31
0.0
  0
LINE
  5
E2F
330
2
100
AcDbEntity
  8
0
  6
Continuous
 62
     7
100
AcDbLine
 10
50.038550329602
 20
3390.999992439838
 30
0.0
 11
50.1890013229131
 21
3390.999992439826
 31
0.0
  0
ARC
  5
E30
330
2
100
AcDbEntity
  8
0
  6
Continuous
 62
     7
100
AcDbCircle
 10
63.00003172635297
 20
3389.999992438717
 30
0.0
 40
12.8500000000004
100
AcDbArc
 50
64.46332834351716
 51
175.5366716465281
  0
CIRCLE
  5
E31
330
2
100
AcDbEntity
  8
0
  6
Continuous
 62
     7
100
AcDbCircle
 10
63.00003172682227
 20
3395.499992438717
 30
0.0
 40
1.249999999999972
  0
CIRCLE
  5
E32
330
2
100
AcDbEntity
  8
0
  6
Continuous
 62
     7
100
AcDbCircle
 10
63.00003172587276
 20
3384.499992438716
 30
0.0
 40
1.249999999999972
  0
ARC
  5
E33
330
2
100
AcDbEntity
  8
0
  6
Continuous
 62
     7
100
AcDbCircle
 10
63.00003172633115
 20
3389.999992438735
 30
0.0
 40
13.00000000000001
100
AcDbArc
 50
217.9380781040949
 51
322.0343272427906
  0
ARC
  5
E34
330
2
100
AcDbEntity
  8
0
  6
Continuous
 62
     7
100
AcDbCircle
 10
73.39089141778095
 20
3383.997490054518
 30
0.0
 40
2.000000000000059
100
AcDbArc
 50
265.9306824458621
 51
34.04172290110059
  0
ARC
  5
E35
330
2
100
AcDbEntity
  8
0
  6
Continuous
 62
     7
100
AcDbCircle
 10
63.00003172633115
 20
3389.999992438735
 30
0.0
 40
13.00000000000024
100
AcDbArc
 50
337.9380781041386
 51
82.03432724279904
  0
ARC
  5
E36
330
2
100
AcDbEntity
  8
0
  6
Continuous
 62
     7
100
AcDbCircle
 10
63.00292143161278
 20
3401.999992090802
 30
0.0
 40
2.000000000000925
100
AcDbArc
 50
25.93068244582673
 51
154.0417229010817
  0
ARC
  5
E37
330
2
100
AcDbEntity
  8
0
  6
Continuous
 62
     7
100
AcDbCircle
 10
63.00003172633115
 20
3389.999992438735
 30
0.0
 40
13.00000000000015
100
AcDbArc
 50
97.93807810409735
 51
202.0343272428128
  0
ARC
  5
E38
330
2
100
AcDbEntity
  8
0
  6
Continuous
 62
     7
100
AcDbCircle
 10
52.60628232959061
 20
3384.002495170886
 30
0.0
 40
2.000000000000179
100
AcDbArc
 50
145.9306824458426
 51
274.0417229010797
  0
CIRCLE
  5
E39
330
2
100
AcDbEntity
  8
0
  6
Continuous
 62
     7
100
AcDbCircle
 10
63.00003172633115
 20
3389.999992438735
 30
0.0
 40
14.9999999999999
  0
LINE
  5
E3A
330
2
100
AcDbEntity
  8
0
  6
Continuous
 62
     7
100
AcDbLine
 10
753.0844628449394
 20
1677.753929244978
 30
0.0
 11
753.4605403764217
 21
1678.40531463716
 31
0.0
  0
ARC
  5
E3B
330
2
100
AcDbEntity
  8
0
  6
Continuous
 62
     7
100
AcDbCircle
 10
759.0000301738309
 20
1689.999992415539
 30
0.0
 40
13.59999999999964
100
AcDbArc
 50
235.7832695239755
 51
244.216730481673
  0
LINE
  5
E3C
330
2
100
AcDbEntity
  8
0
  6
Continuous
 62
     7
100
AcDbLine
 10
751.7284895688117
 20
1679.405314637076
 30
0.0
 11
751.3524120373221
 21
1678.753929244892
 31
0.0
  0
ARC
  5
E3D
330
2
100
AcDbEntity
  8
0
  6
Continuous
 62
     7
100
AcDbCircle
 10
759.0000301738309
 20
1689.999992415539
 30
0.0
 40
12.84999999999942
100
AcDbArc
 50
124.4633283513165
 51
235.5366716542631
  0
LINE
  5
E3E
330
2
100
AcDbEntity
  8
0
  6
Continuous
 62
     7
100
AcDbLine
 10
751.7284895677712
 20
1700.594670193288
 30
0.0
 11
751.3524120362217
 21
1701.246055585436
 31
0.0
  0
ARC
  5
E3F
330
2
100
AcDbEntity
  8
0
  6
Continuous
 62
     7
100
AcDbCircle
 10
759.0000301738309
 20
1689.999992415539
 30
0.0
 40
13.59999999999963
100
AcDbArc
 50
115.7832695239907
 51
124.2167304816755
  0
LINE
  5
E40
330
2
100
AcDbEntity
  8
0
  6
Continuous
 62
     7
100
AcDbLine
 10
753.0844628437407
 20
1702.24605558552
 30
0.0
 11
753.460540375292
 21
1701.594670193373
 31
0.0
  0
ARC
  5
E41
330
2
100
AcDbEntity
  8
0
  6
Continuous
 62
     7
100
AcDbCircle
 10
759.0000301738309
 20
1689.999992415539
 30
0.0
 40
12.84999999999985
100
AcDbArc
 50
4.463328351307735
 51
115.5366716542917
  0
LINE
  5
E42
330
2
100
AcDbEntity
  8
0
  6
Continuous
 62
     7
100
AcDbLine
 10
771.8110605773127
 20
1690.999992416166
 30
0.0
 11
772.5632156403299
 21
1690.999992416202
 31
0.0
  0
ARC
  5
E43
330
2
100
AcDbEntity
  8
0
  6
Continuous
 62
     7
100
AcDbCircle
 10
759.0000301738309
 20
1689.999992415539
 30
0.0
 40
13.60000000000055
100
AcDbArc
 50
355.7832695239612
 51
4.216730481656099
  0
LINE
  5
E44
330
2
100
AcDbEntity
  8
0
  6
Continuous
 62
     7
100
AcDbLine
 10
772.5632156404299
 20
1688.999992416202
 30
0.0
 11
771.8110605774036
 21
1688.999992416166
 31
0.0
  0
ARC
  5
E45
330
2
100
AcDbEntity
  8
0
  6
Continuous
 62
     7
100
AcDbCircle
 10
759.0000301738309
 20
1689.999992415539
 30
0.0
 40
12.84999999999991
100
AcDbArc
 50
244.4633283512667
 51
355.5366716542917
  0
CIRCLE
  5
E46
330
2
100
AcDbEntity
  8
0
  6
Continuous
 62
     7
100
AcDbCircle
 10
759.000030174102
 20
1684.499992415538
 30
0.0
 40
1.249999999999972
  0
CIRCLE
  5
E47
330
2
100
AcDbEntity
  8
0
  6
Continuous
 62
     7
100
AcDbCircle
 10
759.0000301735635
 20
1695.499992415539
 30
0.0
 40
1.249999999999972
  0
ARC
  5
E48
330
2
100
AcDbEntity
  8
0
  6
Continuous
 62
     7
100
AcDbCircle
 10
759.0000301738219
 20
1689.999992415539
 30
0.0
 40
13.00000000000032
100
AcDbArc
 50
127.9191486686173
 51
232.0153978073389
  0
ARC
  5
E49
330
2
100
AcDbEntity
  8
0
  6
Continuous
 62
     7
100
AcDbCircle
 10
752.9940951749122
 20
1679.611116403727
 30
0.0
 40
1.999999999999499
100
AcDbArc
 50
175.9117530103722
 51
304.0227934656686
  0
ARC
  5
E4A
330
2
100
AcDbEntity
  8
0
  6
Continuous
 62
     7
100
AcDbCircle
 10
759.0000301738219
 20
1689.999992415539
 30
0.0
 40
13.00000000000013
100
AcDbArc
 50
247.9191486686745
 51
352.0153978073389
  0
ARC
  5
E4B
330
2
100
AcDbEntity
  8
0
  6
Continuous
 62
     7
100
AcDbCircle
 10
771.0000282162727
 20
1689.993138138907
 30
0.0
 40
2.000000000000297
100
AcDbArc
 50
295.9117530103602
 51
359.9672732380052
  0
ARC
  5
E4C
330
2
100
AcDbEntity
  8
0
  6
Continuous
 62
     7
100
AcDbCircle
 10
771.0000282162727
 20
1689.993138138907
 30
0.0
 40
2.000000000000258
100
AcDbArc
 50
359.9672732380052
 51
64.02279346562828
  0
ARC
  5
E4D
330
2
100
AcDbEntity
  8
0
  6
Continuous
 62
     7
100
AcDbCircle
 10
759.0000301738219
 20
1689.999992415539
 30
0.0
 40
13.00000000000035
100
AcDbArc
 50
7.919148668641772
 51
112.0153978073415
  0
ARC
  5
E4E
330
2
100
AcDbEntity
  8
0
  6
Continuous
 62
     7
100
AcDbCircle
 10
753.0059671302806
 20
1700.395722703982
 30
0.0
 40
2.00000000000136
100
AcDbArc
 50
55.91175301038322
 51
184.0227934656041
  0
ARC
  5
E4F
330
2
100
AcDbEntity
  8
0
  6
Continuous
 62
     7
100
AcDbCircle
 10
759.0000301738219
 20
1689.999992415539
 30
0.0
 40
14.99999999999994
100
AcDbArc
 50
89.99999427913293
 51
269.9672732380051
  0
ARC
  5
E50
330
2
100
AcDbEntity
  8
0
  6
Continuous
 62
     7
100
AcDbCircle
 10
759.0000301738219
 20
1689.999992415539
 30
0.0
 40
14.99999999999998
100
AcDbArc
 50
269.9672732380051
 51
89.99999427913293
  0
LINE
  5
E51
330
2
100
AcDbEntity
  8
0
  6
Continuous
 62
     7
100
AcDbLine
 10
753.0844629026524
 20
3377.753929244978
 30
0.0
 11
753.4605404341309
 21
3378.405314637161
 31
0.0
  0
ARC
  5
E52
330
2
100
AcDbEntity
  8
0
  6
Continuous
 62
     7
100
AcDbCircle
 10
759.000030231542
 20
3389.999992415538
 30
0.0
 40
13.6000000000011
100
AcDbArc
 50
235.7832695239755
 51
244.216730481673
  0
LINE
  5
E53
330
2
100
AcDbEntity
  8
0
  6
Continuous
 62
     7
100
AcDbLine
 10
751.7284896265119
 20
3379.405314637077
 30
0.0
 11
751.3524120950296
 21
3378.753929244893
 31
0.0
  0
ARC
  5
E54
330
2
100
AcDbEntity
  8
0
  6
Continuous
 62
     7
100
AcDbCircle
 10
759.000030231542
 20
3389.999992415538
 30
0.0
 40
12.85000000000102
100
AcDbArc
 50
124.4633283513165
 51
235.5366716542631
  0
LINE
  5
E55
330
2
100
AcDbEntity
  8
0
  6
Continuous
 62
     7
100
AcDbLine
 10
751.7284896254714
 20
3400.594670193288
 30
0.0
 11
751.3524120939309
 21
3401.246055585435
 31
0.0
  0
ARC
  5
E56
330
2
100
AcDbEntity
  8
0
  6
Continuous
 62
     7
100
AcDbCircle
 10
759.000030231542
 20
3389.999992415538
 30
0.0
 40
13.59999999999967
100
AcDbArc
 50
115.7832695239907
 51
124.2167304816755
  0
LINE
  5
E57
330
2
100
AcDbEntity
  8
0
  6
Continuous
 62
     7
100
AcDbLine
 10
753.0844629014536
 20
3402.24605558552
 30
0.0
 11
753.4605404329923
 21
3401.594670193373
 31
0.0
  0
ARC
  5
E58
330
2
100
AcDbEntity
  8
0
  6
Continuous
 62
     7
100
AcDbCircle
 10
759.000030231542
 20
3389.999992415538
 30
0.0
 40
12.85000000000045
100
AcDbArc
 50
4.463328351307735
 51
115.5366716542917
  0
LINE
  5
E59
330
2
100
AcDbEntity
  8
0
  6
Continuous
 62
     7
100
AcDbLine
 10
771.8110606350128
 20
3390.999992416166
 30
0.0
 11
772.563215698041
 21
3390.999992416202
 31
0.0
  0
ARC
  5
E5A
330
2
100
AcDbEntity
  8
0
  6
Continuous
 62
     7
100
AcDbCircle
 10
759.000030231542
 20
3389.999992415538
 30
0.0
 40
13.59999999999877
100
AcDbArc
 50
355.7832695239612
 51
4.216730481656099
  0
LINE
  5
E5B
330
2
100
AcDbEntity
  8
0
  6
Continuous
 62
     7
100
AcDbLine
 10
772.563215698141
 20
3388.999992416202
 30
0.0
 11
771.8110606351128
 21
3388.999992416165
 31
0.0
  0
ARC
  5
E5C
330
2
100
AcDbEntity
  8
0
  6
Continuous
 62
     7
100
AcDbCircle
 10
759.000030231542
 20
3389.999992415538
 30
0.0
 40
12.84999999999991
100
AcDbArc
 50
244.4633283512667
 51
355.5366716542917
  0
CIRCLE
  5
E5D
330
2
100
AcDbEntity
  8
0
  6
Continuous
 62
     7
100
AcDbCircle
 10
759.0000302318131
 20
3384.499992415538
 30
0.0
 40
1.249999999999972
  0
CIRCLE
  5
E5E
330
2
100
AcDbEntity
  8
0
  6
Continuous
 62
     7
100
AcDbCircle
 10
759.0000302312728
 20
3395.499992415538
 30
0.0
 40
1.249999999999972
  0
ARC
  5
E5F
330
2
100
AcDbEntity
  8
0
  6
Continuous
 62
     7
100
AcDbCircle
 10
759.0000302315311
 20
3389.999992415538
 30
0.0
 40
13.00000000000019
100
AcDbArc
 50
127.9191486686173
 51
232.0153978073389
  0
ARC
  5
E60
330
2
100
AcDbEntity
  8
0
  6
Continuous
 62
     7
100
AcDbCircle
 10
752.9940952326232
 20
3379.611116403726
 30
0.0
 40
1.999999999999514
100
AcDbArc
 50
175.9117530103722
 51
304.0227934656686
  0
ARC
  5
E61
330
2
100
AcDbEntity
  8
0
  6
Continuous
 62
     7
100
AcDbCircle
 10
759.0000302315311
 20
3389.999992415538
 30
0.0
 40
13.00000000000013
100
AcDbArc
 50
247.9191486686745
 51
352.0153978073389
  0
ARC
  5
E62
330
2
100
AcDbEntity
  8
0
  6
Continuous
 62
     7
100
AcDbCircle
 10
771.0000282739802
 20
3389.993138138906
 30
0.0
 40
1.999999999999849
100
AcDbArc
 50
295.9117530103602
 51
359.9672732380313
  0
ARC
  5
E63
330
2
100
AcDbEntity
  8
0
  6
Continuous
 62
     7
100
AcDbCircle
 10
771.0000282739802
 20
3389.993138138906
 30
0.0
 40
2.000000000000258
100
AcDbArc
 50
359.9672732380052
 51
64.02279346562828
  0
ARC
  5
E64
330
2
100
AcDbEntity
  8
0
  6
Continuous
 62
     7
100
AcDbCircle
 10
759.0000302315311
 20
3389.999992415538
 30
0.0
 40
12.99999999999963
100
AcDbArc
 50
7.919148668656132
 51
112.0153978073415
  0
ARC
  5
E65
330
2
100
AcDbEntity
  8
0
  6
Continuous
 62
     7
100
AcDbCircle
 10
753.0059671879917
 20
3400.395722703983
 30
0.0
 40
1.999999999999445
100
AcDbArc
 50
55.91175301038322
 51
184.0227934656301
  0
ARC
  5
E66
330
2
100
AcDbEntity
  8
0
  6
Continuous
 62
     7
100
AcDbCircle
 10
759.0000302315311
 20
3389.999992415538
 30
0.0
 40
14.99999999999994
100
AcDbArc
 50
89.99999428194689
 51
269.9672732380051
  0
ARC
  5
E67
330
2
100
AcDbEntity
  8
0
  6
Continuous
 62
     7
100
AcDbCircle
 10
759.0000302315311
 20
3389.999992415538
 30
0.0
 40
14.99999999999998
100
AcDbArc
 50
269.9672732380051
 51
89.99999428194689
  0
CIRCLE
  5
E68
330
2
100
AcDbEntity
  8
0
  6
Continuous
 62
     7
100
AcDbCircle
 10
35.00003173160258
 20
3484.999992440604
 30
0.0
 40
12.50000000000023
  0
CIRCLE
  5
E69
330
2
100
AcDbEntity
  8
0
  6
Continuous
 62
     7
100
AcDbCircle
 10
35.00003173162259
 20
3484.999992440604
 30
0.0
 40
12.20000000000004
  0
CIRCLE
  5
E6A
330
2
100
AcDbEntity
  8
0
  6
Continuous
 62
     7
100
AcDbCircle
 10
35.00017046081121
 20
3479.499992442354
 30
0.0
 40
1.250000000000194
  0
CIRCLE
  5
E6B
330
2
100
AcDbEntity
  8
0
  6
Continuous
 62
     7
100
AcDbCircle
 10
34.99989300242305
 20
3490.499992438855
 30
0.0
 40
1.250000000000194
  0
LINE
  5
E6C
330
2
100
AcDbEntity
  8
0
  6
Continuous
 62
     4
100
AcDbLine
 10
800.0000316660116
 20
1539.999992414973
 30
0.0
 11
800.0000317330213
 21
3539.999992414973
 31
0.0
  0
LINE
  5
E6D
330
2
100
AcDbEntity
  8
0
  6
Continuous
 62
     4
100
AcDbLine
 10
14.00003166602073
 20
1539.999992441307
 30
0.0
 11
14.00003173302138
 21
3539.999992441308
 31
0.0
  0
LINE
  5
E6E
330
2
100
AcDbEntity
  8
0
  6
Continuous
 62
     4
100
AcDbLine
 10
14.00003173302138
 20
3539.999992441308
 30
0.0
 11
800.0000317330213
 21
3539.999992414973
 31
0.0
  0
ARC
  5
E6F
330
2
100
AcDbEntity
  8
0
  6
Continuous
 62
     4
100
AcDbCircle
 10
759.0000317280027
 20
3389.999992416345
 30
0.0
 40
14.9999999999999
100
AcDbArc
 50
269.9672675219313
 51
89.99999999812402
  0
ARC
  5
E70
330
2
100
AcDbEntity
  8
0
  6
Continuous
 62
     4
100
AcDbCircle
 10
759.0000317280027
 20
3389.999992416345
 30
0.0
 40
14.99999999999991
100
AcDbArc
 50
89.99999999812402
 51
269.9672675219313
  0
ARC
  5
E71
330
2
100
AcDbEntity
  8
0
  6
Continuous
 62
     4
100
AcDbCircle
 10
55.00003172799188
 20
3389.999992439934
 30
0.0
 40
14.9999999999999
100
AcDbArc
 50
74.53399004216302
 51
269.999999998124
  0
ARC
  5
E72
330
2
100
AcDbEntity
  8
0
  6
Continuous
 62
     4
100
AcDbCircle
 10
55.00003172799188
 20
3389.999992439934
 30
0.0
 40
14.99999999999979
100
AcDbArc
 50
63.76588459597873
 51
74.53399004216302
  0
ARC
  5
E73
330
2
100
AcDbEntity
  8
0
  6
Continuous
 62
     4
100
AcDbCircle
 10
55.00003172799188
 20
3389.999992439934
 30
0.0
 40
14.99999999999933
100
AcDbArc
 50
299.9999999912199
 51
63.76588459597873
  0
ARC
  5
E74
330
2
100
AcDbEntity
  8
0
  6
Continuous
 62
     4
100
AcDbCircle
 10
55.00003172799188
 20
3389.999992439934
 30
0.0
 40
14.99999999999994
100
AcDbArc
 50
285.4660099406501
 51
299.9999999912199
  0
ARC
  5
E75
330
2
100
AcDbEntity
  8
0
  6
Continuous
 62
     4
100
AcDbCircle
 10
55.00003172799188
 20
3389.999992439934
 30
0.0
 40
15.00000000000003
100
AcDbArc
 50
269.999999998124
 51
285.4660099406501
  0
ARC
  5
E76
330
2
100
AcDbEntity
  8
0
  6
Continuous
 62
     4
100
AcDbCircle
 10
759.0000316710411
 20
1689.999992416348
 30
0.0
 40
14.9999999999999
100
AcDbArc
 50
269.9672675190131
 51
89.99999999812402
  0
ARC
  5
E77
330
2
100
AcDbEntity
  8
0
  6
Continuous
 62
     4
100
AcDbCircle
 10
759.0000316710411
 20
1689.999992416348
 30
0.0
 40
14.99999999999989
100
AcDbArc
 50
89.99999999812402
 51
269.9672675190131
  0
ARC
  5
E78
330
2
100
AcDbEntity
  8
0
  6
Continuous
 62
     4
100
AcDbCircle
 10
55.00003167104114
 20
1689.999992439934
 30
0.0
 40
15.00000000000012
100
AcDbArc
 50
74.53399004388829
 51
269.999999998124
  0
ARC
  5
E79
330
2
100
AcDbEntity
  8
0
  6
Continuous
 62
     4
100
AcDbCircle
 10
55.00003167104114
 20
1689.999992439934
 30
0.0
 40
15.00000000000037
100
AcDbArc
 50
63.76588459225009
 51
74.53399004388829
  0
ARC
  5
E7A
330
2
100
AcDbEntity
  8
0
  6
Continuous
 62
     4
100
AcDbCircle
 10
55.00003167104114
 20
1689.999992439934
 30
0.0
 40
15.00000000000014
100
AcDbArc
 50
299.9999999977092
 51
63.76588459225009
  0
ARC
  5
E7B
330
2
100
AcDbEntity
  8
0
  6
Continuous
 62
     4
100
AcDbCircle
 10
55.00003167104114
 20
1689.999992439934
 30
0.0
 40
14.99999999999997
100
AcDbArc
 50
285.4660099512372
 51
299.9999999977092
  0
ARC
  5
E7C
330
2
100
AcDbEntity
  8
0
  6
Continuous
 62
     4
100
AcDbCircle
 10
55.00003167104114
 20
1689.999992439934
 30
0.0
 40
14.99999999999996
100
AcDbArc
 50
269.999999998124
 51
285.4660099512372
  0
ARC
  5
E7D
330
2
100
AcDbEntity
  8
0
  6
Continuous
 62
     4
100
AcDbCircle
 10
55.0000316707301
 20
1689.999992439934
 30
0.0
 40
9.999999999999966
100
AcDbArc
 50
112.4111320312563
 51
247.5888679565499
  0
ARC
  5
E7E
330
2
100
AcDbEntity
  8
0
  6
Continuous
 62
     4
100
AcDbCircle
 10
55.00003172768083
 20
3389.999992439934
 30
0.0
 40
10.00000000000004
100
AcDbArc
 50
112.4111320293403
 51
247.5888679459634
  0
LINE
  5
E7F
330
2
100
AcDbEntity
  8
0
  6
Continuous
 62
     7
100
AcDbLine
 10
12.00003173160257
 20
3497.499992365463
 30
0.0
 11
12.00003173158075
 21
3497.002334055874
 31
0.0
  0
LINE
  5
E80
330
2
100
AcDbEntity
  8
0
  6
Continuous
 62
     7
100
AcDbLine
 10
12.00003173158075
 20
3497.002334055874
 30
0.0
 11
12.00003173152254
 21
3495.055818726115
 31
0.0
  0
LINE
  5
E81
330
2
100
AcDbEntity
  8
0
  6
Continuous
 62
     7
100
AcDbLine
 10
12.00003173152254
 20
3495.055818726115
 30
0.0
 11
12.00003173144068
 21
3492.792260883135
 31
0.0
  0
LINE
  5
E82
330
2
100
AcDbEntity
  8
0
  6
Continuous
 62
     7
100
AcDbLine
 10
12.00003173144068
 20
3492.792260883135
 30
0.0
 11
12.00003173140248
 21
3491.535806886073
 31
0.0
  0
LINE
  5
E83
330
2
100
AcDbEntity
  8
0
  6
Continuous
 62
     7
100
AcDbLine
 10
12.00003173140248
 20
3491.535806886073
 30
0.0
 11
12.00003173134064
 21
3489.79999236546
 31
0.0
  0
LINE
  5
E84
330
2
100
AcDbEntity
  8
0
  6
Continuous
 62
     7
100
AcDbLine
 10
12.00003173134064
 20
3489.79999236546
 30
0.0
 11
12.00003173121149
 21
3485.727586807776
 31
0.0
  0
LINE
  5
E85
330
2
100
AcDbEntity
  8
0
  6
Continuous
 62
     7
100
AcDbLine
 10
12.00003173115328
 20
3484.193028496243
 30
0.0
 11
12.0000317310205
 21
3480.199992365459
 31
0.0
  0
LINE
  5
E86
330
2
100
AcDbEntity
  8
0
  6
Continuous
 62
     7
100
AcDbLine
 10
12.0000317310205
 20
3480.199992365459
 30
0.0
 11
12.00003173088225
 21
3476.112101688539
 31
0.0
  0
LINE
  5
E87
330
2
100
AcDbEntity
  8
0
  6
Continuous
 62
     7
100
AcDbLine
 10
12.00003173088225
 20
3476.112101688539
 30
0.0
 11
12.00003173077311
 21
3473.00461618673
 31
0.0
  0
LINE
  5
E88
330
2
100
AcDbEntity
  8
0
  6
Continuous
 62
     7
100
AcDbLine
 10
12.00003173077311
 20
3473.00461618673
 30
0.0
 11
12.00003173075311
 21
3472.499992365462
 31
0.0
  0
LINE
  5
E89
330
2
100
AcDbEntity
  8
0
  6
Continuous
 62
     7
100
AcDbLine
 10
13.00003173078221
 20
3472.999992365426
 30
0.0
 11
13.00003173118057
 21
3484.999297879722
 31
0.0
  0
LINE
  5
E8A
330
2
100
AcDbEntity
  8
0
  6
Continuous
 62
     7
100
AcDbLine
 10
13.00003173118057
 20
3484.999297879722
 30
0.0
 11
13.00003173158075
 21
3496.999992365426
 31
0.0
  0
LINE
  5
E8B
330
2
100
AcDbEntity
  8
0
  6
Continuous
 62
     7
100
AcDbLine
 10
12.00003173158075
 20
3496.999992365449
 30
0.0
 11
12.00003173078221
 21
3472.999992365469
 31
0.0
  0
LINE
  5
E8C
330
2
100
AcDbEntity
  8
0
  6
Continuous
 62
     7
100
AcDbLine
 10
13.00003173158075
 20
3496.999992365416
 30
0.0
 11
13.00003173118057
 21
3484.999421334093
 31
0.0
  0
LINE
  5
E8D
330
2
100
AcDbEntity
  8
0
  6
Continuous
 62
     7
100
AcDbLine
 10
13.00003173118057
 20
3484.999421334093
 30
0.0
 11
13.00003173077312
 21
3472.999992365441
 31
0.0
  0
LINE
  5
E8E
330
2
100
AcDbEntity
  8
0
  6
Continuous
 62
     7
100
AcDbLine
 10
6.300031731601848
 20
3497.49999236565
 30
0.0
 11
6.300031731172566
 21
3484.864354928804
 31
0.0
  0
LINE
  5
E8F
330
2
100
AcDbEntity
  8
0
  6
Continuous
 62
     7
100
AcDbLine
 10
6.000031730773116
 20
3472.79999236566
 30
0.0
 11
6.000031731173294
 21
3484.867610227298
 31
0.0
  0
LINE
  5
E90
330
2
100
AcDbEntity
  8
0
  6
Continuous
 62
     7
100
AcDbLine
 10
6.300031731172566
 20
3484.864354928804
 30
0.0
 11
6.300031730763294
 21
3472.49999236565
 31
0.0
  0
LINE
  5
E91
330
2
100
AcDbEntity
  8
0
  6
Continuous
 62
     7
100
AcDbLine
 10
6.000031731173294
 20
3484.867610227298
 30
0.0
 11
6.000031731589842
 21
3497.19999236566
 31
0.0
  0
LINE
  5
E92
330
2
100
AcDbEntity
  8
0
  6
Continuous
 62
     7
100
AcDbLine
 10
12.00003173160257
 20
3497.499992365459
 30
0.0
 11
12.00003173118057
 21
3484.864354928613
 31
0.0
  0
LINE
  5
E93
330
2
100
AcDbEntity
  8
0
  6
Continuous
 62
     7
100
AcDbLine
 10
12.00003173118057
 20
3484.864354928613
 30
0.0
 11
12.0000317307622
 21
3472.49999236546
 31
0.0
  0
LINE
  5
E94
330
2
100
AcDbEntity
  8
0
  6
Continuous
 62
     9
100
AcDbLine
 10
12.00003166273018
 20
1558.999992364473
 30
0.0
 11
14.00003166273018
 21
1558.999992364601
 31
0.0
  0
LINE
  5
E95
330
2
100
AcDbEntity
  8
0
  6
Continuous
 62
     7
100
AcDbLine
 10
12.00003166273018
 20
1559.999992364474
 30
0.0
 11
14.00003166273018
 21
1559.999992364601
 31
0.0
  0
LINE
  5
E96
330
2
100
AcDbEntity
  8
0
  6
Continuous
 62
     9
100
AcDbLine
 10
12.00003166381248
 20
1541.999992364473
 30
0.0
 11
14.00003166381248
 21
1541.999992364601
 31
0.0
  0
LINE
  5
E97
330
2
100
AcDbEntity
  8
0
  6
Continuous
 62
     7
100
AcDbLine
 10
12.00003166394163
 20
1540.999992364474
 30
0.0
 11
14.00003166393071
 21
1540.999992364602
 31
0.0
  0
LINE
  5
E98
330
2
100
AcDbEntity
  8
0
  6
Continuous
 62
     7
100
AcDbLine
 10
12.00003166387978
 20
1539.999992364483
 30
0.0
 11
12.00003166260285
 21
1559.999992364482
 31
0.0
  0
LINE
  5
E99
330
2
100
AcDbEntity
  8
0
  6
Continuous
 62
     7
100
AcDbLine
 10
8.500031663879781
 20
1539.999992364258
 30
0.0
 11
8.50003166260285
 21
1559.999992364258
 31
0.0
  0
LINE
  5
E9A
330
2
100
AcDbEntity
  8
0
  6
Continuous
 62
     7
100
AcDbLine
 10
12.00003166260285
 20
1559.999992364482
 30
0.0
 11
8.50003166260285
 21
1559.999992364258
 31
0.0
  0
LINE
  5
E9B
330
2
100
AcDbEntity
  8
0
  6
Continuous
 62
     7
100
AcDbLine
 10
800.0000318643706
 20
1489.999992414973
 30
0.0
 11
800.0000318611728
 21
1539.999992414973
 31
0.0
  0
LINE
  5
E9C
330
2
100
AcDbEntity
  8
0
  6
Continuous
 62
     7
100
AcDbLine
 10
800.0000318643706
 20
1489.999992414973
 30
0.0
 11
0.0000318643797073
 21
1489.999992363714
 31
0.0
  0
LINE
  5
E9D
330
2
100
AcDbEntity
  8
0
  6
Continuous
 62
     7
100
AcDbLine
 10
0.0000318643797073
 20
1489.999992363714
 30
0.0
 11
0.0000318611728289
 21
1539.999992363714
 31
0.0
  0
LINE
  5
E9E
330
2
100
AcDbEntity
  8
0
  6
Continuous
 62
     7
100
AcDbLine
 10
800.0000318611728
 20
1539.999992414973
 30
0.0
 11
0.0000318611728289
 21
1539.999992363714
 31
0.0
  0
LINE
  5
E9F
330
2
100
AcDbEntity
  8
0
  6
Continuous
 62
     7
100
AcDbLine
 10
14.00003173158075
 20
3496.999992365393
 30
0.0
 11
13.00003173158075
 21
3496.999992365426
 31
0.0
  0
LINE
  5
EA0
330
2
100
AcDbEntity
  8
0
  6
Continuous
 62
     7
100
AcDbLine
 10
13.00003173078221
 20
3472.999992365426
 30
0.0
 11
14.00003173078221
 21
3472.999992365393
 31
0.0
  0
LINE
  5
EA1
330
2
100
AcDbEntity
  8
0
  6
Continuous
 62
     7
100
AcDbLine
 10
12.00003173078221
 20
3472.999992365465
 30
0.0
 11
13.00003173078221
 21
3472.999992365431
 31
0.0
  0
LINE
  5
EA2
330
2
100
AcDbEntity
  8
0
  6
Continuous
 62
     7
100
AcDbLine
 10
13.00003173158075
 20
3496.99999236542
 30
0.0
 11
12.00003173158075
 21
3496.999992365454
 31
0.0
  0
LINE
  5
EA3
330
2
100
AcDbEntity
  8
0
  6
Continuous
 62
     7
100
AcDbLine
 10
6.300031731601848
 20
3497.49999236565
 30
0.0
 11
6.000031731589842
 21
3497.19999236566
 31
0.0
  0
LINE
  5
EA4
330
2
100
AcDbEntity
  8
0
  6
Continuous
 62
     7
100
AcDbLine
 10
6.000031730773116
 20
3472.79999236566
 30
0.0
 11
6.300031730763294
 21
3472.49999236565
 31
0.0
  0
LINE
  5
EA5
330
2
100
AcDbEntity
  8
0
  6
Continuous
 62
     7
100
AcDbLine
 10
12.00003173160257
 20
3497.499992365459
 30
0.0
 11
6.300031731601848
 21
3497.49999236565
 31
0.0
  0
LINE
  5
EA6
330
2
100
AcDbEntity
  8
0
  6
Continuous
 62
     7
100
AcDbLine
 10
6.300031730763294
 20
3472.49999236565
 30
0.0
 11
12.0000317307622
 21
3472.49999236546
 31
0.0
  0
LINE
  5
EA7
330
2
100
AcDbEntity
  8
0
  6
Continuous
 62
     7
100
AcDbLine
 10
3209.415600815454
 20
1702.246055581592
 30
0.0
 11
3209.039523284002
 21
1701.594670189395
 31
0.0
  0
ARC
  5
EA8
330
2
100
AcDbEntity
  8
0
  6
Continuous
 62
     7
100
AcDbCircle
 10
3203.500033486962
 20
1689.999992410838
 30
0.0
 40
13.60000000000033
100
AcDbArc
 50
55.78326952585425
 51
64.21673048352582
  0
LINE
  5
EA9
330
2
100
AcDbEntity
  8
0
  6
Continuous
 62
     7
100
AcDbLine
 10
3210.771574091641
 20
1700.594670189536
 30
0.0
 11
3211.147651623102
 21
1701.246055581733
 31
0.0
  0
ARC
  5
EAA
330
2
100
AcDbEntity
  8
0
  6
Continuous
 62
     7
100
AcDbCircle
 10
3203.500033486962
 20
1689.999992410838
 30
0.0
 40
12.85000000000039
100
AcDbArc
 50
304.4633283531952
 51
55.53667165615649
  0
LINE
  5
EAB
330
2
100
AcDbEntity
  8
0
  6
Continuous
 62
     7
100
AcDbLine
 10
3210.771574093373
 20
1679.405314633324
 30
0.0
 11
3211.14765162493
 21
1678.753929241189
 31
0.0
  0
ARC
  5
EAC
330
2
100
AcDbEntity
  8
0
  6
Continuous
 62
     7
100
AcDbCircle
 10
3203.500033486962
 20
1689.999992410838
 30
0.0
 40
13.60000000000048
100
AcDbArc
 50
295.7832695258436
 51
304.2167304835543
  0
LINE
  5
EAD
330
2
100
AcDbEntity
  8
0
  6
Continuous
 62
     7
100
AcDbLine
 10
3209.415600817453
 20
1677.753929241048
 30
0.0
 11
3209.039523285883
 21
1678.405314633183
 31
0.0
  0
ARC
  5
EAE
330
2
100
AcDbEntity
  8
0
  6
Continuous
 62
     7
100
AcDbCircle
 10
3203.500033486962
 20
1689.999992410838
 30
0.0
 40
12.85000000000051
100
AcDbArc
 50
184.4633283531601
 51
295.5366716561446
  0
LINE
  5
EAF
330
2
100
AcDbEntity
  8
0
  6
Continuous
 62
     7
100
AcDbLine
 10
3190.689003083522
 20
1688.999992409795
 30
0.0
 11
3189.936848020492
 21
1688.999992409733
 31
0.0
  0
ARC
  5
EB0
330
2
100
AcDbEntity
  8
0
  6
Continuous
 62
     7
100
AcDbCircle
 10
3203.500033486962
 20
1689.999992410838
 30
0.0
 40
13.59999999999926
100
AcDbArc
 50
175.7832695258138
 51
184.2167304835087
  0
LINE
  5
EB1
330
2
100
AcDbEntity
  8
0
  6
Continuous
 62
     7
100
AcDbLine
 10
3189.936848020331
 20
1690.999992409734
 30
0.0
 11
3190.689003083362
 21
1690.999992409795
 31
0.0
  0
ARC
  5
EB2
330
2
100
AcDbEntity
  8
0
  6
Continuous
 62
     7
100
AcDbCircle
 10
3203.500033486962
 20
1689.999992410838
 30
0.0
 40
12.84999999999941
100
AcDbArc
 50
64.46332835320234
 51
175.5366716561701
  0
CIRCLE
  5
EB3
330
2
100
AcDbEntity
  8
0
  6
Continuous
 62
     7
100
AcDbCircle
 10
3203.500033486513
 20
1695.499992410838
 30
0.0
 40
1.250000000000194
  0
CIRCLE
  5
EB4
330
2
100
AcDbEntity
  8
0
  6
Continuous
 62
     7
100
AcDbCircle
 10
3203.500033487414
 20
1684.499992410838
 30
0.0
 40
1.249999999999972
  0
ARC
  5
EB5
330
2
100
AcDbEntity
  8
0
  6
Continuous
 62
     7
100
AcDbCircle
 10
3203.500033486993
 20
1689.9999924108
 30
0.0
 40
13.00000000000082
100
AcDbArc
 50
307.9191486704729
 51
52.01539780919445
  0
ARC
  5
EB6
330
2
100
AcDbEntity
  8
0
  6
Continuous
 62
     7
100
AcDbCircle
 10
3209.505968485563
 20
1700.388868422807
 30
0.0
 40
2.000000000000207
100
AcDbArc
 50
355.9117530122249
 51
124.0227934674464
  0
ARC
  5
EB7
330
2
100
AcDbEntity
  8
0
  6
Continuous
 62
     7
100
AcDbCircle
 10
3203.500033486993
 20
1689.9999924108
 30
0.0
 40
13.0000000000001
100
AcDbArc
 50
67.91914867048413
 51
172.0153978091998
  0
ARC
  5
EB8
330
2
100
AcDbEntity
  8
0
  6
Continuous
 62
     7
100
AcDbCircle
 10
3191.500035444542
 20
1690.006846687043
 30
0.0
 40
2.000000000000349
100
AcDbArc
 50
115.9117530122244
 51
179.9672732398811
  0
ARC
  5
EB9
330
2
100
AcDbEntity
  8
0
  6
Continuous
 62
     7
100
AcDbCircle
 10
3191.500035444542
 20
1690.006846687043
 30
0.0
 40
2.00000000000022
100
AcDbArc
 50
179.9672732398551
 51
244.0227934674926
  0
ARC
  5
EBA
330
2
100
AcDbEntity
  8
0
  6
Continuous
 62
     7
100
AcDbCircle
 10
3203.500033486993
 20
1689.9999924108
 30
0.0
 40
13.00000000000053
100
AcDbArc
 50
187.9191486705171
 51
292.015397809238
  0
ARC
  5
EBB
330
2
100
AcDbEntity
  8
0
  6
Continuous
 62
     7
100
AcDbCircle
 10
3209.494096530863
 20
1679.60426212255
 30
0.0
 40
1.999999999999919
100
AcDbArc
 50
235.911753012262
 51
4.022793467490073
  0
ARC
  5
EBC
330
2
100
AcDbEntity
  8
0
  6
Continuous
 62
     7
100
AcDbCircle
 10
3203.500033486993
 20
1689.9999924108
 30
0.0
 40
15.0000000000001
100
AcDbArc
 50
269.9999942842397
 51
89.96727323988116
  0
ARC
  5
EBD
330
2
100
AcDbEntity
  8
0
  6
Continuous
 62
     7
100
AcDbCircle
 10
3203.500033486993
 20
1689.9999924108
 30
0.0
 40
14.99999999999975
100
AcDbArc
 50
89.96727323988116
 51
269.9999942842397
  0
LINE
  5
EBE
330
2
100
AcDbEntity
  8
0
  6
Continuous
 62
     7
100
AcDbLine
 10
3209.415600817591
 20
3402.246055581596
 30
0.0
 11
3209.039523286132
 21
3401.5946701894
 31
0.0
  0
ARC
  5
EBF
330
2
100
AcDbEntity
  8
0
  6
Continuous
 62
     7
100
AcDbCircle
 10
3203.500033489092
 20
3389.999992410843
 30
0.0
 40
13.60000000000051
100
AcDbArc
 50
55.78326952585425
 51
64.21673048352582
  0
LINE
  5
EC0
330
2
100
AcDbEntity
  8
0
  6
Continuous
 62
     7
100
AcDbLine
 10
3210.77157409378
 20
3400.594670189541
 30
0.0
 11
3211.147651625243
 21
3401.246055581736
 31
0.0
  0
ARC
  5
EC1
330
2
100
AcDbEntity
  8
0
  6
Continuous
 62
     7
100
AcDbCircle
 10
3203.500033489092
 20
3389.999992410843
 30
0.0
 40
12.85000000000039
100
AcDbArc
 50
304.4633283531952
 51
55.53667165615649
  0
LINE
  5
EC2
330
2
100
AcDbEntity
  8
0
  6
Continuous
 62
     7
100
AcDbLine
 10
3210.771574095501
 20
3379.405314633328
 30
0.0
 11
3211.147651627071
 21
3378.753929241194
 31
0.0
  0
ARC
  5
EC3
330
2
100
AcDbEntity
  8
0
  6
Continuous
 62
     7
100
AcDbCircle
 10
3203.500033489092
 20
3389.999992410843
 30
0.0
 40
13.60000000000048
100
AcDbArc
 50
295.7832695258436
 51
304.2167304835543
  0
LINE
  5
EC4
330
2
100
AcDbEntity
  8
0
  6
Continuous
 62
     7
100
AcDbLine
 10
3209.415600819581
 20
3377.753929241054
 30
0.0
 11
3209.03952328802
 21
3378.405314633188
 31
0.0
  0
ARC
  5
EC5
330
2
100
AcDbEntity
  8
0
  6
Continuous
 62
     7
100
AcDbCircle
 10
3203.500033489092
 20
3389.999992410843
 30
0.0
 40
12.85000000000056
100
AcDbArc
 50
184.4633283531601
 51
295.5366716561446
  0
LINE
  5
EC6
330
2
100
AcDbEntity
  8
0
  6
Continuous
 62
     7
100
AcDbLine
 10
3190.689003085652
 20
3388.9999924098
 30
0.0
 11
3189.936848022629
 21
3388.999992409738
 31
0.0
  0
ARC
  5
EC7
330
2
100
AcDbEntity
  8
0
  6
Continuous
 62
     7
100
AcDbCircle
 10
3203.500033489092
 20
3389.999992410843
 30
0.0
 40
13.59999999999926
100
AcDbArc
 50
175.7832695258138
 51
184.2167304835087
  0
LINE
  5
EC8
330
2
100
AcDbEntity
  8
0
  6
Continuous
 62
     7
100
AcDbLine
 10
3189.936848022471
 20
3390.999992409739
 30
0.0
 11
3190.689003085492
 21
3390.999992409799
 31
0.0
  0
ARC
  5
EC9
330
2
100
AcDbEntity
  8
0
  6
Continuous
 62
     7
100
AcDbCircle
 10
3203.500033489092
 20
3389.999992410843
 30
0.0
 40
12.84999999999942
100
AcDbArc
 50
64.46332835320234
 51
175.5366716561701
  0
CIRCLE
  5
ECA
330
2
100
AcDbEntity
  8
0
  6
Continuous
 62
     7
100
AcDbCircle
 10
3203.50003348865
 20
3395.499992410843
 30
0.0
 40
1.249999999999972
  0
CIRCLE
  5
ECB
330
2
100
AcDbEntity
  8
0
  6
Continuous
 62
     7
100
AcDbCircle
 10
3203.500033489542
 20
3384.499992410843
 30
0.0
 40
1.249999999999972
  0
ARC
  5
ECC
330
2
100
AcDbEntity
  8
0
  6
Continuous
 62
     7
100
AcDbCircle
 10
3203.500033489121
 20
3389.999992410805
 30
0.0
 40
13.00000000000074
100
AcDbArc
 50
307.9191486704729
 51
52.01539780919445
  0
ARC
  5
ECD
330
2
100
AcDbEntity
  8
0
  6
Continuous
 62
     7
100
AcDbCircle
 10
3209.505968487702
 20
3400.388868422812
 30
0.0
 40
2.000000000000213
100
AcDbArc
 50
355.9117530122249
 51
124.0227934674464
  0
ARC
  5
ECE
330
2
100
AcDbEntity
  8
0
  6
Continuous
 62
     7
100
AcDbCircle
 10
3203.500033489121
 20
3389.999992410805
 30
0.0
 40
12.9999999999983
100
AcDbArc
 50
67.91914867048413
 51
172.0153978091998
  0
ARC
  5
ECF
330
2
100
AcDbEntity
  8
0
  6
Continuous
 62
     7
100
AcDbCircle
 10
3191.50003544667
 20
3390.006846687048
 30
0.0
 40
2.000000000000599
100
AcDbArc
 50
115.911753012213
 51
179.9672732398811
  0
ARC
  5
ED0
330
2
100
AcDbEntity
  8
0
  6
Continuous
 62
     7
100
AcDbCircle
 10
3191.50003544667
 20
3390.006846687048
 30
0.0
 40
2.00000000000022
100
AcDbArc
 50
179.9672732398551
 51
244.0227934674926
  0
ARC
  5
ED1
330
2
100
AcDbEntity
  8
0
  6
Continuous
 62
     7
100
AcDbCircle
 10
3203.500033489121
 20
3389.999992410805
 30
0.0
 40
13.00000000000063
100
AcDbArc
 50
187.9191486705171
 51
292.015397809238
  0
ARC
  5
ED2
330
2
100
AcDbEntity
  8
0
  6
Continuous
 62
     7
100
AcDbCircle
 10
3209.494096533
 20
3379.604262122555
 30
0.0
 40
2.000000000000103
100
AcDbArc
 50
235.911753012262
 51
4.022793467490073
  0
ARC
  5
ED3
330
2
100
AcDbEntity
  8
0
  6
Continuous
 62
     7
100
AcDbCircle
 10
3203.500033489121
 20
3389.999992410805
 30
0.0
 40
15.0000000000001
100
AcDbArc
 50
269.9999942827807
 51
89.96727323988116
  0
ARC
  5
ED4
330
2
100
AcDbEntity
  8
0
  6
Continuous
 62
     7
100
AcDbCircle
 10
3203.500033489121
 20
3389.999992410805
 30
0.0
 40
14.99999999999998
100
AcDbArc
 50
89.96727323988116
 51
269.9999942827807
  0
CIRCLE
  5
ED5
330
2
100
AcDbEntity
  8
0
  6
Continuous
 62
     7
100
AcDbCircle
 10
3927.500031992471
 20
3484.999992414184
 30
0.0
 40
12.50000000000023
  0
CIRCLE
  5
ED6
330
2
100
AcDbEntity
  8
0
  6
Continuous
 62
     7
100
AcDbCircle
 10
3927.500031992471
 20
3484.999992414184
 30
0.0
 40
12.20000000000004
  0
CIRCLE
  5
ED7
330
2
100
AcDbEntity
  8
0
  6
Continuous
 62
     7
100
AcDbCircle
 10
3927.499788842001
 20
3490.499992408809
 30
0.0
 40
1.250000000000194
  0
CIRCLE
  5
ED8
330
2
100
AcDbEntity
  8
0
  6
Continuous
 62
     7
100
AcDbCircle
 10
3927.500275142931
 20
3479.499992419559
 30
0.0
 40
1.250000000000194
  0
LINE
  5
ED9
330
2
100
AcDbEntity
  8
0
  6
Continuous
 62
     4
100
AcDbLine
 10
3948.500031990452
 20
1539.999992414163
 30
0.0
 11
3948.500031992522
 21
3539.999992414163
 31
0.0
  0
LINE
  5
EDA
330
2
100
AcDbEntity
  8
0
  6
Continuous
 62
     4
100
AcDbLine
 10
3162.500031990453
 20
1539.999992414975
 30
0.0
 11
3162.500031992522
 21
3539.999992414976
 31
0.0
  0
LINE
  5
EDB
330
2
100
AcDbEntity
  8
0
  6
Continuous
 62
     4
100
AcDbLine
 10
3162.500031992522
 20
3539.999992414976
 30
0.0
 11
3948.500031992522
 21
3539.999992414163
 31
0.0
  0
ARC
  5
EDC
330
2
100
AcDbEntity
  8
0
  6
Continuous
 62
     4
100
AcDbCircle
 10
3203.500031992371
 20
3389.999992414934
 30
0.0
 40
14.9999999999999
100
AcDbArc
 50
89.96726752266088
 51
269.9999999998958
  0
ARC
  5
EDD
330
2
100
AcDbEntity
  8
0
  6
Continuous
 62
     4
100
AcDbCircle
 10
3203.500031992371
 20
3389.999992414934
 30
0.0
 40
15.00000000000001
100
AcDbArc
 50
269.9999999998958
 51
89.96726752266088
  0
ARC
  5
EDE
330
2
100
AcDbEntity
  8
0
  6
Continuous
 62
     4
100
AcDbCircle
 10
3203.500031990614
 20
1689.999992414933
 30
0.0
 40
15.00000000000012
100
AcDbArc
 50
89.96726752411996
 51
269.9999999998958
  0
ARC
  5
EDF
330
2
100
AcDbEntity
  8
0
  6
Continuous
 62
     4
100
AcDbCircle
 10
3203.500031990614
 20
1689.999992414933
 30
0.0
 40
14.9999999999998
100
AcDbArc
 50
269.9999999998958
 51
89.96726752411996
  0
LINE
  5
EE0
330
2
100
AcDbEntity
  8
0
  6
Continuous
 62
     7
100
AcDbLine
 10
3949.500031993963
 20
3496.999992365427
 30
0.0
 11
3949.50003199437
 21
3485.017716875538
 31
0.0
  0
LINE
  5
EE1
330
2
100
AcDbEntity
  8
0
  6
Continuous
 62
     7
100
AcDbLine
 10
3949.50003199437
 20
3485.017716875538
 30
0.0
 11
3949.500031994771
 21
3472.999992365428
 31
0.0
  0
LINE
  5
EE2
330
2
100
AcDbEntity
  8
0
  6
Continuous
 62
     7
100
AcDbLine
 10
3949.500031994771
 20
3472.999992365437
 30
0.0
 11
3949.50003199437
 21
3485.017378244722
 31
0.0
  0
LINE
  5
EE3
330
2
100
AcDbEntity
  8
0
  6
Continuous
 62
     7
100
AcDbLine
 10
3949.50003199437
 20
3485.017378244722
 30
0.0
 11
3949.500031993963
 21
3496.999992365412
 31
0.0
  0
LINE
  5
EE4
330
2
100
AcDbEntity
  8
0
  6
Continuous
 62
     7
100
AcDbLine
 10
3956.200031994793
 20
3472.499992365654
 30
0.0
 11
3956.200031993951
 21
3497.499992365655
 31
0.0
  0
LINE
  5
EE5
330
2
100
AcDbEntity
  8
0
  6
Continuous
 62
     7
100
AcDbLine
 10
3956.500031993963
 20
3497.199992365664
 30
0.0
 11
3956.500031994782
 21
3472.799992365665
 31
0.0
  0
LINE
  5
EE6
330
2
100
AcDbEntity
  8
0
  6
Continuous
 62
     7
100
AcDbLine
 10
3950.500031994794
 20
3472.499992365462
 30
0.0
 11
3950.500031993941
 21
3497.499992365463
 31
0.0
  0
LINE
  5
EE7
330
2
100
AcDbEntity
  8
0
  6
Continuous
 62
     7
100
AcDbLine
 10
3949.500031993963
 20
3496.999992365426
 30
0.0
 11
3949.500031994212
 21
3489.799992365425
 31
0.0
  0
LINE
  5
EE8
330
2
100
AcDbEntity
  8
0
  6
Continuous
 62
     7
100
AcDbLine
 10
3949.500031994532
 20
3480.199992365426
 30
0.0
 11
3949.500031994771
 21
3472.999992365426
 31
0.0
  0
LINE
  5
EE9
330
2
100
AcDbEntity
  8
0
  6
Continuous
 62
     7
100
AcDbLine
 10
3950.500031994781
 20
3472.49999236546
 30
0.0
 11
3950.500031994771
 21
3472.999992365465
 31
0.0
  0
LINE
  5
EEA
330
2
100
AcDbEntity
  8
0
  6
Continuous
 62
     7
100
AcDbLine
 10
3950.500031994771
 20
3472.999992365465
 30
0.0
 11
3950.500031994533
 21
3480.199992365459
 31
0.0
  0
LINE
  5
EEB
330
2
100
AcDbEntity
  8
0
  6
Continuous
 62
     7
100
AcDbLine
 10
3950.500031994533
 20
3480.199992365459
 30
0.0
 11
3950.500031994371
 21
3485.000687100992
 31
0.0
  0
LINE
  5
EEC
330
2
100
AcDbEntity
  8
0
  6
Continuous
 62
     7
100
AcDbLine
 10
3950.500031994371
 20
3485.000687100992
 30
0.0
 11
3950.500031994212
 21
3489.799992365459
 31
0.0
  0
LINE
  5
EED
330
2
100
AcDbEntity
  8
0
  6
Continuous
 62
     7
100
AcDbLine
 10
3950.500031994212
 20
3489.799992365459
 30
0.0
 11
3950.500031993963
 21
3496.999992365454
 31
0.0
  0
LINE
  5
EEE
330
2
100
AcDbEntity
  8
0
  6
Continuous
 62
     7
100
AcDbLine
 10
3950.500031993963
 20
3496.999992365454
 30
0.0
 11
3950.500031993952
 21
3497.499992365459
 31
0.0
  0
LINE
  5
EEF
330
2
100
AcDbEntity
  8
0
  6
Continuous
 62
     9
100
AcDbLine
 10
3952.000032059123
 20
1539.999992364387
 30
0.0
 11
3952.000032060401
 21
1559.999992364386
 31
0.0
  0
LINE
  5
EF0
330
2
100
AcDbEntity
  8
0
  6
Continuous
 62
     7
100
AcDbLine
 10
3954.000032060531
 20
1559.999992364258
 30
0.0
 11
3954.000032059252
 21
1539.999992364258
 31
0.0
  0
LINE
  5
EF1
330
2
100
AcDbEntity
  8
0
  6
Continuous
 62
     7
100
AcDbLine
 10
3952.000032060401
 20
1559.999992364386
 30
0.0
 11
3954.000032060531
 21
1559.999992364258
 31
0.0
  0
LINE
  5
EF2
330
2
100
AcDbEntity
  8
0
  6
Continuous
 62
     7
100
AcDbLine
 10
3952.000032060401
 20
1559.999992364386
 30
0.0
 11
3948.500032060773
 21
1559.999992364611
 31
0.0
  0
LINE
  5
EF3
330
2
100
AcDbEntity
  8
0
  6
Continuous
 62
     7
100
AcDbLine
 10
3162.500031861173
 20
1489.999992414973
 30
0.0
 11
3162.500031864371
 21
1539.999992414973
 31
0.0
  0
LINE
  5
EF4
330
2
100
AcDbEntity
  8
0
  6
Continuous
 62
     7
100
AcDbLine
 10
3962.500031864371
 20
1539.999992363714
 30
0.0
 11
3162.500031864371
 21
1539.999992414973
 31
0.0
  0
LINE
  5
EF5
330
2
100
AcDbEntity
  8
0
  6
Continuous
 62
     7
100
AcDbLine
 10
3962.500031861173
 20
1489.999992363714
 30
0.0
 11
3962.500031864371
 21
1539.999992363714
 31
0.0
  0
LINE
  5
EF6
330
2
100
AcDbEntity
  8
0
  6
Continuous
 62
     7
100
AcDbLine
 10
3962.500031861173
 20
1489.999992363714
 30
0.0
 11
3162.500031861173
 21
1489.999992414973
 31
0.0
  0
LINE
  5
EF7
330
2
100
AcDbEntity
  8
0
  6
Continuous
 62
     7
100
AcDbLine
 10
3948.50003199477
 20
3472.999992365394
 30
0.0
 11
3949.500031994771
 21
3472.999992365428
 31
0.0
  0
LINE
  5
EF8
330
2
100
AcDbEntity
  8
0
  6
Continuous
 62
     7
100
AcDbLine
 10
3949.500031993963
 20
3496.999992365427
 30
0.0
 11
3948.500031993963
 21
3496.999992365393
 31
0.0
  0
LINE
  5
EF9
330
2
100
AcDbEntity
  8
0
  6
Continuous
 62
     7
100
AcDbLine
 10
3950.500031993963
 20
3496.999992365455
 30
0.0
 11
3949.500031993963
 21
3496.999992365422
 31
0.0
  0
LINE
  5
EFA
330
2
100
AcDbEntity
  8
0
  6
Continuous
 62
     7
100
AcDbLine
 10
3949.500031994771
 20
3472.999992365433
 30
0.0
 11
3950.500031994771
 21
3472.999992365466
 31
0.0
  0
LINE
  5
EFB
330
2
100
AcDbEntity
  8
0
  6
Continuous
 62
     7
100
AcDbLine
 10
3956.200031994793
 20
3472.499992365654
 30
0.0
 11
3956.500031994782
 21
3472.799992365665
 31
0.0
  0
LINE
  5
EFC
330
2
100
AcDbEntity
  8
0
  6
Continuous
 62
     7
100
AcDbLine
 10
3956.500031993963
 20
3497.199992365664
 30
0.0
 11
3956.200031993951
 21
3497.499992365654
 31
0.0
  0
LINE
  5
EFD
330
2
100
AcDbEntity
  8
0
  6
Continuous
 62
     7
100
AcDbLine
 10
3950.500031994794
 20
3472.499992365462
 30
0.0
 11
3956.200031994793
 21
3472.499992365654
 31
0.0
  0
LINE
  5
EFE
330
2
100
AcDbEntity
  8
0
  6
Continuous
 62
     7
100
AcDbLine
 10
3956.200031993951
 20
3497.499992365654
 30
0.0
 11
3950.500031993941
 21
3497.499992365462
 31
0.0
  0
LINE
  5
EFF
330
2
100
AcDbEntity
  8
0
  6
Continuous
 62
     7
100
AcDbLine
 10
1432.000031862772
 20
3487.999997424184
 30
0.0
 11
1432.000031862772
 21
3481.999987404184
 31
0.0
  0
LINE
  5
F00
330
2
100
AcDbEntity
  8
0
  6
Continuous
 62
     7
100
AcDbLine
 10
2535.275059751151
 20
1695.614707738954
 30
0.0
 11
2535.405354133393
 21
1695.539482242297
 31
0.0
  0
LINE
  5
F01
330
2
100
AcDbEntity
  8
0
  6
Continuous
 62
     7
100
AcDbLine
 10
2536.405354133393
 20
1697.271533049866
 30
0.0
 11
2536.275059751151
 21
1697.346758546526
 31
0.0
  0
ARC
  5
F02
330
2
100
AcDbEntity
  8
0
  6
Continuous
 62
     7
100
AcDbCircle
 10
2547.000031911492
 20
1689.99999244432
 30
0.0
 40
12.85000000000058
100
AcDbArc
 50
34.46332834850527
 51
145.5366716514947
  0
LINE
  5
F03
330
2
100
AcDbEntity
  8
0
  6
Continuous
 62
     7
100
AcDbLine
 10
2557.5947096896
 20
1697.271533049866
 30
0.0
 11
2557.725004071841
 21
1697.346758546526
 31
0.0
  0
LINE
  5
F04
330
2
100
AcDbEntity
  8
0
  6
Continuous
 62
     7
100
AcDbLine
 10
2558.725004071832
 20
1695.614707738954
 30
0.0
 11
2558.5947096896
 21
1695.539482242297
 31
0.0
  0
ARC
  5
F05
330
2
100
AcDbEntity
  8
0
  6
Continuous
 62
     7
100
AcDbCircle
 10
2547.000031911492
 20
1689.99999244432
 30
0.0
 40
12.85000000000013
100
AcDbArc
 50
274.463328348508
 51
25.53667165149462
  0
LINE
  5
F06
330
2
100
AcDbEntity
  8
0
  6
Continuous
 62
     7
100
AcDbLine
 10
2548.000031911492
 20
1677.188962040797
 30
0.0
 11
2548.000031911492
 21
1677.038511047553
 31
0.0
  0
LINE
  5
F07
330
2
100
AcDbEntity
  8
0
  6
Continuous
 62
     7
100
AcDbLine
 10
2546.000031911491
 20
1677.038511047553
 30
0.0
 11
2546.000031911491
 21
1677.188962040797
 31
0.0
  0
ARC
  5
F08
330
2
100
AcDbEntity
  8
0
  6
Continuous
 62
     7
100
AcDbCircle
 10
2547.000031911492
 20
1689.99999244432
 30
0.0
 40
12.84999999999997
100
AcDbArc
 50
154.4633283485054
 51
265.536671651492
  0
CIRCLE
  5
F09
330
2
100
AcDbEntity
  8
0
  6
Continuous
 62
     7
100
AcDbCircle
 10
2541.500031911492
 20
1689.99999244432
 30
0.0
 40
1.250000000000639
  0
CIRCLE
  5
F0A
330
2
100
AcDbEntity
  8
0
  6
Continuous
 62
     7
100
AcDbCircle
 10
2552.500031911492
 20
1689.99999244432
 30
0.0
 40
1.250000000000639
  0
ARC
  5
F0B
330
2
100
AcDbEntity
  8
0
  6
Continuous
 62
     7
100
AcDbCircle
 10
2547.000031911492
 20
1689.999992444368
 30
0.0
 40
13.00000000000046
100
AcDbArc
 50
217.9588300209758
 51
322.0550791596541
  0
ARC
  5
F0C
330
2
100
AcDbEntity
  8
0
  6
Continuous
 62
     7
100
AcDbCircle
 10
2557.393064963342
 20
1684.001253911712
 30
0.0
 40
1.999999999999898
100
AcDbArc
 50
265.9514343626901
 51
34.06247481798091
  0
ARC
  5
F0D
330
2
100
AcDbEntity
  8
0
  6
Continuous
 62
     7
100
AcDbCircle
 10
2547.000031911492
 20
1689.999992444368
 30
0.0
 40
12.99999999999925
100
AcDbArc
 50
337.9588300209529
 51
82.05507915967267
  0
ARC
  5
F0E
330
2
100
AcDbEntity
  8
0
  6
Continuous
 62
     7
100
AcDbCircle
 10
2546.998575345513
 20
1701.999992355969
 30
0.0
 40
2.00000000000077
100
AcDbArc
 50
25.95143436267195
 51
154.0624748179537
  0
ARC
  5
F0F
330
2
100
AcDbEntity
  8
0
  6
Continuous
 62
     7
100
AcDbCircle
 10
2547.000031911492
 20
1689.999992444368
 30
0.0
 40
13.0000000000001
100
AcDbArc
 50
97.95883002099394
 51
202.0550791596576
  0
ARC
  5
F10
330
2
100
AcDbEntity
  8
0
  6
Continuous
 62
     7
100
AcDbCircle
 10
2536.608455425631
 20
1683.998731065425
 30
0.0
 40
1.999999999999656
100
AcDbArc
 50
145.9514343626613
 51
274.0624748179269
  0
CIRCLE
  5
F11
330
2
100
AcDbEntity
  8
0
  6
Continuous
 62
     7
100
AcDbCircle
 10
2547.000031911492
 20
1689.999992444368
 30
0.0
 40
15.00000000000234
  0
LINE
  5
F12
330
2
100
AcDbEntity
  8
0
  6
Continuous
 62
     7
100
AcDbLine
 10
2535.275059750024
 20
3395.614707738101
 30
0.0
 11
2535.405354132261
 21
3395.539482241444
 31
0.0
  0
LINE
  5
F13
330
2
100
AcDbEntity
  8
0
  6
Continuous
 62
     7
100
AcDbLine
 10
2536.405354132261
 20
3397.271533049013
 30
0.0
 11
2536.275059750023
 21
3397.346758545673
 31
0.0
  0
ARC
  5
F14
330
2
100
AcDbEntity
  8
0
  6
Continuous
 62
     7
100
AcDbCircle
 10
2547.000031910371
 20
3389.999992443467
 30
0.0
 40
12.85000000000058
100
AcDbArc
 50
34.46332834850527
 51
145.5366716514947
  0
LINE
  5
F15
330
2
100
AcDbEntity
  8
0
  6
Continuous
 62
     7
100
AcDbLine
 10
2557.594709688472
 20
3397.271533049013
 30
0.0
 11
2557.725004070711
 21
3397.346758545673
 31
0.0
  0
LINE
  5
F16
330
2
100
AcDbEntity
  8
0
  6
Continuous
 62
     7
100
AcDbLine
 10
2558.725004070712
 20
3395.614707738101
 30
0.0
 11
2558.594709688472
 21
3395.539482241444
 31
0.0
  0
ARC
  5
F17
330
2
100
AcDbEntity
  8
0
  6
Continuous
 62
     7
100
AcDbCircle
 10
2547.000031910371
 20
3389.999992443467
 30
0.0
 40
12.85000000000016
100
AcDbArc
 50
274.463328348508
 51
25.53667165149462
  0
LINE
  5
F18
330
2
100
AcDbEntity
  8
0
  6
Continuous
 62
     7
100
AcDbLine
 10
2548.000031910362
 20
3377.188962039944
 30
0.0
 11
2548.000031910362
 21
3377.038511046699
 31
0.0
  0
LINE
  5
F19
330
2
100
AcDbEntity
  8
0
  6
Continuous
 62
     7
100
AcDbLine
 10
2546.000031910371
 20
3377.038511046699
 30
0.0
 11
2546.000031910371
 21
3377.188962039944
 31
0.0
  0
ARC
  5
F1A
330
2
100
AcDbEntity
  8
0
  6
Continuous
 62
     7
100
AcDbCircle
 10
2547.000031910371
 20
3389.999992443467
 30
0.0
 40
12.84999999999997
100
AcDbArc
 50
154.4633283485054
 51
265.536671651492
  0
CIRCLE
  5
F1B
330
2
100
AcDbEntity
  8
0
  6
Continuous
 62
     7
100
AcDbCircle
 10
2541.500031910371
 20
3389.999992443467
 30
0.0
 40
1.250000000000639
  0
CIRCLE
  5
F1C
330
2
100
AcDbEntity
  8
0
  6
Continuous
 62
     7
100
AcDbCircle
 10
2552.500031910362
 20
3389.999992443467
 30
0.0
 40
1.250000000000639
  0
ARC
  5
F1D
330
2
100
AcDbEntity
  8
0
  6
Continuous
 62
     7
100
AcDbCircle
 10
2547.000031910371
 20
3389.999992443515
 30
0.0
 40
13.00000000000056
100
AcDbArc
 50
217.9588300209758
 51
322.0550791596541
  0
ARC
  5
F1E
330
2
100
AcDbEntity
  8
0
  6
Continuous
 62
     7
100
AcDbCircle
 10
2557.393064962213
 20
3384.001253910859
 30
0.0
 40
1.999999999999898
100
AcDbArc
 50
265.9514343626901
 51
34.06247481792253
  0
ARC
  5
F1F
330
2
100
AcDbEntity
  8
0
  6
Continuous
 62
     7
100
AcDbCircle
 10
2547.000031910371
 20
3389.999992443515
 30
0.0
 40
12.99999999999927
100
AcDbArc
 50
337.9588300209529
 51
82.05507915967267
  0
ARC
  5
F20
330
2
100
AcDbEntity
  8
0
  6
Continuous
 62
     7
100
AcDbCircle
 10
2546.99857534438
 20
3401.999992355116
 30
0.0
 40
2.000000000000674
100
AcDbArc
 50
25.95143436267195
 51
154.0624748179537
  0
ARC
  5
F21
330
2
100
AcDbEntity
  8
0
  6
Continuous
 62
     7
100
AcDbCircle
 10
2547.000031910371
 20
3389.999992443515
 30
0.0
 40
13.0000000000001
100
AcDbArc
 50
97.95883002099394
 51
202.0550791596576
  0
ARC
  5
F22
330
2
100
AcDbEntity
  8
0
  6
Continuous
 62
     7
100
AcDbCircle
 10
2536.608455424501
 20
3383.998731064571
 30
0.0
 40
1.99999999999975
100
AcDbArc
 50
145.9514343626613
 51
274.0624748179269
  0
CIRCLE
  5
F23
330
2
100
AcDbEntity
  8
0
  6
Continuous
 62
     7
100
AcDbCircle
 10
2547.000031910371
 20
3389.999992443515
 30
0.0
 40
15.00000000000234
  0
LINE
  5
F24
330
2
100
AcDbEntity
  8
0
  6
Continuous
 62
     7
100
AcDbLine
 10
1431.500031863572
 20
1704.999992412298
 30
0.0
 11
1431.500031867352
 21
1674.999992412299
 31
0.0
  0
LINE
  5
F25
330
2
100
AcDbEntity
  8
0
  6
Continuous
 62
     7
100
AcDbLine
 10
1431.500031863541
 20
3404.999992412303
 30
0.0
 11
1431.500031867332
 21
3374.999992412304
 31
0.0
  0
LINE
  5
F26
330
2
100
AcDbEntity
  8
0
  6
Continuous
 62
     7
100
AcDbLine
 10
1422.000031862771
 20
3497.499992414184
 30
0.0
 11
1422.000031862771
 21
3472.499992414184
 31
0.0
  0
LINE
  5
F27
330
2
100
AcDbEntity
  8
0
  6
Continuous
 62
     7
100
AcDbLine
 10
1416.300031862762
 20
3497.499992414184
 30
0.0
 11
1416.300031862762
 21
3472.499992414184
 31
0.0
  0
LINE
  5
F28
330
2
100
AcDbEntity
  8
0
  6
Continuous
 62
     7
100
AcDbLine
 10
1416.000031862772
 20
3472.799992414183
 30
0.0
 11
1416.000031862772
 21
3497.199992414184
 31
0.0
  0
LINE
  5
F29
330
2
100
AcDbEntity
  8
0
  6
Continuous
 62
     9
100
AcDbLine
 10
1432.000031862772
 20
3487.999992411252
 30
0.0
 11
1432.000031862772
 21
3481.999992414184
 31
0.0
  0
LINE
  5
F2A
330
2
100
AcDbEntity
  8
0
  6
Continuous
 62
     7
100
AcDbLine
 10
1433.000031862771
 20
3498.999992414184
 30
0.0
 11
1433.000031862771
 21
3470.999992414184
 31
0.0
  0
LINE
  5
F2B
330
2
100
AcDbEntity
  8
0
  6
Continuous
 62
     7
100
AcDbLine
 10
1434.000031862772
 20
3498.999992414184
 30
0.0
 11
1434.000031862772
 21
3470.999992414184
 31
0.0
  0
LINE
  5
F2C
330
2
100
AcDbEntity
  8
0
  6
Continuous
 62
     7
100
AcDbLine
 10
1437.000031862772
 20
3499.999992414184
 30
0.0
 11
1437.000031862772
 21
3485.000655551823
 31
0.0
  0
LINE
  5
F2D
330
2
100
AcDbEntity
  8
0
  6
Continuous
 62
     9
100
AcDbLine
 10
1435.000031862772
 20
3499.999992414184
 30
0.0
 11
1435.000031862772
 21
3469.999992414184
 31
0.0
  0
LINE
  5
F2E
330
2
100
AcDbEntity
  8
0
  6
Continuous
 62
     7
100
AcDbLine
 10
1437.000031862772
 20
3485.000655551823
 30
0.0
 11
1437.000031862772
 21
3469.999992414184
 31
0.0
  0
LINE
  5
F2F
330
2
100
AcDbEntity
  8
0
  6
Continuous
 62
     7
100
AcDbLine
 10
1434.000031862772
 20
3498.999992414184
 30
0.0
 11
1434.000031862772
 21
3470.999992414184
 31
0.0
  0
LINE
  5
F30
330
2
100
AcDbEntity
  8
0
  6
Continuous
 62
     7
100
AcDbLine
 10
2597.000031910413
 20
3472.499992440604
 30
0.0
 11
2597.000031910413
 21
3484.999677146983
 31
0.0
  0
LINE
  5
F31
330
2
100
AcDbEntity
  8
0
  6
Continuous
 62
     7
100
AcDbLine
 10
2602.700031910414
 20
3472.499992440604
 30
0.0
 11
2602.700031910414
 21
3484.999677146983
 31
0.0
  0
LINE
  5
F32
330
2
100
AcDbEntity
  8
0
  6
Continuous
 62
     7
100
AcDbLine
 10
2597.000031910413
 20
3484.999677146983
 30
0.0
 11
2597.000031910413
 21
3497.499992440604
 31
0.0
  0
LINE
  5
F33
330
2
100
AcDbEntity
  8
0
  6
Continuous
 62
     7
100
AcDbLine
 10
2602.700031910414
 20
3484.999677146983
 30
0.0
 11
2602.700031910414
 21
3497.499992440604
 31
0.0
  0
LINE
  5
F34
330
2
100
AcDbEntity
  8
0
  6
Continuous
 62
     7
100
AcDbLine
 10
2603.000031910413
 20
3497.199992440604
 30
0.0
 11
2603.000031910413
 21
3484.99968471403
 31
0.0
  0
LINE
  5
F35
330
2
100
AcDbEntity
  8
0
  6
Continuous
 62
     7
100
AcDbLine
 10
2603.000031910413
 20
3484.99968471403
 30
0.0
 11
2603.000031910413
 21
3472.799992440604
 31
0.0
  0
LINE
  5
F36
330
2
100
AcDbEntity
  8
0
  6
Continuous
 62
     4
100
AcDbLine
 10
1431.000031862772
 20
1539.999992414163
 30
0.0
 11
1431.000031862772
 21
3539.999992414163
 31
0.0
  0
LINE
  5
F37
330
2
100
AcDbEntity
  8
0
  6
Continuous
 62
     4
100
AcDbLine
 10
1423.000031862772
 20
3539.999992414163
 30
0.0
 11
1431.000031862772
 21
3539.999992414163
 31
0.0
  0
LINE
  5
F38
330
2
100
AcDbEntity
  8
0
  6
Continuous
 62
     4
100
AcDbLine
 10
1423.000031862772
 20
1539.999992414163
 30
0.0
 11
1423.000031862772
 21
3539.999992414163
 31
0.0
  0
LINE
  5
F39
330
2
100
AcDbEntity
  8
0
  6
Continuous
 62
     4
100
AcDbLine
 10
2596.000031911712
 20
1539.999992441307
 30
0.0
 11
2596.000031911712
 21
3539.999992441308
 31
0.0
  0
LINE
  5
F3A
330
2
100
AcDbEntity
  8
0
  6
Continuous
 62
     4
100
AcDbLine
 10
2588.000031911712
 20
1539.999992441307
 30
0.0
 11
2588.000031911712
 21
3539.999992441308
 31
0.0
  0
LINE
  5
F3B
330
2
100
AcDbEntity
  8
0
  6
Continuous
 62
     4
100
AcDbLine
 10
2588.000031911712
 20
3539.999992441308
 30
0.0
 11
2596.000031911712
 21
3539.999992441308
 31
0.0
  0
LINE
  5
F3C
330
2
100
AcDbEntity
  8
0
  6
Continuous
 62
     7
100
AcDbLine
 10
1472.000031863212
 20
1558.999992369025
 30
0.0
 11
1472.000031863021
 21
1560.999992369153
 31
0.0
  0
LINE
  5
F3D
330
2
100
AcDbEntity
  8
0
  6
Continuous
 62
     9
100
AcDbLine
 10
1472.000031863212
 20
1558.999992369025
 30
0.0
 11
1432.000031863212
 21
1558.999992365155
 31
0.0
  0
LINE
  5
F3E
330
2
100
AcDbEntity
  8
0
  6
Continuous
 62
     7
100
AcDbLine
 10
1472.000031863021
 20
1560.999992369153
 30
0.0
 11
1434.000031863021
 21
1560.999992365477
 31
0.0
  0
ARC
  5
F3F
330
2
100
AcDbEntity
  8
0
  6
Continuous
 62
     7
100
AcDbCircle
 10
1434.000031863212
 20
1558.999992365477
 30
0.0
 40
2.000000000063061
100
AcDbArc
 50
90.00000000552368
 51
180.0000000092235
  0
LINE
  5
F40
330
2
100
AcDbEntity
  8
0
  6
Continuous
 62
     7
100
AcDbLine
 10
1432.000031863221
 20
1558.999992365155
 30
0.0
 11
1432.000031865053
 21
1539.999992365155
 31
0.0
  0
LINE
  5
F41
330
2
100
AcDbEntity
  8
0
  6
Continuous
 62
     7
100
AcDbLine
 10
1472.000031865053
 20
1539.999992369025
 30
0.0
 11
1472.000031863212
 21
1558.999992369025
 31
0.0
  0
LINE
  5
F42
330
2
100
AcDbEntity
  8
0
  6
Continuous
 62
     7
100
AcDbLine
 10
1432.000033456612
 20
3539.9999923643
 30
0.0
 11
1432.000033456603
 21
3488.050002411227
 31
0.0
  0
LINE
  5
F43
330
2
100
AcDbEntity
  8
0
  6
Continuous
 62
     7
100
AcDbLine
 10
1432.000033456603
 20
3488.050002411227
 30
0.0
 11
1432.000033456603
 21
3487.999992414184
 31
0.0
  0
LINE
  5
F44
330
2
100
AcDbEntity
  8
0
  6
Continuous
 62
     7
100
AcDbLine
 10
1432.000033456603
 20
3481.999992414184
 30
0.0
 11
1432.000033456603
 21
3481.949982417141
 31
0.0
  0
LINE
  5
F45
330
2
100
AcDbEntity
  8
0
  6
Continuous
 62
     7
100
AcDbLine
 10
1432.000033456603
 20
3481.949982417141
 30
0.0
 11
1432.000033456321
 21
1558.999992366502
 31
0.0
  0
LINE
  5
F46
330
2
100
AcDbEntity
  8
0
  6
Continuous
 62
     7
100
AcDbLine
 10
1437.800031770883
 20
3539.999992364386
 30
0.0
 11
1437.800031770872
 21
3499.999992356271
 31
0.0
  0
LINE
  5
F47
330
2
100
AcDbEntity
  8
0
  6
Continuous
 62
     7
100
AcDbLine
 10
1437.800031770872
 20
3469.999992356271
 30
0.0
 11
1437.800031770592
 21
1560.999992365845
 31
0.0
  0
LINE
  5
F48
330
2
100
AcDbEntity
  8
0
  6
Continuous
 62
     7
100
AcDbLine
 10
1437.800031770883
 20
3539.999992364272
 30
0.0
 11
1432.000033456612
 21
3539.999992364273
 31
0.0
  0
LINE
  5
F49
330
2
100
AcDbEntity
  8
0
  6
Continuous
 62
     9
100
AcDbLine
 10
1450.200029303831
 20
3539.999992364385
 30
0.0
 11
1450.200029303822
 21
3499.999992356344
 31
0.0
  0
LINE
  5
F4A
330
2
100
AcDbEntity
  8
0
  6
Continuous
 62
     9
100
AcDbLine
 10
1450.200029303822
 20
3469.999992356344
 30
0.0
 11
1450.200029303541
 21
1560.999992367044
 31
0.0
  0
LINE
  5
F4B
330
2
100
AcDbEntity
  8
0
  6
Continuous
 62
     7
100
AcDbLine
 10
1450.200029303831
 20
3539.999992364385
 30
0.0
 11
1437.800031770883
 21
3539.999992364386
 31
0.0
  0
LINE
  5
F4C
330
2
100
AcDbEntity
  8
0
  6
Continuous
 62
     9
100
AcDbLine
 10
1451.000029350673
 20
3539.999992364359
 30
0.0
 11
1451.000029350673
 21
3499.999992356349
 31
0.0
  0
LINE
  5
F4D
330
2
100
AcDbEntity
  8
0
  6
Continuous
 62
     9
100
AcDbLine
 10
1451.000029350662
 20
3469.999992356349
 30
0.0
 11
1451.000029350391
 21
1560.999992367121
 31
0.0
  0
LINE
  5
F4E
330
2
100
AcDbEntity
  8
0
  6
Continuous
 62
     7
100
AcDbLine
 10
1451.000029350673
 20
3539.999992364359
 30
0.0
 11
1450.200029303831
 21
3539.999992364359
 31
0.0
  0
LINE
  5
F4F
330
2
100
AcDbEntity
  8
0
  6
Continuous
 62
     7
100
AcDbLine
 10
1451.000029397522
 20
3539.999992364331
 30
0.0
 11
1451.000029397513
 21
3499.999992356349
 31
0.0
  0
LINE
  5
F50
330
2
100
AcDbEntity
  8
0
  6
Continuous
 62
     7
100
AcDbLine
 10
1451.000029397513
 20
3469.999992356349
 30
0.0
 11
1451.000029397232
 21
1560.999992367121
 31
0.0
  0
LINE
  5
F51
330
2
100
AcDbEntity
  8
0
  6
Continuous
 62
     7
100
AcDbLine
 10
1432.000033106331
 20
3539.9999923641
 30
0.0
 11
1432.000033106331
 21
3488.050002411237
 31
0.0
  0
LINE
  5
F52
330
2
100
AcDbEntity
  8
0
  6
Continuous
 62
     7
100
AcDbLine
 10
1432.000033106331
 20
3488.050002411237
 30
0.0
 11
1432.000033106331
 21
3487.999992414184
 31
0.0
  0
LINE
  5
F53
330
2
100
AcDbEntity
  8
0
  6
Continuous
 62
     7
100
AcDbLine
 10
1432.000033106331
 20
3481.999992414184
 30
0.0
 11
1432.000033106331
 21
3481.949982417131
 31
0.0
  0
LINE
  5
F54
330
2
100
AcDbEntity
  8
0
  6
Continuous
 62
     7
100
AcDbLine
 10
1432.000033106331
 20
3481.949982417131
 30
0.0
 11
1432.000033106053
 21
1558.999992366502
 31
0.0
  0
LINE
  5
F55
330
2
100
AcDbEntity
  8
0
  6
Continuous
 62
     9
100
AcDbLine
 10
1478.000031862171
 20
2534.999992365725
 30
0.0
 11
1479.000031862202
 21
2534.999992365725
 31
0.0
  0
ARC
  5
F56
330
2
100
AcDbEntity
  8
0
  6
Continuous
 62
     7
100
AcDbCircle
 10
1478.000031862202
 20
2534.999992365725
 30
0.0
 40
0.9999999999998896
100
AcDbArc
 50
270.0
 51
0.0
  0
LINE
  5
F57
330
2
100
AcDbEntity
  8
0
  6
Continuous
 62
     9
100
AcDbLine
 10
1478.000031862202
 20
2534.999992365796
 30
0.0
 11
1478.000031862202
 21
2533.999992365725
 31
0.0
  0
LINE
  5
F58
330
2
100
AcDbEntity
  8
0
  6
Continuous
 62
     9
100
AcDbLine
 10
1460.000031862171
 20
2534.999992365798
 30
0.0
 11
1478.000031862171
 21
2534.999992365796
 31
0.0
  0
LINE
  5
F59
330
2
100
AcDbEntity
  8
0
  6
Continuous
 62
     7
100
AcDbLine
 10
1478.000031862202
 20
2533.999992365725
 30
0.0
 11
1460.000031862202
 21
2533.999992365727
 31
0.0
  0
LINE
  5
F5A
330
2
100
AcDbEntity
  8
0
  6
Continuous
 62
     9
100
AcDbLine
 10
1460.000031862202
 20
2534.999992365798
 30
0.0
 11
1460.000031862202
 21
2533.999992365727
 31
0.0
  0
LINE
  5
F5B
330
2
100
AcDbEntity
  8
0
  6
Continuous
 62
     9
100
AcDbLine
 10
1478.000031862171
 20
2534.999992365796
 30
0.0
 11
1478.000031862171
 21
2552.999992365793
 31
0.0
  0
LINE
  5
F5C
330
2
100
AcDbEntity
  8
0
  6
Continuous
 62
     9
100
AcDbLine
 10
1478.000031862171
 20
2552.999992365723
 30
0.0
 11
1479.000031862213
 21
2552.999992365723
 31
0.0
  0
LINE
  5
F5D
330
2
100
AcDbEntity
  8
0
  6
Continuous
 62
     7
100
AcDbLine
 10
1479.000031862213
 20
2552.999992365723
 30
0.0
 11
1479.000031862202
 21
2534.999992365725
 31
0.0
  0
LINE
  5
F5E
330
2
100
AcDbEntity
  8
0
  6
Continuous
 62
     9
100
AcDbLine
 10
1460.000031862171
 20
2552.999992365796
 30
0.0
 11
1460.000031862171
 21
2534.999992365798
 31
0.0
  0
LINE
  5
F5F
330
2
100
AcDbEntity
  8
0
  6
Continuous
 62
     9
100
AcDbLine
 10
1478.000031862171
 20
2552.999992365793
 30
0.0
 11
1460.000031862171
 21
2552.999992365796
 31
0.0
  0
ARC
  5
F60
330
2
100
AcDbEntity
  8
0
  6
Continuous
 62
     7
100
AcDbCircle
 10
1460.000031862202
 20
2534.999992365728
 30
0.0
 40
0.9999999999994455
100
AcDbArc
 50
180.0
 51
270.0
  0
LINE
  5
F61
330
2
100
AcDbEntity
  8
0
  6
Continuous
 62
     9
100
AcDbLine
 10
1459.000031862202
 20
2534.999992365728
 30
0.0
 11
1460.000031862171
 21
2534.999992365728
 31
0.0
  0
LINE
  5
F62
330
2
100
AcDbEntity
  8
0
  6
Continuous
 62
     7
100
AcDbLine
 10
1459.000031862202
 20
2534.999992365728
 30
0.0
 11
1459.000031862202
 21
2552.999992365725
 31
0.0
  0
LINE
  5
F63
330
2
100
AcDbEntity
  8
0
  6
Continuous
 62
     9
100
AcDbLine
 10
1459.000031862202
 20
2552.999992365725
 30
0.0
 11
1460.000031862171
 21
2552.999992365725
 31
0.0
  0
ARC
  5
F64
330
2
100
AcDbEntity
  8
0
  6
Continuous
 62
     7
100
AcDbCircle
 10
1478.000031862202
 20
2552.999992365723
 30
0.0
 40
0.9999999999998896
100
AcDbArc
 50
0.0
 51
90.0
  0
LINE
  5
F65
330
2
100
AcDbEntity
  8
0
  6
Continuous
 62
     9
100
AcDbLine
 10
1478.000031862202
 20
2553.999992365723
 30
0.0
 11
1478.000031862202
 21
2552.999992365793
 31
0.0
  0
LINE
  5
F66
330
2
100
AcDbEntity
  8
0
  6
Continuous
 62
     7
100
AcDbLine
 10
1460.000031862213
 20
2553.999992365725
 30
0.0
 11
1478.000031862202
 21
2553.999992365723
 31
0.0
  0
LINE
  5
F67
330
2
100
AcDbEntity
  8
0
  6
Continuous
 62
     9
100
AcDbLine
 10
1460.000031862213
 20
2553.999992365725
 30
0.0
 11
1460.000031862213
 21
2552.999992365796
 31
0.0
  0
ARC
  5
F68
330
2
100
AcDbEntity
  8
0
  6
Continuous
 62
     7
100
AcDbCircle
 10
1460.000031862213
 20
2552.999992365725
 30
0.0
 40
0.9999999999998896
100
AcDbArc
 50
90.0
 51
180.0
  0
ARC
  5
F69
330
2
100
AcDbEntity
  8
0
  6
Continuous
 62
     7
100
AcDbCircle
 10
1491.000031864891
 20
3461.999992363136
 30
0.0
 40
7.500000000000283
100
AcDbArc
 50
180.0000000005993
 51
0.0000000005992674
  0
CIRCLE
  5
F6A
330
2
100
AcDbEntity
  8
0
  6
Continuous
 62
     9
100
AcDbCircle
 10
1491.000031864922
 20
3461.999992363121
 30
0.0
 40
6.999999999999673
  0
ARC
  5
F6B
330
2
100
AcDbEntity
  8
0
  6
Continuous
 62
     7
100
AcDbCircle
 10
1491.000031864891
 20
3461.999992363136
 30
0.0
 40
7.500000000000283
100
AcDbArc
 50
0.0000000005992674
 51
180.0000000005993
  0
LINE
  5
F6C
330
2
100
AcDbEntity
  8
0
  6
Continuous
 62
     7
100
AcDbLine
 10
1491.750031864982
 20
3457.00188673751
 30
0.0
 11
1491.750031864871
 21
3466.998097988747
 31
0.0
  0
LINE
  5
F6D
330
2
100
AcDbEntity
  8
0
  6
Continuous
 62
     7
100
AcDbLine
 10
1491.750031864871
 20
3466.998097988747
 30
0.0
 11
1490.250031864871
 21
3466.998097988732
 31
0.0
  0
LINE
  5
F6E
330
2
100
AcDbEntity
  8
0
  6
Continuous
 62
     7
100
AcDbLine
 10
1490.250031864971
 20
3457.001886737494
 30
0.0
 11
1490.250031864871
 21
3466.998097988732
 31
0.0
  0
LINE
  5
F6F
330
2
100
AcDbEntity
  8
0
  6
Continuous
 62
     7
100
AcDbLine
 10
1490.250031864971
 20
3457.001886737494
 30
0.0
 11
1491.750031864982
 21
3457.00188673751
 31
0.0
  0
LINE
  5
F70
330
2
100
AcDbEntity
  8
0
  6
Continuous
 62
     9
100
AcDbLine
 10
1490.250031864791
 20
3462.874992363174
 30
0.0
 11
1491.750031864791
 21
3462.87499236319
 31
0.0
  0
LINE
  5
F71
330
2
100
AcDbEntity
  8
0
  6
Continuous
 62
     9
100
AcDbLine
 10
1490.250031864803
 20
3461.124992363174
 30
0.0
 11
1491.750031864803
 21
3461.12499236319
 31
0.0
  0
ARC
  5
F72
330
2
100
AcDbEntity
  8
0
  6
Continuous
 62
     7
100
AcDbCircle
 10
1491.00003186369
 20
3461.999992363718
 30
0.0
 40
9.999999999999786
100
AcDbArc
 50
126.8698977142803
 51
180.0000000005993
  0
ARC
  5
F73
330
2
100
AcDbEntity
  8
0
  6
Continuous
 62
     7
100
AcDbCircle
 10
1491.00003186369
 20
3461.999992363718
 30
0.0
 40
9.999999999999786
100
AcDbArc
 50
180.0000000005993
 51
53.13010228638665
  0
CIRCLE
  5
F74
330
2
100
AcDbEntity
  8
0
  6
Continuous
 62
     7
100
AcDbCircle
 10
1491.000031863063
 20
3509.999992363114
 30
0.0
 40
10.5000000000004
  0
CIRCLE
  5
F75
330
2
100
AcDbEntity
  8
0
  6
Continuous
 62
     7
100
AcDbCircle
 10
1491.000031863063
 20
3509.99999236313
 30
0.0
 40
12.49999999999929
  0
LINE
  5
F76
330
2
100
AcDbEntity
  8
0
  6
Continuous
 62
     7
100
AcDbLine
 10
1491.750031863114
 20
3505.001886737504
 30
0.0
 11
1491.750031863013
 21
3514.99809798874
 31
0.0
  0
LINE
  5
F77
330
2
100
AcDbEntity
  8
0
  6
Continuous
 62
     7
100
AcDbLine
 10
1491.750031863013
 20
3514.99809798874
 30
0.0
 11
1490.250031863005
 21
3514.998097988725
 31
0.0
  0
LINE
  5
F78
330
2
100
AcDbEntity
  8
0
  6
Continuous
 62
     7
100
AcDbLine
 10
1490.250031863113
 20
3505.001886737487
 30
0.0
 11
1490.250031863005
 21
3514.998097988725
 31
0.0
  0
LINE
  5
F79
330
2
100
AcDbEntity
  8
0
  6
Continuous
 62
     7
100
AcDbLine
 10
1490.250031863113
 20
3505.001886737487
 30
0.0
 11
1491.750031863114
 21
3505.001886737504
 31
0.0
  0
LINE
  5
F7A
330
2
100
AcDbEntity
  8
0
  6
Continuous
 62
     9
100
AcDbLine
 10
1490.250031863052
 20
3510.874992363168
 30
0.0
 11
1491.750031863052
 21
3510.874992363183
 31
0.0
  0
LINE
  5
F7B
330
2
100
AcDbEntity
  8
0
  6
Continuous
 62
     9
100
AcDbLine
 10
1490.250031863063
 20
3509.124992363167
 30
0.0
 11
1491.750031863072
 21
3509.124992363183
 31
0.0
  0
ARC
  5
F7C
330
2
100
AcDbEntity
  8
0
  6
Continuous
 62
     7
100
AcDbCircle
 10
1933.000031864891
 20
3461.999992363101
 30
0.0
 40
7.500000000000283
100
AcDbArc
 50
180.0000000005993
 51
0.0000000005992674
  0
CIRCLE
  5
F7D
330
2
100
AcDbEntity
  8
0
  6
Continuous
 62
     9
100
AcDbCircle
 10
1933.000031864922
 20
3461.999992363086
 30
0.0
 40
6.999999999999673
  0
ARC
  5
F7E
330
2
100
AcDbEntity
  8
0
  6
Continuous
 62
     7
100
AcDbCircle
 10
1933.000031864891
 20
3461.999992363101
 30
0.0
 40
7.500000000000283
100
AcDbArc
 50
0.0000000005992674
 51
180.0000000005993
  0
LINE
  5
F7F
330
2
100
AcDbEntity
  8
0
  6
Continuous
 62
     7
100
AcDbLine
 10
1933.750031864971
 20
3457.001886737478
 30
0.0
 11
1933.750031864871
 21
3466.998097988709
 31
0.0
  0
LINE
  5
F80
330
2
100
AcDbEntity
  8
0
  6
Continuous
 62
     7
100
AcDbLine
 10
1933.750031864871
 20
3466.998097988709
 30
0.0
 11
1932.250031864871
 21
3466.998097988694
 31
0.0
  0
LINE
  5
F81
330
2
100
AcDbEntity
  8
0
  6
Continuous
 62
     7
100
AcDbLine
 10
1932.250031864971
 20
3457.001886737463
 30
0.0
 11
1932.250031864871
 21
3466.998097988694
 31
0.0
  0
LINE
  5
F82
330
2
100
AcDbEntity
  8
0
  6
Continuous
 62
     7
100
AcDbLine
 10
1932.250031864971
 20
3457.001886737463
 30
0.0
 11
1933.750031864971
 21
3457.001886737478
 31
0.0
  0
LINE
  5
F83
330
2
100
AcDbEntity
  8
0
  6
Continuous
 62
     9
100
AcDbLine
 10
1932.250031864782
 20
3462.87499236314
 30
0.0
 11
1933.750031864781
 21
3462.874992363155
 31
0.0
  0
LINE
  5
F84
330
2
100
AcDbEntity
  8
0
  6
Continuous
 62
     9
100
AcDbLine
 10
1932.250031864803
 20
3461.12499236314
 30
0.0
 11
1933.750031864803
 21
3461.124992363155
 31
0.0
  0
ARC
  5
F85
330
2
100
AcDbEntity
  8
0
  6
Continuous
 62
     7
100
AcDbCircle
 10
1933.00003186369
 20
3461.999992363684
 30
0.0
 40
9.999999999999786
100
AcDbArc
 50
126.869897688861
 51
180.0000000005993
  0
ARC
  5
F86
330
2
100
AcDbEntity
  8
0
  6
Continuous
 62
     7
100
AcDbCircle
 10
1933.00003186369
 20
3461.999992363684
 30
0.0
 40
10.00000000000014
100
AcDbArc
 50
180.0000000005993
 51
53.13010231180601
  0
CIRCLE
  5
F87
330
2
100
AcDbEntity
  8
0
  6
Continuous
 62
     7
100
AcDbCircle
 10
1933.000031863052
 20
3509.999992363051
 30
0.0
 40
10.5000000000004
  0
CIRCLE
  5
F88
330
2
100
AcDbEntity
  8
0
  6
Continuous
 62
     7
100
AcDbCircle
 10
1933.000031863052
 20
3509.999992363067
 30
0.0
 40
12.49999999999929
  0
LINE
  5
F89
330
2
100
AcDbEntity
  8
0
  6
Continuous
 62
     7
100
AcDbLine
 10
1933.750031863113
 20
3505.001886737443
 30
0.0
 11
1933.750031863004
 21
3514.998097988673
 31
0.0
  0
LINE
  5
F8A
330
2
100
AcDbEntity
  8
0
  6
Continuous
 62
     7
100
AcDbLine
 10
1933.750031863004
 20
3514.998097988673
 30
0.0
 11
1932.250031863004
 21
3514.998097988659
 31
0.0
  0
LINE
  5
F8B
330
2
100
AcDbEntity
  8
0
  6
Continuous
 62
     7
100
AcDbLine
 10
1932.250031863114
 20
3505.001886737427
 30
0.0
 11
1932.250031863004
 21
3514.998097988659
 31
0.0
  0
LINE
  5
F8C
330
2
100
AcDbEntity
  8
0
  6
Continuous
 62
     7
100
AcDbLine
 10
1932.250031863114
 20
3505.001886737427
 30
0.0
 11
1933.750031863113
 21
3505.001886737443
 31
0.0
  0
LINE
  5
F8D
330
2
100
AcDbEntity
  8
0
  6
Continuous
 62
     9
100
AcDbLine
 10
1932.250031863052
 20
3510.874992363104
 30
0.0
 11
1933.750031863052
 21
3510.874992363119
 31
0.0
  0
LINE
  5
F8E
330
2
100
AcDbEntity
  8
0
  6
Continuous
 62
     9
100
AcDbLine
 10
1932.250031863063
 20
3509.124992363105
 30
0.0
 11
1933.750031863072
 21
3509.12499236312
 31
0.0
  0
LINE
  5
F8F
330
2
100
AcDbEntity
  8
0
  6
Continuous
 62
     4
100
AcDbLine
 10
1982.000031862772
 20
3539.99999236426
 30
0.0
 11
1451.000029912813
 21
3539.999992364336
 31
0.0
  0
CIRCLE
  5
F90
330
2
100
AcDbEntity
  8
0
  6
Continuous
 62
     7
100
AcDbCircle
 10
2035.000031859512
 20
3484.999992365655
 30
0.0
 40
12.49999999999929
  0
CIRCLE
  5
F91
330
2
100
AcDbEntity
  8
0
  6
Continuous
 62
     7
100
AcDbCircle
 10
2035.000031859481
 20
3484.999992365664
 30
0.0
 40
12.19999999999999
  0
CIRCLE
  5
F92
330
2
100
AcDbEntity
  8
0
  6
Continuous
 62
     7
100
AcDbCircle
 10
2035.06736204594
 20
3490.499580227132
 30
0.0
 40
1.250000000000639
  0
CIRCLE
  5
F93
330
2
100
AcDbEntity
  8
0
  6
Continuous
 62
     7
100
AcDbCircle
 10
2034.932701673013
 20
3479.500404504198
 30
0.0
 40
1.250000000000639
  0
CIRCLE
  5
F94
330
2
100
AcDbEntity
  8
0
  6
Continuous
 62
     7
100
AcDbCircle
 10
2535.000031862772
 20
3484.999992365651
 30
0.0
 40
12.49999999999929
  0
CIRCLE
  5
F95
330
2
100
AcDbEntity
  8
0
  6
Continuous
 62
     7
100
AcDbCircle
 10
2535.000031862772
 20
3484.99999236566
 30
0.0
 40
12.19999999999999
  0
CIRCLE
  5
F96
330
2
100
AcDbEntity
  8
0
  6
Continuous
 62
     7
100
AcDbCircle
 10
2535.059712334982
 20
3490.499668559877
 30
0.0
 40
1.250000000000639
  0
CIRCLE
  5
F97
330
2
100
AcDbEntity
  8
0
  6
Continuous
 62
     7
100
AcDbCircle
 10
2534.940351390562
 20
3479.500316171443
 30
0.0
 40
1.250000000000639
  0
LINE
  5
F98
330
2
100
AcDbEntity
  8
0
  6
Continuous
 62
     7
100
AcDbLine
 10
1982.000031862772
 20
3469.999992359502
 30
0.0
 11
1435.000031861864
 21
3469.999992356255
 31
0.0
  0
LINE
  5
F99
330
2
100
AcDbEntity
  8
0
  6
Continuous
 62
     9
100
AcDbLine
 10
1437.000031862772
 20
3472.49999235635
 30
0.0
 11
1982.000031862772
 21
3472.499992359586
 31
0.0
  0
LINE
  5
F9A
330
2
100
AcDbEntity
  8
0
  6
Continuous
 62
     9
100
AcDbLine
 10
1982.000031862772
 20
3497.499992359585
 30
0.0
 11
1933.00003186313
 21
3497.499992359295
 31
0.0
  0
LINE
  5
F9B
330
2
100
AcDbEntity
  8
0
  6
Continuous
 62
     9
100
AcDbLine
 10
1933.00003186313
 20
3497.499992359295
 30
0.0
 11
1491.00003186313
 21
3497.499992356671
 31
0.0
  0
LINE
  5
F9C
330
2
100
AcDbEntity
  8
0
  6
Continuous
 62
     9
100
AcDbLine
 10
1491.00003186313
 20
3497.499992356671
 30
0.0
 11
1437.000031862772
 21
3497.49999235635
 31
0.0
  0
LINE
  5
F9D
330
2
100
AcDbEntity
  8
0
  6
Continuous
 62
     7
100
AcDbLine
 10
1435.000031861689
 20
3499.999992356253
 30
0.0
 11
1483.50003187257
 21
3499.999992356542
 31
0.0
  0
LINE
  5
F9E
330
2
100
AcDbEntity
  8
0
  6
Continuous
 62
     7
100
AcDbLine
 10
1498.500031853662
 20
3499.999992356631
 30
0.0
 11
1925.500031869002
 21
3499.999992359165
 31
0.0
  0
LINE
  5
F9F
330
2
100
AcDbEntity
  8
0
  6
Continuous
 62
     7
100
AcDbLine
 10
1940.500031857233
 20
3499.999992359255
 30
0.0
 11
1982.000031862772
 21
3499.999992359501
 31
0.0
  0
LINE
  5
FA0
330
2
100
AcDbEntity
  8
0
  6
Continuous
 62
     9
100
AcDbLine
 10
1977.000031862713
 20
1557.499992447443
 30
0.0
 11
1472.000031863363
 21
1557.499992398592
 31
0.0
  0
LINE
  5
FA1
330
2
100
AcDbEntity
  8
0
  6
Continuous
 62
     7
100
AcDbLine
 10
1977.000031862623
 20
1559.999992447603
 30
0.0
 11
1472.000031863104
 21
1559.999992398752
 31
0.0
  0
LINE
  5
FA2
330
2
100
AcDbEntity
  8
0
  6
Continuous
 62
     9
100
AcDbLine
 10
1977.000031864163
 20
1542.499992447443
 30
0.0
 11
1472.000031864812
 21
1542.499992398592
 31
0.0
  0
LINE
  5
FA3
330
2
100
AcDbEntity
  8
0
  6
Continuous
 62
     7
100
AcDbLine
 10
1977.000031863283
 20
1559.999992365216
 30
0.0
 11
1977.000031863283
 21
1562.499992365215
 31
0.0
  0
LINE
  5
FA4
330
2
100
AcDbEntity
  8
0
  6
Continuous
 62
     7
100
AcDbLine
 10
1977.000031863283
 20
1562.499992365215
 30
0.0
 11
1982.000031862772
 21
1562.499992365215
 31
0.0
  0
LINE
  5
FA5
330
2
100
AcDbEntity
  8
0
  6
Continuous
 62
     9
100
AcDbLine
 10
1979.000031862313
 20
1559.999992364258
 30
0.0
 11
1979.000031862313
 21
1539.999992364258
 31
0.0
  0
LINE
  5
FA6
330
2
100
AcDbEntity
  8
0
  6
Continuous
 62
     7
100
AcDbLine
 10
2017.000031862314
 20
1539.999992364258
 30
0.0
 11
2017.000031862314
 21
1559.999992364258
 31
0.0
  0
LINE
  5
FA7
330
2
100
AcDbEntity
  8
0
  6
Continuous
 62
     7
100
AcDbLine
 10
2017.000031862314
 20
1559.999992364258
 30
0.0
 11
1979.000031862313
 21
1559.999992364258
 31
0.0
  0
LINE
  5
FA8
330
2
100
AcDbEntity
  8
0
  6
Continuous
 62
     7
100
AcDbLine
 10
1977.000031862439
 20
1539.999992364388
 30
0.0
 11
1977.000031862439
 21
1559.999992364386
 31
0.0
  0
LINE
  5
FA9
330
2
100
AcDbEntity
  8
0
  6
Continuous
 62
     7
100
AcDbLine
 10
1977.000031862439
 20
1559.999992364386
 30
0.0
 11
1979.000031862313
 21
1559.999992364386
 31
0.0
  0
LINE
  5
FAA
330
2
100
AcDbEntity
  8
0
  6
Continuous
 62
     4
100
AcDbLine
 10
1982.000031862772
 20
3539.999992365391
 30
0.0
 11
2588.000031862772
 21
3539.999992365391
 31
0.0
  0
CIRCLE
  5
FAB
330
2
100
AcDbEntity
  8
0
  6
Continuous
 62
     4
100
AcDbCircle
 10
2547.000031862772
 20
3389.999992365389
 30
0.0
 40
15.00000000000057
  0
CIRCLE
  5
FAC
330
2
100
AcDbEntity
  8
0
  6
Continuous
 62
     4
100
AcDbCircle
 10
2547.000031862772
 20
1689.999992365391
 30
0.0
 40
15.00000000000057
  0
LINE
  5
FAD
330
2
100
AcDbEntity
  8
0
  6
Continuous
 62
     4
100
AcDbLine
 10
1982.000031862772
 20
1559.999992365155
 30
0.0
 11
1982.000031862772
 21
3539.999992365391
 31
0.0
  0
LINE
  5
FAE
330
2
100
AcDbEntity
  8
0
  6
Continuous
 62
     4
100
AcDbLine
 10
2588.000031862772
 20
1539.999992365391
 30
0.0
 11
2588.000031862772
 21
3539.999992365391
 31
0.0
  0
LINE
  5
FAF
330
2
100
AcDbEntity
  8
0
  6
Continuous
 62
     7
100
AcDbLine
 10
2610.000031862772
 20
1489.999992363714
 30
0.0
 11
1410.000031862772
 21
1489.999992363714
 31
0.0
  0
LINE
  5
FB0
330
2
100
AcDbEntity
  8
0
  6
Continuous
 62
     7
100
AcDbLine
 10
2610.000031862772
 20
1489.999992363714
 30
0.0
 11
2610.000031862772
 21
1539.999992363714
 31
0.0
  0
LINE
  5
FB1
330
2
100
AcDbEntity
  8
0
  6
Continuous
 62
     7
100
AcDbLine
 10
2610.000031862772
 20
1539.999992363714
 30
0.0
 11
1410.000031862772
 21
1539.999992363714
 31
0.0
  0
LINE
  5
FB2
330
2
100
AcDbEntity
  8
0
  6
Continuous
 62
     7
100
AcDbLine
 10
1410.000031862772
 20
1489.999992363714
 30
0.0
 11
1410.000031862772
 21
1539.999992363714
 31
0.0
  0
LINE
  5
FB3
330
2
100
AcDbEntity
  8
0
  6
Continuous
 62
     9
100
AcDbLine
 10
1433.000031861902
 20
3487.499992414184
 30
0.0
 11
1432.000031862772
 21
3487.499992414184
 31
0.0
  0
LINE
  5
FB4
330
2
100
AcDbEntity
  8
0
  6
Continuous
 62
     9
100
AcDbLine
 10
1432.000031862772
 20
3482.499992414184
 30
0.0
 11
1433.000031861902
 21
3482.499992414184
 31
0.0
  0
LINE
  5
FB5
330
2
100
AcDbEntity
  8
0
  6
Continuous
 62
     7
100
AcDbLine
 10
1431.500031863672
 20
1704.249992412298
 30
0.0
 11
1431.000031863672
 21
1704.249992412236
 31
0.0
  0
LINE
  5
FB6
330
2
100
AcDbEntity
  8
0
  6
Continuous
 62
     7
100
AcDbLine
 10
1431.000031867261
 20
1675.749992412236
 30
0.0
 11
1431.500031867272
 21
1675.749992412298
 31
0.0
  0
LINE
  5
FB7
330
2
100
AcDbEntity
  8
0
  6
Continuous
 62
     7
100
AcDbLine
 10
1432.000033106073
 20
1704.999992412362
 30
0.0
 11
1431.500031863572
 21
1704.999992412298
 31
0.0
  0
LINE
  5
FB8
330
2
100
AcDbEntity
  8
0
  6
Continuous
 62
     7
100
AcDbLine
 10
1431.500031867352
 20
1674.999992412299
 30
0.0
 11
1432.000033106062
 21
1674.999992412363
 31
0.0
  0
LINE
  5
FB9
330
2
100
AcDbEntity
  8
0
  6
Continuous
 62
     7
100
AcDbLine
 10
1431.500031863654
 20
3404.249992412303
 30
0.0
 11
1431.000031863641
 21
3404.24999241224
 31
0.0
  0
LINE
  5
FBA
330
2
100
AcDbEntity
  8
0
  6
Continuous
 62
     7
100
AcDbLine
 10
1431.000031867232
 20
3375.749992412241
 30
0.0
 11
1431.500031867239
 21
3375.749992412304
 31
0.0
  0
LINE
  5
FBB
330
2
100
AcDbEntity
  8
0
  6
Continuous
 62
     7
100
AcDbLine
 10
1432.000033106322
 20
3404.999992412366
 30
0.0
 11
1431.500031863552
 21
3404.999992412303
 31
0.0
  0
LINE
  5
FBC
330
2
100
AcDbEntity
  8
0
  6
Continuous
 62
     7
100
AcDbLine
 10
1431.500031867332
 20
3374.999992412304
 30
0.0
 11
1432.000033106311
 21
3374.999992412367
 31
0.0
  0
LINE
  5
FBD
330
2
100
AcDbEntity
  8
0
  6
Continuous
 62
     7
100
AcDbLine
 10
1422.000031862771
 20
3497.499992414184
 30
0.0
 11
1416.300031862771
 21
3497.499992414184
 31
0.0
  0
LINE
  5
FBE
330
2
100
AcDbEntity
  8
0
  6
Continuous
 62
     7
100
AcDbLine
 10
1416.300031862762
 20
3472.499992414184
 30
0.0
 11
1422.000031862762
 21
3472.499992414184
 31
0.0
  0
LINE
  5
FBF
330
2
100
AcDbEntity
  8
0
  6
Continuous
 62
     7
100
AcDbLine
 10
1416.300031862762
 20
3497.499992414184
 30
0.0
 11
1416.000031862772
 21
3497.199992414184
 31
0.0
  0
LINE
  5
FC0
330
2
100
AcDbEntity
  8
0
  6
Continuous
 62
     7
100
AcDbLine
 10
1416.000031862772
 20
3472.799992414183
 30
0.0
 11
1416.300031862762
 21
3472.499992414184
 31
0.0
  0
LINE
  5
FC1
330
2
100
AcDbEntity
  8
0
  6
Continuous
 62
     7
100
AcDbLine
 10
1433.000031861902
 20
3487.999992414184
 30
0.0
 11
1432.000033106331
 21
3487.999992414184
 31
0.0
  0
LINE
  5
FC2
330
2
100
AcDbEntity
  8
0
  6
Continuous
 62
     7
100
AcDbLine
 10
1432.000033106331
 20
3487.999992414184
 30
0.0
 11
1431.995031862772
 21
3487.999992414184
 31
0.0
  0
LINE
  5
FC3
330
2
100
AcDbEntity
  8
0
  6
Continuous
 62
     7
100
AcDbLine
 10
1431.995031862772
 20
3481.999992414184
 30
0.0
 11
1432.000033106331
 21
3481.999992414184
 31
0.0
  0
LINE
  5
FC4
330
2
100
AcDbEntity
  8
0
  6
Continuous
 62
     7
100
AcDbLine
 10
1432.000033106331
 20
3481.999992414184
 30
0.0
 11
1433.000031861913
 21
3481.999992414184
 31
0.0
  0
LINE
  5
FC5
330
2
100
AcDbEntity
  8
0
  6
Continuous
 62
     7
100
AcDbLine
 10
1432.005031862771
 20
3487.999992414184
 30
0.0
 11
1432.000033106331
 21
3487.999992414184
 31
0.0
  0
LINE
  5
FC6
330
2
100
AcDbEntity
  8
0
  6
Continuous
 62
     7
100
AcDbLine
 10
1432.000033106331
 20
3487.999992414184
 30
0.0
 11
1431.000031862772
 21
3487.999992414184
 31
0.0
  0
LINE
  5
FC7
330
2
100
AcDbEntity
  8
0
  6
Continuous
 62
     7
100
AcDbLine
 10
1431.000031862772
 20
3481.999992414184
 30
0.0
 11
1432.000033106322
 21
3481.999992414184
 31
0.0
  0
LINE
  5
FC8
330
2
100
AcDbEntity
  8
0
  6
Continuous
 62
     7
100
AcDbLine
 10
1432.000033106331
 20
3481.999992414184
 30
0.0
 11
1432.005031862771
 21
3481.999992414184
 31
0.0
  0
LINE
  5
FC9
330
2
100
AcDbEntity
  8
0
  6
Continuous
 62
     7
100
AcDbLine
 10
1422.000031862771
 20
3472.999992414184
 30
0.0
 11
1423.000031862772
 21
3472.999992414184
 31
0.0
  0
LINE
  5
FCA
330
2
100
AcDbEntity
  8
0
  6
Continuous
 62
     7
100
AcDbLine
 10
1423.000031862772
 20
3496.999992414184
 30
0.0
 11
1422.000031862771
 21
3496.999992414184
 31
0.0
  0
LINE
  5
FCB
330
2
100
AcDbEntity
  8
0
  6
Continuous
 62
     7
100
AcDbLine
 10
1433.000031862771
 20
3470.999992414184
 30
0.0
 11
1434.000031862772
 21
3470.999992414184
 31
0.0
  0
LINE
  5
FCC
330
2
100
AcDbEntity
  8
0
  6
Continuous
 62
     7
100
AcDbLine
 10
1434.000031862772
 20
3498.999992414184
 30
0.0
 11
1433.000031862771
 21
3498.999992414184
 31
0.0
  0
ARC
  5
FCD
330
2
100
AcDbEntity
  8
0
  6
Continuous
 62
     7
100
AcDbCircle
 10
1435.000031862772
 20
3498.999992414184
 30
0.0
 40
0.9999999999998896
100
AcDbArc
 50
90.0
 51
180.0
  0
ARC
  5
FCE
330
2
100
AcDbEntity
  8
0
  6
Continuous
 62
     7
100
AcDbCircle
 10
1435.000031862772
 20
3470.999992414184
 30
0.0
 40
0.9999999999994455
100
AcDbArc
 50
180.0
 51
270.0
  0
LINE
  5
FCF
330
2
100
AcDbEntity
  8
0
  6
Continuous
 62
     7
100
AcDbLine
 10
2597.000031910413
 20
3472.499992440604
 30
0.0
 11
2602.700031910414
 21
3472.499992440604
 31
0.0
  0
LINE
  5
FD0
330
2
100
AcDbEntity
  8
0
  6
Continuous
 62
     7
100
AcDbLine
 10
2602.700031910414
 20
3497.499992440604
 30
0.0
 11
2597.000031910413
 21
3497.499992440604
 31
0.0
  0
LINE
  5
FD1
330
2
100
AcDbEntity
  8
0
  6
Continuous
 62
     7
100
AcDbLine
 10
2602.700031910414
 20
3472.499992440604
 30
0.0
 11
2603.000031910402
 21
3472.799992440604
 31
0.0
  0
LINE
  5
FD2
330
2
100
AcDbEntity
  8
0
  6
Continuous
 62
     7
100
AcDbLine
 10
2603.000031910413
 20
3497.199992440604
 30
0.0
 11
2602.700031910414
 21
3497.499992440604
 31
0.0
  0
LINE
  5
FD3
330
2
100
AcDbEntity
  8
0
  6
Continuous
 62
     7
100
AcDbLine
 10
2597.000031910402
 20
3496.999992440604
 30
0.0
 11
2596.000031910402
 21
3496.999992440604
 31
0.0
  0
LINE
  5
FD4
330
2
100
AcDbEntity
  8
0
  6
Continuous
 62
     7
100
AcDbLine
 10
2596.000031910402
 20
3472.999992440604
 30
0.0
 11
2597.000031910402
 21
3472.999992440604
 31
0.0
  0
ENDSEC
  0
SECTION
  2
OBJECTS
  0
DICTIONARY
  5
7
330
0
100
AcDbDictionary
281
     1
  3
ACAD_COLOR
350
65C
  3
ACAD_GROUP
350
20
  3
ACAD_LAYOUT
350
B
  3
ACAD_MATERIAL
350
632
  3
ACAD_MLEADERSTYLE
350
681
  3
ACAD_MLINESTYLE
350
21
  3
ACAD_PLOTSETTINGS
350
22
  3
ACAD_PLOTSTYLENAME
350
6
  3
ACAD_SCALELIST
350
65F
  3
ACAD_TABLESTYLE
350
65D
  3
ACAD_VISUALSTYLE
350
64B
  3
ACDB_RECOMPOSE_DATA
350
6A0
  3
AcDbVariableDictionary
350
6A1
  3
ASE_INDEX_DICTIONARY
350
69B
  3
DWGPROPS
350
1072
  0
DICTIONARY
  5
68A
330
4
100
AcDbDictionary
280
     1
281
     1
  3
ADSK_XREC_LAYER_RECONCILED
360
68B
  0
DICTIONARY
  5
B50
330
2
100
AcDbDictionary
280
     1
281
     1
  3
ACAD_SORTENTS
360
B51
  0
DICTIONARY
  5
65C
102
{ACAD_REACTORS
330
7
102
}
330
7
100
AcDbDictionary
281
     1
  0
DICTIONARY
  5
20
102
{ACAD_REACTORS
330
7
102
}
330
7
100
AcDbDictionary
281
     1
  0
DICTIONARY
  5
B
102
{ACAD_REACTORS
330
7
102
}
330
7
100
AcDbDictionary
281
     1
  3
Layout1
350
F
  3
Model
350
A
  0
DICTIONARY
  5
632
102
{ACAD_REACTORS
330
7
102
}
330
7
100
AcDbDictionary
281
     1
  3
ByBlock
350
63B
  3
ByLayer
350
633
  3
Global
350
643
  0
DICTIONARY
  5
681
102
{ACAD_REACTORS
330
7
102
}
330
7
100
AcDbDictionary
281
     1
  3
Standard
350
682
  0
DICTIONARY
  5
21
102
{ACAD_REACTORS
330
7
102
}
330
7
100
AcDbDictionary
281
     1
  3
Standard
350
23
  0
DICTIONARY
  5
22
102
{ACAD_REACTORS
330
7
102
}
330
7
100
AcDbDictionary
281
     1
  0
ACDBDICTIONARYWDFLT
  5
6
102
{ACAD_REACTORS
330
7
102
}
330
7
100
AcDbDictionary
281
     1
  3
Normal
350
5
100
AcDbDictionaryWithDefault
340
5
  0
DICTIONARY
  5
65F
102
{ACAD_REACTORS
330
7
102
}
330
7
100
AcDbDictionary
281
     1
  3
A0
350
660
  3
A1
350
661
  3
A2
350
662
  3
A3
350
663
  3
A4
350
664
  3
A5
350
665
  3
A6
350
666
  3
A7
350
667
  3
A8
350
668
  3
A9
350
669
  3
B0
350
66A
  3
B1
350
66B
  3
B2
350
66C
  3
B3
350
66D
  3
B4
350
66E
  3
B5
350
66F
  3
B6
350
670
  3
B7
350
671
  3
B8
350
672
  3
B9
350
673
  3
C0
350
674
  3
C1
350
675
  3
C2
350
676
  3
C3
350
677
  3
C4
350
678
  3
C5
350
679
  3
C6
350
67A
  3
C7
350
67B
  3
C8
350
67C
  3
C9
350
67D
  3
D0
350
67E
  3
D1
350
67F
  3
D2
350
680
  0
DICTIONARY
  5
65D
102
{ACAD_REACTORS
330
7
102
}
330
7
100
AcDbDictionary
281
     1
  3
Standard
350
65E
  0
DICTIONARY
  5
64B
102
{ACAD_REACTORS
330
7
102
}
330
7
100
AcDbDictionary
281
     1
  3
2dWireframe
350
651
  3
3D Hidden
350
653
  3
3dWireframe
350
652
  3
Basic
350
650
  3
Brighten
350
657
  3
ColorChange
350
65B
  3
Conceptual
350
654
  3
Dim
350
656
  3
Facepattern
350
65A
  3
Flat
350
64C
  3
FlatWithEdges
350
64D
  3
Gouraud
350
64E
  3
GouraudWithEdges
350
64F
  3
Linepattern
350
659
  3
Realistic
350
655
  3
Thicken
350
658
  0
XRECORD
  5
6A0
102
{ACAD_REACTORS
330
7
102
}
330
7
100
AcDbXrecord
280
     1
 90
        1
330
65E
  0
DICTIONARY
  5
6A1
102
{ACAD_REACTORS
330
7
102
}
330
7
100
AcDbDictionary
281
     1
  3
CANNOSCALE
350
6A5
  3
CMLEADERSTYLE
350
6A3
  3
CTABLESTYLE
350
6A2
  3
DIMASSOC
350
102A
  3
INDEXCTL
350
1029
  3
LIGHTINGUNITS
350
6A6
  3
MSLTSCALE
350
6A4
  3
SORTENTS
350
1028
  0
DICTIONARY
  5
69B
102
{ACAD_REACTORS
330
7
102
}
330
7
100
AcDbDictionary
281
     1
  3
ASEBlockHierarchyIndexRecord
350
69D
1001
DCO15
1040
1678078617.738
  0
XRECORD
  5
1072
102
{ACAD_REACTORS
330
7
102
}
330
7
100
AcDbXrecord
280
     1
  1
DWGPROPS COOKIE
  2

  3

  4

  6

  7

  8
renzo.ceresoli
  9

300
=
301
=
302
=
303
=
304
=
305
=
306
=
307
=
308
=
309
=
 40
0.0013289351851852
 41
2455315.380036111
 42
2455315.381364503
  1

 90
        0
  0
XRECORD
  5
68B
102
{ACAD_REACTORS
330
68A
102
}
330
68A
100
AcDbXrecord
280
     1
290
     1
  0
SORTENTSTABLE
  5
B51
102
{ACAD_REACTORS
330
B50
102
}
330
B50
100
AcDbSortentsTable
330
2
331
E90
  5
D49
331
DA1
  5
FAF
331
B60
  5
D6E
331
EC8
  5
CA2
331
C71
  5
E7F
331
DBB
  5
FC9
331
B82
  5
D90
331
EEA
  5
CC4
331
CCC
  5
EDA
331
C93
  5
EA1
331
DDD
  5
FEB
331
BA4
  5
DB2
331
F0C
  5
BB8
331
CEE
  5
EFC
331
CB5
  5
EC3
331
DFF
  5
100D
331
BC6
  5
DD4
331
F26
  5
BD2
331
D10
  5
F1E
331
BE0
  5
DEE
331
F48
  5
BF4
331
D32
  5
F40
331
E21
  5
CDA
331
C02
  5
E10
331
F6A
  5
C16
331
D4C
  5
F5A
331
E3B
  5
CF4
331
C24
  5
E32
331
D6E
  5
F7C
331
E5D
  5
D16
331
C46
  5
E54
331
E7F
  5
D38
331
D90
  5
F9E
331
B57
  5
D65
331
C60
  5
E6E
331
FC8
  5
C74
331
EA1
  5
D5A
331
DB2
  5
FC0
331
B71
  5
D7F
331
C82
  5
E90
331
DCC
  5
FDA
331
B93
  5
DA1
331
EFB
  5
CD5
331
CDD
  5
EEB
331
CA4
  5
EB2
331
DEE
  5
FFC
331
BB5
  5
DC3
331
F1D
  5
BC9
331
CFF
  5
F0D
331
CC6
  5
ED4
331
E10
  5
101E
331
BD7
  5
DE5
331
F37
  5
BE3
331
ED9
  5
CB3
331
EB7
  5
C91
331
FA6
  5
C52
331
F8C
  5
C38
331
BF1
  5
DFF
331
F59
  5
C05
331
C13
  5
E21
331
F7B
  5
C27
331
D5D
  5
F6B
331
C35
  5
E43
331
D7F
  5
F8D
331
FB7
  5
C63
331
E6E
  5
D27
331
E4C
  5
D05
331
D21
  5
F2F
331
DB9
  5
FC7
331
B80
  5
D8E
331
EE8
  5
CC2
331
CCA
  5
ED8
331
C91
  5
E9F
331
DDB
  5
FE9
331
BA2
  5
DB0
331
F0A
  5
BB6
331
CEC
  5
EFA
331
CB3
  5
EC1
331
DFD
  5
100B
331
BC4
  5
DD2
331
F24
  5
BD0
331
E1F
  5
103C
331
BDE
  5
DEC
331
F46
  5
BF2
331
D0E
  5
F1C
331
D30
  5
F3E
331
C00
  5
E0E
331
F68
  5
C14
331
D4A
  5
F58
331
E39
  5
CF2
331
C22
  5
E30
331
F8A
  5
C36
331
D6C
  5
F7A
331
E5B
  5
D14
331
C44
  5
E52
331
E7D
  5
D36
331
D8E
  5
F9C
331
B55
  5
D63
331
C5E
  5
E6C
331
FC6
  5
C72
331
DB0
  5
FBE
331
B6F
  5
D7D
331
ED7
  5
CB1
331
C80
  5
E8E
331
DCA
  5
FD8
331
B91
  5
D9F
331
CDB
  5
EE9
331
CA2
  5
EB0
331
DEC
  5
FFA
331
BB3
  5
DC1
331
F1B
  5
BC7
331
CFD
  5
F0B
331
CC4
  5
ED2
331
E0E
  5
101C
331
BD5
  5
DE3
331
F35
  5
BE1
331
EF9
  5
CD3
331
E9F
  5
D58
331
EB5
  5
C8F
331
FA4
  5
C50
331
BEF
  5
DFD
331
F57
  5
C03
331
C11
  5
E1F
331
F79
  5
C25
331
D5B
  5
F69
331
C33
  5
E41
331
D7D
  5
F8B
331
E8E
  5
D47
331
FB5
  5
C61
331
D9F
  5
FAD
331
C6F
  5
E7D
331
EC6
  5
CA0
331
E6C
  5
D25
331
E4A
  5
D03
331
D1F
  5
F2D
331
CC8
  5
ED6
331
DD9
  5
FE7
331
BA0
  5
DAE
331
F08
  5
BB4
331
CEA
  5
EF8
331
CB1
  5
EBF
331
DFB
  5
1009
331
BC2
  5
DD0
331
F22
  5
BCE
331
E1D
  5
103A
331
BDC
  5
DEA
331
F44
  5
BF0
331
D0C
  5
F1A
331
D2E
  5
F3C
331
BFE
  5
E0C
331
F66
  5
C12
331
D48
  5
F56
331
E37
  5
CF0
331
C20
  5
E2E
331
F88
  5
C34
331
D6A
  5
F78
331
E59
  5
D12
331
C42
  5
E50
331
E7B
  5
D34
331
D8C
  5
F9A
331
B53
  5
D61
331
C5C
  5
E6A
331
FC4
  5
C70
331
DAE
  5
FBC
331
B6D
  5
D7B
331
ED5
  5
CAF
331
C7E
  5
E8C
331
DC8
  5
FD6
331
B8F
  5
D9D
331
CD9
  5
EE7
331
CA0
  5
EAE
331
DEA
  5
FF8
331
BB1
  5
DBF
331
F19
  5
BC5
331
CFB
  5
F09
331
CC2
  5
ED0
331
E0C
  5
101A
331
BD3
  5
DE1
331
F33
  5
BDF
331
EF7
  5
CD1
331
E9D
  5
D56
331
EB3
  5
C8D
331
FA2
  5
C4E
331
BED
  5
DFB
331
F55
  5
C01
331
D3F
  5
F4D
331
E2E
  5
CE7
331
C0F
  5
E1D
331
D59
  5
F67
331
E48
  5
D01
331
D7B
  5
F89
331
E6A
  5
D23
331
E8C
  5
D45
331
D9D
  5
FAB
331
EC4
  5
C9E
331
C6D
  5
E7B
331
B7E
  5
D8C
331
EE6
  5
CC0
331
C8F
  5
E9D
331
FB3
  5
C5F
331
C31
  5
E3F
331
F77
  5
C23
331
D1D
  5
F2B
331
CE8
  5
EF6
331
DF9
  5
1007
331
BC0
  5
DCE
331
F20
  5
BCC
331
D0A
  5
F18
331
E1B
  5
1038
331
BDA
  5
DE8
331
F42
  5
BEE
331
D2C
  5
F3A
331
BFC
  5
E0A
331
F64
  5
C10
331
D46
  5
F54
331
E35
  5
CEE
331
C1E
  5
E2C
331
F86
  5
C32
331
D68
  5
F76
331
E57
  5
D10
331
C40
  5
E4E
331
FA0
  5
C4C
331
E79
  5
D32
331
D8A
  5
F98
331
C5A
  5
E68
331
FC2
  5
C6E
331
E9B
  5
D54
331
EB1
  5
C8B
331
DAC
  5
FBA
331
B6B
  5
D79
331
C7C
  5
E8A
331
DC6
  5
FD4
331
B8D
  5
D9B
331
CD7
  5
EE5
331
C9E
  5
EAC
331
DE8
  5
FF6
331
BAF
  5
DBD
331
F17
  5
BC3
331
EF5
  5
CCF
331
CF9
  5
F07
331
CC0
  5
ECE
331
E0A
  5
1018
331
BD1
  5
DDF
331
F31
  5
BDD
331
BEB
  5
DF9
331
F53
  5
BFF
331
D1B
  5
F29
331
D3D
  5
F4B
331
E2C
  5
CE5
331
C0D
  5
E1B
331
D57
  5
F65
331
E46
  5
CFF
331
C2F
  5
E3D
331
D79
  5
F87
331
E68
  5
D21
331
E8A
  5
D43
331
D9B
  5
FA9
331
C6B
  5
E79
331
FD3
  5
C7F
331
B7C
  5
D8A
331
EE4
  5
CBE
331
C8D
  5
E9B
331
DD7
  5
FE5
331
B9E
  5
DAC
331
F06
  5
BB2
331
EC2
  5
C9C
331
FB1
  5
C5D
331
F97
  5
C43
331
F75
  5
C21
331
CAF
  5
EBD
331
ED3
  5
CAD
331
D08
  5
F16
331
E19
  5
1027
331
BD8
  5
DE6
331
F40
  5
BEC
331
D2A
  5
F38
331
BFA
  5
E08
331
F62
  5
C0E
331
D44
  5
F52
331
E33
  5
CEC
331
C1C
  5
E2A
331
F84
  5
C30
331
D66
  5
F74
331
E55
  5
D0E
331
C3E
  5
E4C
331
F9E
  5
C4A
331
E77
  5
D30
331
B4F
  5
103D
331
EAF
  5
C89
331
D88
  5
F96
331
C58
  5
E66
331
E99
  5
D52
331
DAA
  5
FB8
331
B69
  5
D77
331
ED1
  5
CAB
331
C7A
  5
E88
331
DC4
  5
FD2
331
B8B
  5
D99
331
CD5
  5
EE3
331
C9C
  5
EAA
331
DE6
  5
FF4
331
BAD
  5
DBB
331
F15
  5
BC1
331
EF3
  5
CCD
331
FC0
  5
C6C
331
CF7
  5
F05
331
CBE
  5
ECC
331
E08
  5
1016
331
BCF
  5
DDD
331
F2F
  5
BDB
331
BE9
  5
DF7
331
F51
  5
BFD
331
D19
  5
F27
331
D3B
  5
F49
331
E2A
  5
CE3
331
C0B
  5
E19
331
D55
  5
F63
331
E44
  5
CFD
331
C2D
  5
E3B
331
D77
  5
F85
331
E66
  5
D1F
331
C4F
  5
E5D
331
E88
  5
D41
331
D99
  5
FA7
331
C69
  5
E77
331
FD1
  5
C7D
331
B7A
  5
D88
331
EE2
  5
CBC
331
C8B
  5
E99
331
DD5
  5
FE3
331
B9C
  5
DAA
331
F04
  5
BB0
331
CE6
  5
EF4
331
DF7
  5
1005
331
BBE
  5
DCC
331
CAD
  5
EBB
331
EC0
  5
C9A
331
FAF
  5
C5B
331
F95
  5
C41
331
F73
  5
C1F
331
D28
  5
F36
331
BF8
  5
E06
331
F60
  5
C0C
331
D42
  5
F50
331
E31
  5
CEA
331
C1A
  5
E28
331
F82
  5
C2E
331
D64
  5
F72
331
E53
  5
D0C
331
C3C
  5
E4A
331
F9C
  5
C48
331
E75
  5
D2E
331
D86
  5
F94
331
EAD
  5
C87
331
C56
  5
E64
331
FBE
  5
C6A
331
E97
  5
D50
331
DA8
  5
FB6
331
B67
  5
D75
331
C78
  5
E86
331
ECF
  5
CA9
331
DC2
  5
FD0
331
B89
  5
D97
331
CD3
  5
EE1
331
C9A
  5
EA8
331
DE4
  5
FF2
331
BAB
  5
DB9
331
F13
  5
BBF
331
EF1
  5
CCB
331
CF5
  5
F03
331
CBC
  5
ECA
331
E06
  5
1014
331
BCD
  5
DDB
331
F2D
  5
BD9
331
BE7
  5
DF5
331
F4F
  5
BFB
331
D17
  5
F25
331
D39
  5
F47
331
E28
  5
CE1
331
C09
  5
E17
331
D53
  5
F61
331
E42
  5
CFB
331
C2B
  5
E39
331
D75
  5
F83
331
E64
  5
D1D
331
C4D
  5
E5B
331
E86
  5
D3F
331
D97
  5
FA5
331
B5E
  5
D6C
331
C67
  5
E75
331
FCF
  5
C7B
331
B78
  5
D86
331
EE0
  5
CBA
331
C89
  5
E97
331
DD3
  5
FE1
331
B9A
  5
DA8
331
F02
  5
BAE
331
CE4
  5
EF2
331
DF5
  5
1003
331
BBC
  5
DCA
331
D06
  5
F14
331
CAB
  5
EB9
331
E17
  5
1025
331
F3E
  5
BEA
331
EBE
  5
C98
331
FAD
  5
C59
331
F93
  5
C3F
331
F71
  5
C1D
331
D40
  5
F4E
331
C18
  5
E26
331
F80
  5
C2C
331
D62
  5
F70
331
E51
  5
D0A
331
C3A
  5
E48
331
F9A
  5
C46
331
E73
  5
D2C
331
D84
  5
F92
331
EAB
  5
C85
331
C54
  5
E62
331
FBC
  5
C68
331
E95
  5
D4E
331
DA6
  5
FB4
331
B65
  5
D73
331
ECD
  5
CA7
331
C76
  5
E84
331
DC0
  5
FCE
331
B87
  5
D95
331
EEF
  5
CC9
331
CD1
  5
EDF
331
C98
  5
EA6
331
DE2
  5
FF0
331
BA9
  5
DB7
331
F11
  5
BBD
331
CF3
  5
F01
331
CBA
  5
EC8
331
E04
  5
1012
331
BCB
  5
DD9
331
F2B
  5
BD7
331
D15
  5
F23
331
BE5
  5
DF3
331
F4D
  5
BF9
331
D37
  5
F45
331
E26
  5
CDF
331
C07
  5
E15
331
D51
  5
F5F
331
E40
  5
CF9
331
C29
  5
E37
331
D73
  5
F81
331
E62
  5
D1B
331
C4B
  5
E59
331
E84
  5
D3D
331
D95
  5
FA3
331
B5C
  5
D6A
331
C65
  5
E73
331
FCD
  5
C79
331
EA6
  5
D5F
331
DB7
  5
FC5
331
B76
  5
D84
331
C87
  5
E95
331
DD1
  5
FDF
331
B98
  5
DA6
331
F00
  5
BAC
331
CE2
  5
EF0
331
DF3
  5
1001
331
BBA
  5
DC8
331
D04
  5
F12
331
E15
  5
1023
331
F3C
  5
BE8
331
CA9
  5
EB7
331
EDE
  5
CB8
331
EBC
  5
C96
331
FAB
  5
C57
331
F91
  5
C3D
331
F6F
  5
C1B
331
BF6
  5
E04
331
F5E
  5
C0A
331
D26
  5
F34
331
D60
  5
F6E
331
C38
  5
E46
331
F98
  5
C44
331
E71
  5
D2A
331
D82
  5
F90
331
EA9
  5
C83
331
C52
  5
E60
331
FBA
  5
C66
331
E93
  5
D4C
331
DA4
  5
FB2
331
B63
  5
D71
331
ECB
  5
CA5
331
C74
  5
E82
331
DBE
  5
FCC
331
B85
  5
D93
331
EED
  5
CC7
331
CCF
  5
EDD
331
C96
  5
EA4
331
DE0
  5
FEE
331
BA7
  5
DB5
331
F0F
  5
BBB
331
CF1
  5
EFF
331
CB8
  5
EC6
331
E02
  5
1010
331
BC9
  5
DD7
331
F29
  5
BD5
331
D13
  5
F21
331
BE3
  5
DF1
331
F4B
  5
BF7
331
D35
  5
F43
331
E24
  5
CDD
331
C05
  5
E13
331
D4F
  5
F5D
331
E3E
  5
CF7
331
C27
  5
E35
331
D71
  5
F7F
331
E60
  5
D19
331
C49
  5
E57
331
E82
  5
D3B
331
D93
  5
FA1
331
B5A
  5
D68
331
C63
  5
E71
331
FCB
  5
C77
331
EA4
  5
D5D
331
DB5
  5
FC3
331
B74
  5
D82
331
EDC
  5
CB6
331
EBA
  5
C94
331
FA9
  5
C55
331
F8F
  5
C3B
331
F6D
  5
C19
331
C85
  5
E93
331
DCF
  5
FDD
331
B96
  5
DA4
331
EFE
  5
CD8
331
CE0
  5
EEE
331
CA7
  5
EB5
331
DF1
  5
FFF
331
BB8
  5
DC6
331
E13
  5
1021
331
F3A
  5
BE6
331
D02
  5
F10
331
BF4
  5
E02
331
F5C
  5
C08
331
D24
  5
F32
331
C16
  5
E24
331
F7E
  5
C2A
331
E4F
  5
D08
331
D80
  5
F8E
331
C50
  5
E5E
331
FB8
  5
C64
331
E91
  5
D4A
331
DA2
  5
FB0
331
B61
  5
D6F
331
EC9
  5
CA3
331
C72
  5
E80
331
DBC
  5
FCA
331
B83
  5
D91
331
EEB
  5
CC5
331
CCD
  5
EDB
331
C94
  5
EA2
331
DDE
  5
FEC
331
BA5
  5
DB3
331
F0D
  5
BB9
331
CEF
  5
EFD
331
CB6
  5
EC4
331
E00
  5
100E
331
BC7
  5
DD5
331
F27
  5
BD3
331
D11
  5
F1F
331
BE1
  5
DEF
331
F49
  5
BF5
331
D33
  5
F41
331
E22
  5
CDB
331
C03
  5
E11
331
D4D
  5
F5B
331
E3C
  5
CF5
331
C25
  5
E33
331
D6F
  5
F7D
331
E5E
  5
D17
331
C47
  5
E55
331
E80
  5
D39
331
D91
  5
F9F
331
B58
  5
D66
331
C61
  5
E6F
331
FC9
  5
C75
331
EA2
  5
D5B
331
DB3
  5
FC1
331
B72
  5
D80
331
C83
  5
E91
331
DCD
  5
FDB
331
B94
  5
DA2
331
EFC
  5
CD6
331
CDE
  5
EEC
331
CA5
  5
EB3
331
DEF
  5
FFD
331
BB6
  5
DC4
331
F1E
  5
BCA
331
D00
  5
F0E
331
CC7
  5
ED5
331
E11
  5
101F
331
F38
  5
BE4
331
EDA
  5
CB4
331
EB8
  5
C92
331
FA7
  5
C53
331
F8D
  5
C39
331
F6B
  5
C17
331
BF2
  5
E00
331
F5A
  5
C06
331
C14
  5
E22
331
F7C
  5
C28
331
D5E
  5
F6C
331
C36
  5
E44
331
E6F
  5
D28
331
E4D
  5
D06
331
D22
  5
F30
331
DA0
  5
FAE
331
C70
  5
E7E
331
DBA
  5
FC8
331
B81
  5
D8F
331
EE9
  5
CC3
331
CCB
  5
ED9
331
C92
  5
EA0
331
DDC
  5
FEA
331
BA3
  5
DB1
331
F0B
  5
BB7
331
CED
  5
EFB
331
CB4
  5
EC2
331
DFE
  5
100C
331
BC5
  5
DD3
331
F25
  5
BD1
331
BDF
  5
DED
331
F47
  5
BF3
331
D0F
  5
F1D
331
D31
  5
F3F
331
E20
  5
CD9
331
C01
  5
E0F
331
F69
  5
C15
331
D4B
  5
F59
331
E3A
  5
CF3
331
C23
  5
E31
331
D6D
  5
F7B
331
E5C
  5
D15
331
C45
  5
E53
331
E7E
  5
D37
331
D8F
  5
F9D
331
B56
  5
D64
331
C5F
  5
E6D
331
FC7
  5
C73
331
EA0
  5
D59
331
DB1
  5
FBF
331
B70
  5
D7E
331
C81
  5
E8F
331
DCB
  5
FD9
331
B92
  5
DA0
331
EFA
  5
CD4
331
CDC
  5
EEA
331
CA3
  5
EB1
331
DED
  5
FFB
331
BB4
  5
DC2
331
F1C
  5
BC8
331
CFE
  5
F0C
331
CC5
  5
ED3
331
E0F
  5
101D
331
BD6
  5
DE4
331
F36
  5
BE2
331
ED8
  5
CB2
331
EB6
  5
C90
331
FA5
  5
C51
331
F8B
  5
C37
331
BF0
  5
DFE
331
F58
  5
C04
331
C12
  5
E20
331
F7A
  5
C26
331
D5C
  5
F6A
331
C34
  5
E42
331
D7E
  5
F8C
331
E8F
  5
D48
331
FB6
  5
C62
331
EC7
  5
CA1
331
E6D
  5
D26
331
E4B
  5
D04
331
D20
  5
F2E
331
DB8
  5
FC6
331
CC9
  5
ED7
331
C90
  5
E9E
331
DDA
  5
FE8
331
BA1
  5
DAF
331
F09
  5
BB5
331
CEB
  5
EF9
331
CB2
  5
EC0
331
DFC
  5
100A
331
BC3
  5
DD1
331
F23
  5
BCF
331
E1E
  5
103B
331
BDD
  5
DEB
331
F45
  5
BF1
331
D0D
  5
F1B
331
D2F
  5
F3D
331
BFF
  5
E0D
331
F67
  5
C13
331
D49
  5
F57
331
E38
  5
CF1
331
C21
  5
E2F
331
F89
  5
C35
331
D6B
  5
F79
331
E5A
  5
D13
331
C43
  5
E51
331
E7C
  5
D35
331
D8D
  5
F9B
331
B54
  5
D62
331
C5D
  5
E6B
331
FC5
  5
C71
331
DAF
  5
FBD
331
B6E
  5
D7C
331
ED6
  5
CB0
331
C7F
  5
E8D
331
DC9
  5
FD7
331
B90
  5
D9E
331
CDA
  5
EE8
331
CA1
  5
EAF
331
DEB
  5
FF9
331
BB2
  5
DC0
331
F1A
  5
BC6
331
CFC
  5
F0A
331
CC3
  5
ED1
331
E0D
  5
101B
331
BD4
  5
DE2
331
F34
  5
BE0
331
EF8
  5
CD2
331
E9E
  5
D57
331
EB4
  5
C8E
331
FA3
  5
C4F
331
BEE
  5
DFC
331
F56
  5
C02
331
E2F
  5
CE8
331
C10
  5
E1E
331
D5A
  5
F68
331
E49
  5
D02
331
D7C
  5
F8A
331
E6B
  5
D24
331
E8D
  5
D46
331
D9E
  5
FAC
331
EC5
  5
C9F
331
C6E
  5
E7C
331
B7F
  5
D8D
331
EE7
  5
CC1
331
FB4
  5
C60
331
C32
  5
E40
331
F78
  5
C24
331
D1E
  5
F2C
331
DD8
  5
FE6
331
CE9
  5
EF7
331
CB0
  5
EBE
331
DFA
  5
1008
331
BC1
  5
DCF
331
F21
  5
BCD
331
E1C
  5
1039
331
BDB
  5
DE9
331
F43
  5
BEF
331
D0B
  5
F19
331
D2D
  5
F3B
331
BFD
  5
E0B
331
F65
  5
C11
331
D47
  5
F55
331
E36
  5
CEF
331
C1F
  5
E2D
331
F87
  5
C33
331
D69
  5
F77
331
E58
  5
D11
331
C41
  5
E4F
331
FA1
  5
C4D
331
E7A
  5
D33
331
D8B
  5
F99
331
B52
  5
D60
331
C5B
  5
E69
331
FC3
  5
C6F
331
DAD
  5
FBB
331
B6C
  5
D7A
331
ED4
  5
CAE
331
E9C
  5
D55
331
EB2
  5
C8C
331
C7D
  5
E8B
331
DC7
  5
FD5
331
B8E
  5
D9C
331
CD8
  5
EE6
331
C9F
  5
EAD
331
DE9
  5
FF7
331
BB0
  5
DBE
331
F18
  5
BC4
331
EF6
  5
CD0
331
CFA
  5
F08
331
CC1
  5
ECF
331
E0B
  5
1019
331
BD2
  5
DE0
331
F32
  5
BDE
331
BEC
  5
DFA
331
F54
  5
C00
331
D1C
  5
F2A
331
D3E
  5
F4C
331
E2D
  5
CE6
331
C0E
  5
E1C
331
D58
  5
F66
331
E47
  5
D00
331
D7A
  5
F88
331
E69
  5
D22
331
E8B
  5
D44
331
D9C
  5
FAA
331
EC3
  5
C9D
331
C6C
  5
E7A
331
B7D
  5
D8B
331
EE5
  5
CBF
331
C8E
  5
E9C
331
B9F
  5
DAD
331
F07
  5
BB3
331
FD4
  5
C80
331
FB2
  5
C5E
331
C30
  5
E3E
331
F76
  5
C22
331
DF8
  5
1006
331
D09
  5
F17
331
E1A
  5
1037
331
BD9
  5
DE7
331
F41
  5
BED
331
D2B
  5
F39
331
BFB
  5
E09
331
F63
  5
C0F
331
D45
  5
F53
331
E34
  5
CED
331
C1D
  5
E2B
331
F85
  5
C31
331
D67
  5
F75
331
E56
  5
D0F
331
C3F
  5
E4D
331
F9F
  5
C4B
331
E78
  5
D31
331
D89
  5
F97
331
EB0
  5
C8A
331
C59
  5
E67
331
FC1
  5
C6D
331
DAB
  5
FB9
331
B6A
  5
D78
331
ED2
  5
CAC
331
C7B
  5
E89
331
DC5
  5
FD3
331
B8C
  5
D9A
331
CD6
  5
EE4
331
C9D
  5
EAB
331
DE7
  5
FF5
331
BAE
  5
DBC
331
F16
  5
BC2
331
CF8
  5
F06
331
E09
  5
1017
331
BD0
  5
DDE
331
F30
  5
BDC
331
CBF
  5
ECD
331
BEA
  5
DF8
331
F52
  5
BFE
331
D3C
  5
F4A
331
E2B
  5
CE4
331
D1A
  5
F28
331
EF4
  5
CCE
331
E9A
  5
D53
331
C0C
  5
E1A
331
D56
  5
F64
331
E45
  5
CFE
331
C2E
  5
E3C
331
D78
  5
F86
331
E67
  5
D20
331
E89
  5
D42
331
D9A
  5
FA8
331
EC1
  5
C9B
331
C6A
  5
E78
331
B7B
  5
D89
331
EE3
  5
CBD
331
C8C
  5
E9A
331
DD6
  5
FE4
331
B9D
  5
DAB
331
CE7
  5
EF5
331
CAE
  5
EBC
331
BBF
  5
DCD
331
F05
  5
BB1
331
FD2
  5
C7E
331
FB0
  5
C5C
331
F96
  5
C42
331
F74
  5
C20
331
E18
  5
1026
331
D29
  5
F37
331
BF9
  5
E07
331
F61
  5
C0D
331
D43
  5
F51
331
E32
  5
CEB
331
C1B
  5
E29
331
F83
  5
C2F
331
D65
  5
F73
331
E54
  5
D0D
331
C3D
  5
E4B
331
F9D
  5
C49
331
E76
  5
D2F
331
D87
  5
F95
331
EAE
  5
C88
331
C57
  5
E65
331
FBF
  5
C6B
331
E98
  5
D51
331
DA9
  5
FB7
331
B68
  5
D76
331
C79
  5
E87
331
ED0
  5
CAA
331
DC3
  5
FD1
331
B8A
  5
D98
331
CD4
  5
EE2
331
C9B
  5
EA9
331
DE5
  5
FF3
331
BAC
  5
DBA
331
F14
  5
BC0
331
CF6
  5
F04
331
CBD
  5
ECB
331
E07
  5
1015
331
BCE
  5
DDC
331
F2E
  5
BDA
331
BE8
  5
DF6
331
F50
  5
BFC
331
D3A
  5
F48
331
E29
  5
CE2
331
D18
  5
F26
331
EF2
  5
CCC
331
C0A
  5
E18
331
D54
  5
F62
331
E43
  5
CFC
331
C2C
  5
E3A
331
D76
  5
F84
331
E65
  5
D1E
331
C4E
  5
E5C
331
E87
  5
D40
331
D98
  5
FA6
331
B5F
  5
D6D
331
C68
  5
E76
331
FD0
  5
C7C
331
B79
  5
D87
331
EE1
  5
CBB
331
C8A
  5
E98
331
DD4
  5
FE2
331
B9B
  5
DA9
331
F03
  5
BAF
331
CE5
  5
EF3
331
DF6
  5
1004
331
BBD
  5
DCB
331
D07
  5
F15
331
CAC
  5
EBA
331
F3F
  5
BEB
331
EBF
  5
C99
331
FAE
  5
C5A
331
F94
  5
C40
331
F72
  5
C1E
331
D41
  5
F4F
331
E30
  5
CE9
331
C19
  5
E27
331
F81
  5
C2D
331
D63
  5
F71
331
E52
  5
D0B
331
C3B
  5
E49
331
F9B
  5
C47
331
E74
  5
D2D
331
D85
  5
F93
331
EAC
  5
C86
331
C55
  5
E63
331
FBD
  5
C69
331
E96
  5
D4F
331
DA7
  5
FB5
331
B66
  5
D74
331
ECE
  5
CA8
331
C77
  5
E85
331
DC1
  5
FCF
331
B88
  5
D96
331
CD2
  5
EE0
331
C99
  5
EA7
331
DE3
  5
FF1
331
BAA
  5
DB8
331
F12
  5
BBE
331
EF0
  5
CCA
331
CF4
  5
F02
331
CBB
  5
EC9
331
E05
  5
1013
331
BCC
  5
DDA
331
F2C
  5
BD8
331
D16
  5
F24
331
BE6
  5
DF4
331
F4E
  5
BFA
331
D38
  5
F46
331
E27
  5
CE0
331
C08
  5
E16
331
D52
  5
F60
331
E41
  5
CFA
331
C2A
  5
E38
331
D74
  5
F82
331
E63
  5
D1C
331
C4C
  5
E5A
331
E85
  5
D3E
331
D96
  5
FA4
331
B5D
  5
D6B
331
C66
  5
E74
331
FCE
  5
C7A
331
B77
  5
D85
331
EDF
  5
CB9
331
EA7
  5
C81
331
C88
  5
E96
331
DD2
  5
FE0
331
B99
  5
DA7
331
F01
  5
BAD
331
CE3
  5
EF1
331
DF4
  5
1002
331
BBB
  5
DC9
331
D05
  5
F13
331
CAA
  5
EB8
331
E16
  5
1024
331
D27
  5
F35
331
BF7
  5
E05
331
F5F
  5
C0B
331
F3D
  5
BE9
331
EBD
  5
C97
331
FAC
  5
C58
331
F92
  5
C3E
331
F70
  5
C1C
331
D61
  5
F6F
331
E50
  5
D09
331
C39
  5
E47
331
F99
  5
C45
331
E72
  5
D2B
331
D83
  5
F91
331
EAA
  5
C84
331
C53
  5
E61
331
FBB
  5
C67
331
E94
  5
D4D
331
DA5
  5
FB3
331
B64
  5
D72
331
ECC
  5
CA6
331
C75
  5
E83
331
DBF
  5
FCD
331
B86
  5
D94
331
EEE
  5
CC8
331
CD0
  5
EDE
331
C97
  5
EA5
331
DE1
  5
FEF
331
BA8
  5
DB6
331
F10
  5
BBC
331
CF2
  5
F00
331
CB9
  5
EC7
331
E03
  5
1011
331
BCA
  5
DD8
331
F2A
  5
BD6
331
D14
  5
F22
331
BE4
  5
DF2
331
F4C
  5
BF8
331
D36
  5
F44
331
E25
  5
CDE
331
C06
  5
E14
331
D50
  5
F5E
331
E3F
  5
CF8
331
C28
  5
E36
331
D72
  5
F80
331
E61
  5
D1A
331
C4A
  5
E58
331
E83
  5
D3C
331
D94
  5
FA2
331
B5B
  5
D69
331
C64
  5
E72
331
FCC
  5
C78
331
EA5
  5
D5E
331
DB6
  5
FC4
331
B75
  5
D83
331
EDD
  5
CB7
331
EBB
  5
C95
331
FAA
  5
C56
331
F90
  5
C3C
331
F6E
  5
C1A
331
C86
  5
E94
331
DD0
  5
FDE
331
B97
  5
DA5
331
EFF
  5
BAB
331
CE1
  5
EEF
331
DF2
  5
1000
331
BB9
  5
DC7
331
CA8
  5
EB6
331
D03
  5
F11
331
E14
  5
1022
331
F3B
  5
BE7
331
BF5
  5
E03
331
F5D
  5
C09
331
D25
  5
F33
331
C17
  5
E25
331
F7F
  5
C2B
331
E70
  5
D29
331
D81
  5
F8F
331
EA8
  5
C82
331
C51
  5
E5F
331
FB9
  5
C65
331
E92
  5
D4B
331
DA3
  5
FB1
331
B62
  5
D70
331
ECA
  5
CA4
331
C73
  5
E81
331
DBD
  5
FCB
331
B84
  5
D92
331
EEC
  5
CC6
331
CCE
  5
EDC
331
C95
  5
EA3
331
DDF
  5
FED
331
BA6
  5
DB4
331
F0E
  5
BBA
331
CF0
  5
EFE
331
CB7
  5
EC5
331
E01
  5
100F
331
BC8
  5
DD6
331
F28
  5
BD4
331
D12
  5
F20
331
BE2
  5
DF0
331
F4A
  5
BF6
331
D34
  5
F42
331
E23
  5
CDC
331
C04
  5
E12
331
D4E
  5
F5C
331
E3D
  5
CF6
331
C26
  5
E34
331
D70
  5
F7E
331
E5F
  5
D18
331
C48
  5
E56
331
E81
  5
D3A
331
D92
  5
FA0
331
B59
  5
D67
331
C62
  5
E70
331
FCA
  5
C76
331
EA3
  5
D5C
331
DB4
  5
FC2
331
B73
  5
D81
331
C84
  5
E92
331
DCE
  5
FDC
331
B95
  5
DA3
331
EFD
  5
CD7
331
CDF
  5
EED
331
CA6
  5
EB4
331
DF0
  5
FFE
331
BB7
  5
DC5
331
F1F
  5
BCB
331
E12
  5
1020
331
F39
  5
BE5
331
D01
  5
F0F
331
EDB
  5
CB5
331
EB9
  5
C93
331
FA8
  5
C54
331
F8E
  5
C3A
331
F6C
  5
C18
331
BF3
  5
E01
331
F5B
  5
C07
331
D23
  5
F31
331
C15
  5
E23
331
D5F
  5
F6D
331
E4E
  5
D07
331
C37
  5
E45
331
F7D
  5
C29
  0
LAYOUT
  5
F
102
{ACAD_XDICTIONARY
360
1075
102
}
102
{ACAD_REACTORS
330
B
102
}
330
B
100
AcDbPlotSettings
  1

  2
hp deskjet 930c series
  4

  6

 40
0.0
 41
0.0
 42
0.0
 43
0.0
 44
0.0
 45
0.0
 46
0.0
 47
0.0
 48
0.0
 49
0.0
140
0.0
141
0.0
142
1.0
143
1.0
 70
   688
 72
     0
 73
     0
 74
     5
  7
monochrome.ctb
 75
    16
147
1.0
148
0.0
149
0.0
100
AcDbLayout
  1
Layout1
 70
     1
 71
     1
 10
0.0
 20
0.0
 11
420.0
 21
297.0
 12
0.0
 22
0.0
 32
0.0
 14
1.000000000000000E+20
 24
1.000000000000000E+20
 34
1.000000000000000E+20
 15
-1.000000000000000E+20
 25
-1.000000000000000E+20
 35
-1.000000000000000E+20
146
0.0
 13
0.0
 23
0.0
 33
0.0
 16
1.0
 26
0.0
 36
0.0
 17
0.0
 27
1.0
 37
0.0
 76
     0
330
C
  0
LAYOUT
  5
A
102
{ACAD_XDICTIONARY
360
1073
102
}
102
{ACAD_REACTORS
330
B
102
}
330
B
100
AcDbPlotSettings
  1

  2
HP DeskJet 1120C Printer
  4
A4
  6

 40
4.180416584014892
 41
13.49374103546142
 42
4.180404663085937
 43
3.757080078125
 44
209.9733276367187
 45
296.9259948730469
 46
0.0
 47
0.0
 48
232.1274484221087
 49
0.0
140
429.5274484221087
141
279.18
142
1.0
143
1.0
 70
 11952
 72
     1
 73
     0
 74
     4
  7
monochrome.ctb
 75
    16
147
1.0
148
-232.1274484221087
149
0.0
100
AcDbLayout
  1
Model
 70
     1
 71
     0
 10
0.0
 20
0.0
 11
12.0
 21
9.0
 12
0.0
 22
0.0
 32
0.0
 14
0.0
 24
0.0
 34
0.0
 15
0.0
 25
0.0
 35
0.0
146
0.0
 13
0.0
 23
0.0
 33
0.0
 16
1.0
 26
0.0
 36
0.0
 17
0.0
 27
1.0
 37
0.0
 76
     0
330
2
331
630
  0
MATERIAL
  5
63B
102
{ACAD_XDICTIONARY
360
63C
102
}
102
{ACAD_REACTORS
330
632
102
}
330
632
100
AcDbMaterial
  1
ByBlock
 72
     0
 43
0.0008202099737533
 43
0.0
 43
0.0
 43
0.0
 43
0.0
 43
0.0008202099737533
 43
0.0
 43
0.0
 43
0.0
 43
0.0
 43
1.0
 43
0.0
 43
0.0
 43
0.0
 43
0.0
 43
1.0
 77
     0
 47
0.0008202099737533
 47
0.0
 47
0.0
 47
0.0
 47
0.0
 47
0.0008202099737533
 47
0.0
 47
0.0
 47
0.0
 47
0.0
 47
1.0
 47
0.0
 47
0.0
 47
0.0
 47
0.0
 47
1.0
171
     0
 49
0.0008202099737533
 49
0.0
 49
0.0
 49
0.0
 49
0.0
 49
0.0008202099737533
 49
0.0
 49
0.0
 49
0.0
 49
0.0
 49
1.0
 49
0.0
 49
0.0
 49
0.0
 49
0.0
 49
1.0
175
     0
142
0.0008202099737533
142
0.0
142
0.0
142
0.0
142
0.0
142
0.0008202099737533
142
0.0
142
0.0
142
0.0
142
0.0
142
1.0
142
0.0
142
0.0
142
0.0
142
0.0
142
1.0
179
     0
144
0.0008202099737533
144
0.0
144
0.0
144
0.0
144
0.0
144
0.0008202099737533
144
0.0
144
0.0
144
0.0
144
0.0
144
1.0
144
0.0
144
0.0
144
0.0
144
0.0
144
1.0
147
0.0008202099737533
147
0.0
147
0.0
147
0.0
147
0.0
147
0.0008202099737533
147
0.0
147
0.0
147
0.0
147
0.0
147
1.0
147
0.0
147
0.0
147
0.0
147
0.0
147
1.0
  0
MATERIAL
  5
633
102
{ACAD_XDICTIONARY
360
634
102
}
102
{ACAD_REACTORS
330
632
102
}
330
632
100
AcDbMaterial
  1
ByLayer
 72
     0
 43
0.0008202099737533
 43
0.0
 43
0.0
 43
0.0
 43
0.0
 43
0.0008202099737533
 43
0.0
 43
0.0
 43
0.0
 43
0.0
 43
1.0
 43
0.0
 43
0.0
 43
0.0
 43
0.0
 43
1.0
 77
     0
 47
0.0008202099737533
 47
0.0
 47
0.0
 47
0.0
 47
0.0
 47
0.0008202099737533
 47
0.0
 47
0.0
 47
0.0
 47
0.0
 47
1.0
 47
0.0
 47
0.0
 47
0.0
 47
0.0
 47
1.0
171
     0
 49
0.0008202099737533
 49
0.0
 49
0.0
 49
0.0
 49
0.0
 49
0.0008202099737533
 49
0.0
 49
0.0
 49
0.0
 49
0.0
 49
1.0
 49
0.0
 49
0.0
 49
0.0
 49
0.0
 49
1.0
175
     0
142
0.0008202099737533
142
0.0
142
0.0
142
0.0
142
0.0
142
0.0008202099737533
142
0.0
142
0.0
142
0.0
142
0.0
142
1.0
142
0.0
142
0.0
142
0.0
142
0.0
142
1.0
179
     0
144
0.0008202099737533
144
0.0
144
0.0
144
0.0
144
0.0
144
0.0008202099737533
144
0.0
144
0.0
144
0.0
144
0.0
144
1.0
144
0.0
144
0.0
144
0.0
144
0.0
144
1.0
147
0.0008202099737533
147
0.0
147
0.0
147
0.0
147
0.0
147
0.0008202099737533
147
0.0
147
0.0
147
0.0
147
0.0
147
1.0
147
0.0
147
0.0
147
0.0
147
0.0
147
1.0
  0
MATERIAL
  5
643
102
{ACAD_XDICTIONARY
360
644
102
}
102
{ACAD_REACTORS
330
632
102
}
330
632
100
AcDbMaterial
  1
Global
 72
     0
 43
0.0008202099737533
 43
0.0
 43
0.0
 43
0.0
 43
0.0
 43
0.0008202099737533
 43
0.0
 43
0.0
 43
0.0
 43
0.0
 43
1.0
 43
0.0
 43
0.0
 43
0.0
 43
0.0
 43
1.0
 77
     0
 47
0.0008202099737533
 47
0.0
 47
0.0
 47
0.0
 47
0.0
 47
0.0008202099737533
 47
0.0
 47
0.0
 47
0.0
 47
0.0
 47
1.0
 47
0.0
 47
0.0
 47
0.0
 47
0.0
 47
1.0
171
     0
 49
0.0008202099737533
 49
0.0
 49
0.0
 49
0.0
 49
0.0
 49
0.0008202099737533
 49
0.0
 49
0.0
 49
0.0
 49
0.0
 49
1.0
 49
0.0
 49
0.0
 49
0.0
 49
0.0
 49
1.0
175
     0
142
0.0008202099737533
142
0.0
142
0.0
142
0.0
142
0.0
142
0.0008202099737533
142
0.0
142
0.0
142
0.0
142
0.0
142
1.0
142
0.0
142
0.0
142
0.0
142
0.0
142
1.0
179
     0
144
0.0008202099737533
144
0.0
144
0.0
144
0.0
144
0.0
144
0.0008202099737533
144
0.0
144
0.0
144
0.0
144
0.0
144
1.0
144
0.0
144
0.0
144
0.0
144
0.0
144
1.0
147
0.0008202099737533
147
0.0
147
0.0
147
0.0
147
0.0
147
0.0008202099737533
147
0.0
147
0.0
147
0.0
147
0.0
147
1.0
147
0.0
147
0.0
147
0.0
147
0.0
147
1.0
  0
MLEADERSTYLE
  5
682
102
{ACAD_REACTORS
330
681
102
}
330
681
100
AcDbMLeaderStyle
170
     2
171
     1
172
     0
 90
        2
 40
0.0
 41
0.0
173
     1
 91
-1056964608
340
15
 92
       -2
290
     1
 42
2.0
291
     1
 43
0.36
  3
Standard
 44
4.0
300

342
12
174
     1
178
     6
175
     1
176
     0
 93
-1056964608
 45
4.0
292
     0
297
     0
 46
4.0
 94
-1056964608
 47
1.0
 49
1.0
140
1.0
293
     1
141
0.0
294
     1
177
     0
142
1.0
295
     0
296
     0
143
0.125
1001
ACAD_MLEADERVER
1070
     2
  0
MLINESTYLE
  5
23
102
{ACAD_REACTORS
330
21
102
}
330
21
100
AcDbMlineStyle
  2
STANDARD
 70
     0
  3

 62
   256
 51
90.0
 52
90.0
 71
     2
 49
0.5
 62
   256
  6
BYLAYER
 49
-0.5
 62
   256
  6
BYLAYER
  0
ACDBPLACEHOLDER
  5
5
102
{ACAD_REACTORS
330
6
102
}
330
6
  0
SCALE
  5
660
102
{ACAD_REACTORS
330
65F
102
}
330
65F
100
AcDbScale
 70
     0
300
1:1
140
1.0
141
1.0
290
     1
  0
SCALE
  5
661
102
{ACAD_REACTORS
330
65F
102
}
330
65F
100
AcDbScale
 70
     0
300
1:2
140
1.0
141
2.0
290
     0
  0
SCALE
  5
662
102
{ACAD_REACTORS
330
65F
102
}
330
65F
100
AcDbScale
 70
     0
300
1:4
140
1.0
141
4.0
290
     0
  0
SCALE
  5
663
102
{ACAD_REACTORS
330
65F
102
}
330
65F
100
AcDbScale
 70
     0
300
1:5
140
1.0
141
5.0
290
     0
  0
SCALE
  5
664
102
{ACAD_REACTORS
330
65F
102
}
330
65F
100
AcDbScale
 70
     0
300
1:8
140
1.0
141
8.0
290
     0
  0
SCALE
  5
665
102
{ACAD_REACTORS
330
65F
102
}
330
65F
100
AcDbScale
 70
     0
300
1:10
140
1.0
141
10.0
290
     0
  0
SCALE
  5
666
102
{ACAD_REACTORS
330
65F
102
}
330
65F
100
AcDbScale
 70
     0
300
1:16
140
1.0
141
16.0
290
     0
  0
SCALE
  5
667
102
{ACAD_REACTORS
330
65F
102
}
330
65F
100
AcDbScale
 70
     0
300
1:20
140
1.0
141
20.0
290
     0
  0
SCALE
  5
668
102
{ACAD_REACTORS
330
65F
102
}
330
65F
100
AcDbScale
 70
     0
300
1:30
140
1.0
141
30.0
290
     0
  0
SCALE
  5
669
102
{ACAD_REACTORS
330
65F
102
}
330
65F
100
AcDbScale
 70
     0
300
1:40
140
1.0
141
40.0
290
     0
  0
SCALE
  5
66A
102
{ACAD_REACTORS
330
65F
102
}
330
65F
100
AcDbScale
 70
     0
300
1:50
140
1.0
141
50.0
290
     0
  0
SCALE
  5
66B
102
{ACAD_REACTORS
330
65F
102
}
330
65F
100
AcDbScale
 70
     0
300
1:100
140
1.0
141
100.0
290
     0
  0
SCALE
  5
66C
102
{ACAD_REACTORS
330
65F
102
}
330
65F
100
AcDbScale
 70
     0
300
2:1
140
2.0
141
1.0
290
     0
  0
SCALE
  5
66D
102
{ACAD_REACTORS
330
65F
102
}
330
65F
100
AcDbScale
 70
     0
300
4:1
140
4.0
141
1.0
290
     0
  0
SCALE
  5
66E
102
{ACAD_REACTORS
330
65F
102
}
330
65F
100
AcDbScale
 70
     0
300
8:1
140
8.0
141
1.0
290
     0
  0
SCALE
  5
66F
102
{ACAD_REACTORS
330
65F
102
}
330
65F
100
AcDbScale
 70
     0
300
10:1
140
10.0
141
1.0
290
     0
  0
SCALE
  5
670
102
{ACAD_REACTORS
330
65F
102
}
330
65F
100
AcDbScale
 70
     0
300
100:1
140
100.0
141
1.0
290
     0
  0
SCALE
  5
671
102
{ACAD_REACTORS
330
65F
102
}
330
65F
100
AcDbScale
 70
     0
300
1/128" = 1'-0"
140
0.0078125
141
12.0
290
     0
  0
SCALE
  5
672
102
{ACAD_REACTORS
330
65F
102
}
330
65F
100
AcDbScale
 70
     0
300
1/64" = 1'-0"
140
0.015625
141
12.0
290
     0
  0
SCALE
  5
673
102
{ACAD_REACTORS
330
65F
102
}
330
65F
100
AcDbScale
 70
     0
300
1/32" = 1'-0"
140
0.03125
141
12.0
290
     0
  0
SCALE
  5
674
102
{ACAD_REACTORS
330
65F
102
}
330
65F
100
AcDbScale
 70
     0
300
1/16" = 1'-0"
140
0.0625
141
12.0
290
     0
  0
SCALE
  5
675
102
{ACAD_REACTORS
330
65F
102
}
330
65F
100
AcDbScale
 70
     0
300
3/32" = 1'-0"
140
0.09375
141
12.0
290
     0
  0
SCALE
  5
676
102
{ACAD_REACTORS
330
65F
102
}
330
65F
100
AcDbScale
 70
     0
300
1/8" = 1'-0"
140
0.125
141
12.0
290
     0
  0
SCALE
  5
677
102
{ACAD_REACTORS
330
65F
102
}
330
65F
100
AcDbScale
 70
     0
300
3/16" = 1'-0"
140
0.1875
141
12.0
290
     0
  0
SCALE
  5
678
102
{ACAD_REACTORS
330
65F
102
}
330
65F
100
AcDbScale
 70
     0
300
1/4" = 1'-0"
140
0.25
141
12.0
290
     0
  0
SCALE
  5
679
102
{ACAD_REACTORS
330
65F
102
}
330
65F
100
AcDbScale
 70
     0
300
3/8" = 1'-0"
140
0.375
141
12.0
290
     0
  0
SCALE
  5
67A
102
{ACAD_REACTORS
330
65F
102
}
330
65F
100
AcDbScale
 70
     0
300
1/2" = 1'-0"
140
0.5
141
12.0
290
     0
  0
SCALE
  5
67B
102
{ACAD_REACTORS
330
65F
102
}
330
65F
100
AcDbScale
 70
     0
300
3/4" = 1'-0"
140
0.75
141
12.0
290
     0
  0
SCALE
  5
67C
102
{ACAD_REACTORS
330
65F
102
}
330
65F
100
AcDbScale
 70
     0
300
1" = 1'-0"
140
1.0
141
12.0
290
     0
  0
SCALE
  5
67D
102
{ACAD_REACTORS
330
65F
102
}
330
65F
100
AcDbScale
 70
     0
300
1-1/2" = 1'-0"
140
1.5
141
12.0
290
     0
  0
SCALE
  5
67E
102
{ACAD_REACTORS
330
65F
102
}
330
65F
100
AcDbScale
 70
     0
300
3" = 1'-0"
140
3.0
141
12.0
290
     0
  0
SCALE
  5
67F
102
{ACAD_REACTORS
330
65F
102
}
330
65F
100
AcDbScale
 70
     0
300
6" = 1'-0"
140
6.0
141
12.0
290
     0
  0
SCALE
  5
680
102
{ACAD_REACTORS
330
65F
102
}
330
65F
100
AcDbScale
 70
     0
300
1'-0" = 1'-0"
140
12.0
141
12.0
290
     0
  0
TABLESTYLE
  5
65E
102
{ACAD_XDICTIONARY
360
69E
102
}
102
{ACAD_REACTORS
330
65D
102
}
330
65D
100
AcDbTableStyle
  3
Standard
 70
     0
 71
     0
 40
1.5
 41
1.5
280
     0
281
     0
  7
Standard
140
4.5
170
     2
 62
     0
 63
     7
283
     0
274
    -2
284
     1
 64
     0
275
    -2
285
     1
 65
     0
276
    -2
286
     1
 66
     0
277
    -2
287
     1
 67
     0
278
    -2
288
     1
 68
     0
279
    -2
289
     1
 69
     0
  7
Standard
140
6.0
170
     5
 62
     0
 63
     7
283
     0
274
    -2
284
     1
 64
     0
275
    -2
285
     1
 65
     0
276
    -2
286
     1
 66
     0
277
    -2
287
     1
 67
     0
278
    -2
288
     1
 68
     0
279
    -2
289
     1
 69
     0
  7
Standard
140
4.5
170
     5
 62
     0
 63
     7
283
     0
274
    -2
284
     1
 64
     0
275
    -2
285
     1
 65
     0
276
    -2
286
     1
 66
     0
277
    -2
287
     1
 67
     0
278
    -2
288
     1
 68
     0
279
    -2
289
     1
 69
     0
  0
VISUALSTYLE
  5
651
102
{ACAD_REACTORS
330
64B
102
}
330
64B
100
AcDbVisualStyle
  2
2dWireframe
 70
     4
 71
     0
 72
     2
 73
     0
 90
        0
 40
-0.6
 41
-30.0
 62
     5
 63
     7
 74
     1
 91
        4
 64
     7
 65
   257
 75
     1
175
     1
 42
1.0
 92
        0
 66
   257
 43
1.0
 76
     1
 77
     6
 78
     2
 67
     7
 79
     5
170
     0
171
     0
290
     0
174
     0
 93
        1
 44
0.0
173
     0
291
     0
 45
0.0
1001
ACAD
1000
AcDbSavedByObjectVersion
1070
     0
  0
VISUALSTYLE
  5
653
102
{ACAD_REACTORS
330
64B
102
}
330
64B
100
AcDbVisualStyle
  2
3D Hidden
 70
     6
 71
     1
 72
     2
 73
     2
 90
        0
 40
-0.6
 41
-30.0
 62
     5
 63
     7
 74
     2
 91
        2
 64
     7
 65
   257
 75
     2
175
     1
 42
40.0
 92
        0
 66
   257
 43
1.0
 76
     1
 77
     6
 78
     2
 67
     7
 79
     3
170
     0
171
     0
290
     0
174
     0
 93
        1
 44
0.0
173
     0
291
     0
 45
0.0
1001
ACAD
1000
AcDbSavedByObjectVersion
1070
     0
  0
VISUALSTYLE
  5
652
102
{ACAD_REACTORS
330
64B
102
}
330
64B
100
AcDbVisualStyle
  2
3dWireframe
 70
     5
 71
     0
 72
     2
 73
     0
 90
        0
 40
-0.6
 41
-30.0
 62
     5
 63
     7
 74
     1
 91
        4
 64
     7
 65
   257
 75
     1
175
     1
 42
1.0
 92
        0
 66
   257
 43
1.0
 76
     1
 77
     6
 78
     2
 67
     7
 79
     5
170
     0
171
     0
290
     0
174
     0
 93
        1
 44
0.0
173
     0
291
     0
 45
0.0
1001
ACAD
1000
AcDbSavedByObjectVersion
1070
     0
  0
VISUALSTYLE
  5
650
102
{ACAD_REACTORS
330
64B
102
}
330
64B
100
AcDbVisualStyle
  2
Basic
 70
     7
 71
     1
 72
     0
 73
     1
 90
        0
 40
-0.6
 41
-30.0
 62
     5
 63
     7
 74
     0
 91
        4
 64
     7
 65
   257
 75
     1
175
     1
 42
1.0
 92
        8
 66
     7
 43
1.0
 76
     1
 77
     6
 78
     2
 67
     7
 79
     5
170
     0
171
     0
290
     0
174
     0
 93
        1
 44
0.0
173
     0
291
     1
 45
0.0
1001
ACAD
1000
AcDbSavedByObjectVersion
1070
     0
  0
VISUALSTYLE
  5
657
102
{ACAD_REACTORS
330
64B
102
}
330
64B
100
AcDbVisualStyle
  2
Brighten
 70
    12
 71
     2
 72
     2
 73
     0
 90
        0
 40
-0.6
 41
-30.0
 62
     5
 63
     7
 74
     1
 91
        4
 64
     7
 65
   257
 75
     1
175
     1
 42
1.0
 92
        8
 66
     7
 43
1.0
 76
     1
 77
     6
 78
     2
 67
     7
 79
     5
170
     0
171
     0
290
     0
174
     0
 93
        1
 44
50.0
173
     0
291
     1
 45
0.0
1001
ACAD
1000
AcDbSavedByObjectVersion
1070
     0
  0
VISUALSTYLE
  5
65B
102
{ACAD_REACTORS
330
64B
102
}
330
64B
100
AcDbVisualStyle
  2
ColorChange
 70
    16
 71
     2
 72
     2
 73
     3
 90
        0
 40
-0.6
 41
-30.0
 62
     5
 63
     8
 74
     1
 91
        4
 64
     7
 65
   257
 75
     1
175
     1
 42
1.0
 92
        8
 66
     8
 43
1.0
 76
     1
 77
     6
 78
     2
 67
     7
 79
     5
170
     0
171
     0
290
     0
174
     0
 93
        1
 44
0.0
173
     0
291
     1
 45
0.0
1001
ACAD
1000
AcDbSavedByObjectVersion
1070
     0
  0
VISUALSTYLE
  5
654
102
{ACAD_REACTORS
330
64B
102
}
330
64B
100
AcDbVisualStyle
  2
Conceptual
 70
     9
 71
     3
 72
     2
 73
     0
 90
        0
 40
-0.6
 41
-30.0
 62
     5
 63
     7
 74
     2
 91
        2
 64
     7
 65
   257
 75
     1
175
     1
 42
40.0
 92
        8
 66
     7
 43
1.0
 76
     1
 77
     6
 78
     2
 67
     7
 79
     3
170
     0
171
     0
290
     0
174
     0
 93
        1
 44
0.0
173
     0
291
     0
 45
0.0
1001
ACAD
1000
AcDbSavedByObjectVersion
1070
     0
  0
VISUALSTYLE
  5
656
102
{ACAD_REACTORS
330
64B
102
}
330
64B
100
AcDbVisualStyle
  2
Dim
 70
    11
 71
     2
 72
     2
 73
     0
 90
        0
 40
-0.6
 41
-30.0
 62
     5
 63
     7
 74
     1
 91
        4
 64
     7
 65
   257
 75
     1
175
     1
 42
1.0
 92
        8
 66
     7
 43
1.0
 76
     1
 77
     6
 78
     2
 67
     7
 79
     5
170
     0
171
     0
290
     0
174
     0
 93
        1
 44
-50.0
173
     0
291
     1
 45
0.0
1001
ACAD
1000
AcDbSavedByObjectVersion
1070
     0
  0
VISUALSTYLE
  5
65A
102
{ACAD_REACTORS
330
64B
102
}
330
64B
100
AcDbVisualStyle
  2
Facepattern
 70
    15
 71
     2
 72
     2
 73
     0
 90
        0
 40
-0.6
 41
-30.0
 62
     5
 63
     7
 74
     1
 91
        4
 64
     7
 65
   257
 75
     1
175
     1
 42
1.0
 92
        8
 66
     7
 43
1.0
 76
     1
 77
     6
 78
     2
 67
     7
 79
     5
170
     0
171
     0
290
     0
174
     0
 93
        1
 44
0.0
173
     0
291
     1
 45
0.0
1001
ACAD
1000
AcDbSavedByObjectVersion
1070
     0
  0
VISUALSTYLE
  5
64C
102
{ACAD_REACTORS
330
64B
102
}
330
64B
100
AcDbVisualStyle
  2
Flat
 70
     0
 71
     2
 72
     1
 73
     1
 90
        2
 40
-0.6
 41
30.0
 62
     5
 63
     7
 74
     0
 91
        4
 64
     7
 65
   257
 75
     1
175
     1
 42
1.0
 92
        8
 66
     7
 43
1.0
 76
     1
 77
     6
 78
     2
 67
     7
 79
     5
170
     0
171
     0
290
     0
174
     0
 93
       13
 44
0.0
173
     0
291
     1
 45
0.0
1001
ACAD
1000
AcDbSavedByObjectVersion
1070
     0
  0
VISUALSTYLE
  5
64D
102
{ACAD_REACTORS
330
64B
102
}
330
64B
100
AcDbVisualStyle
  2
FlatWithEdges
 70
     1
 71
     2
 72
     1
 73
     1
 90
        2
 40
-0.6
 41
30.0
 62
     5
 63
     7
 74
     1
 91
        4
 64
     7
 65
   257
 75
     1
175
     1
 42
1.0
 92
        0
 66
   257
 43
1.0
 76
     1
 77
     6
 78
     2
 67
     7
 79
     5
170
     0
171
     0
290
     0
174
     0
 93
       13
 44
0.0
173
     0
291
     1
 45
0.0
1001
ACAD
1000
AcDbSavedByObjectVersion
1070
     0
  0
VISUALSTYLE
  5
64E
102
{ACAD_REACTORS
330
64B
102
}
330
64B
100
AcDbVisualStyle
  2
Gouraud
 70
     2
 71
     2
 72
     2
 73
     1
 90
        2
 40
-0.6
 41
30.0
 62
     5
 63
     7
 74
     0
 91
        4
 64
     7
 65
   257
 75
     1
175
     1
 42
1.0
 92
        0
 66
     7
 43
1.0
 76
     1
 77
     6
 78
     2
 67
     7
 79
     5
170
     0
171
     0
290
     0
174
     0
 93
       13
 44
0.0
173
     0
291
     1
 45
0.0
1001
ACAD
1000
AcDbSavedByObjectVersion
1070
     0
  0
VISUALSTYLE
  5
64F
102
{ACAD_REACTORS
330
64B
102
}
330
64B
100
AcDbVisualStyle
  2
GouraudWithEdges
 70
     3
 71
     2
 72
     2
 73
     1
 90
        2
 40
-0.6
 41
30.0
 62
     5
 63
     7
 74
     1
 91
        4
 64
     7
 65
   257
 75
     1
175
     1
 42
1.0
 92
        0
 66
   257
 43
1.0
 76
     1
 77
     6
 78
     2
 67
     7
 79
     5
170
     0
171
     0
290
     0
174
     0
 93
       13
 44
0.0
173
     0
291
     1
 45
0.0
1001
ACAD
1000
AcDbSavedByObjectVersion
1070
     0
  0
VISUALSTYLE
  5
659
102
{ACAD_REACTORS
330
64B
102
}
330
64B
100
AcDbVisualStyle
  2
Linepattern
 70
    14
 71
     2
 72
     2
 73
     0
 90
        0
 40
-0.6
 41
-30.0
 62
     5
 63
     7
 74
     1
 91
        4
 64
     7
 65
   257
 75
     7
175
     7
 42
1.0
 92
        8
 66
     7
 43
1.0
 76
     1
 77
     6
 78
     2
 67
     7
 79
     5
170
     0
171
     0
290
     0
174
     0
 93
        1
 44
0.0
173
     0
291
     1
 45
0.0
1001
ACAD
1000
AcDbSavedByObjectVersion
1070
     0
  0
VISUALSTYLE
  5
655
102
{ACAD_REACTORS
330
64B
102
}
330
64B
100
AcDbVisualStyle
  2
Realistic
 70
     8
 71
     2
 72
     2
 73
     0
 90
        0
 40
-0.6
 41
-30.0
 62
     5
 63
     7
 74
     1
 91
        0
 64
     7
 65
   257
 75
     1
175
     1
 42
1.0
 92
        8
 66
     8
 43
1.0
 76
     1
 77
     6
 78
     2
 67
     7
 79
     5
170
     0
171
     0
290
     0
174
     0
 93
       13
 44
0.0
173
     0
291
     0
 45
0.0
1001
ACAD
1000
AcDbSavedByObjectVersion
1070
     0
  0
VISUALSTYLE
  5
658
102
{ACAD_REACTORS
330
64B
102
}
330
64B
100
AcDbVisualStyle
  2
Thicken
 70
    13
 71
     2
 72
     2
 73
     0
 90
        0
 40
-0.6
 41
-30.0
 62
     5
 63
     7
 74
     1
 91
        4
 64
     7
 65
   257
 75
     1
175
     1
 42
1.0
 92
       12
 66
     7
 43
1.0
 76
     1
 77
     6
 78
     2
 67
     7
 79
     5
170
     0
171
     0
290
     0
174
     0
 93
        1
 44
0.0
173
     0
291
     1
 45
0.0
1001
ACAD
1000
AcDbSavedByObjectVersion
1070
     0
  0
DICTIONARYVAR
  5
6A5
102
{ACAD_REACTORS
330
6A1
102
}
330
6A1
100
DictionaryVariables
280
     0
  1
1:1
  0
DICTIONARYVAR
  5
6A3
102
{ACAD_REACTORS
330
6A1
102
}
330
6A1
100
DictionaryVariables
280
     0
  1
STANDARD
  0
DICTIONARYVAR
  5
6A2
102
{ACAD_REACTORS
330
6A1
102
}
330
6A1
100
DictionaryVariables
280
     0
  1
STANDARD
  0
DICTIONARYVAR
  5
102A
102
{ACAD_REACTORS
330
6A1
102
}
330
6A1
100
DictionaryVariables
280
     0
  1
1
  0
DICTIONARYVAR
  5
1029
102
{ACAD_REACTORS
330
6A1
102
}
330
6A1
100
DictionaryVariables
280
     0
  1
0
  0
DICTIONARYVAR
  5
6A6
102
{ACAD_REACTORS
330
6A1
102
}
330
6A1
100
DictionaryVariables
280
     0
  1
0
  0
DICTIONARYVAR
  5
6A4
102
{ACAD_REACTORS
330
6A1
102
}
330
6A1
100
DictionaryVariables
280
     0
  1
0
  0
DICTIONARYVAR
  5
1028
102
{ACAD_REACTORS
330
6A1
102
}
330
6A1
100
DictionaryVariables
280
     0
  1
127
  0
XRECORD
  5
69D
102
{ACAD_REACTORS
330
69B
102
}
330
69B
100
AcDbXrecord
280
     1
330
39
330
F2
  0
DICTIONARY
  5
1075
330
F
100
AcDbDictionary
280
     1
281
     1
  3
ACAD_XREC_ROUNDTRIP
360
1076
  0
DICTIONARY
  5
1073
330
A
100
AcDbDictionary
280
     1
281
     1
  3
ACAD_XREC_ROUNDTRIP
360
1074
  0
DICTIONARY
  5
63C
330
63B
100
AcDbDictionary
280
     1
281
     1
  3
ACAD_XREC_ROUNDTRIP
360
107B
  3
BUMPTILE
360
63E
  3
DIFFUSETILE
360
63D
  3
OPACITYTILE
360
641
  3
REFLECTIONTILE
360
640
  3
REFRACTIONTILE
360
642
  3
SPECULARTILE
360
63F
  0
DICTIONARY
  5
634
330
633
100
AcDbDictionary
280
     1
281
     1
  3
ACAD_XREC_ROUNDTRIP
360
107A
  3
BUMPTILE
360
636
  3
DIFFUSETILE
360
635
  3
OPACITYTILE
360
639
  3
REFLECTIONTILE
360
638
  3
REFRACTIONTILE
360
63A
  3
SPECULARTILE
360
637
  0
DICTIONARY
  5
644
330
643
100
AcDbDictionary
280
     1
281
     1
  3
ACAD_XREC_ROUNDTRIP
360
107C
  3
BUMPTILE
360
646
  3
DIFFUSETILE
360
645
  3
OPACITYTILE
360
649
  3
REFLECTIONTILE
360
648
  3
REFRACTIONTILE
360
64A
  3
SPECULARTILE
360
647
  0
DICTIONARY
  5
69E
330
65E
100
AcDbDictionary
280
     1
281
     1
  3
ACAD_ROUNDTRIP_2008_TABLESTYLE_CELLSTYLEMAP
360
1071
  3
ACAD_XREC_ROUNDTRIP
360
107D
  0
XRECORD
  5
1076
102
{ACAD_REACTORS
330
1075
102
}
330
1075
100
AcDbXrecord
280
     1
102
SHADEPLOT
 70
     0
102
SHADEPLOTRESLEVEL
 70
     2
102
SHADEPLOTCUSTOMDPI
 70
   300
  0
XRECORD
  5
1074
102
{ACAD_REACTORS
330
1073
102
}
330
1073
100
AcDbXrecord
280
     1
102
SHADEPLOT
 70
     0
102
SHADEPLOTRESLEVEL
 70
     2
102
SHADEPLOTCUSTOMDPI
 70
   300
  0
XRECORD
  5
107B
102
{ACAD_REACTORS
330
63C
102
}
330
63C
100
AcDbXrecord
280
     1
102
MATERIAL
148
0.0
149
0.0
149
0.0
 93
        0
 94
      127
282
     0
 72
     0
 77
     0
171
     0
175
     0
179
     0
273
     0
  0
XRECORD
  5
63E
102
{ACAD_REACTORS
330
63C
102
}
330
63C
100
AcDbXrecord
280
     1
270
     1
271
     1
  0
XRECORD
  5
63D
102
{ACAD_REACTORS
330
63C
102
}
330
63C
100
AcDbXrecord
280
     1
270
     1
271
     1
  0
XRECORD
  5
641
102
{ACAD_REACTORS
330
63C
102
}
330
63C
100
AcDbXrecord
280
     1
270
     1
271
     1
  0
XRECORD
  5
640
102
{ACAD_REACTORS
330
63C
102
}
330
63C
100
AcDbXrecord
280
     1
270
     1
271
     1
  0
XRECORD
  5
642
102
{ACAD_REACTORS
330
63C
102
}
330
63C
100
AcDbXrecord
280
     1
270
     1
271
     1
  0
XRECORD
  5
63F
102
{ACAD_REACTORS
330
63C
102
}
330
63C
100
AcDbXrecord
280
     1
270
     1
271
     1
  0
XRECORD
  5
107A
102
{ACAD_REACTORS
330
634
102
}
330
634
100
AcDbXrecord
280
     1
102
MATERIAL
148
0.0
149
0.0
149
0.0
 93
        0
 94
      127
282
     0
 72
     0
 77
     0
171
     0
175
     0
179
     0
273
     0
  0
XRECORD
  5
636
102
{ACAD_REACTORS
330
634
102
}
330
634
100
AcDbXrecord
280
     1
270
     1
271
     1
  0
XRECORD
  5
635
102
{ACAD_REACTORS
330
634
102
}
330
634
100
AcDbXrecord
280
     1
270
     1
271
     1
  0
XRECORD
  5
639
102
{ACAD_REACTORS
330
634
102
}
330
634
100
AcDbXrecord
280
     1
270
     1
271
     1
  0
XRECORD
  5
638
102
{ACAD_REACTORS
330
634
102
}
330
634
100
AcDbXrecord
280
     1
270
     1
271
     1
  0
XRECORD
  5
63A
102
{ACAD_REACTORS
330
634
102
}
330
634
100
AcDbXrecord
280
     1
270
     1
271
     1
  0
XRECORD
  5
637
102
{ACAD_REACTORS
330
634
102
}
330
634
100
AcDbXrecord
280
     1
270
     1
271
     1
  0
XRECORD
  5
107C
102
{ACAD_REACTORS
330
644
102
}
330
644
100
AcDbXrecord
280
     1
102
MATERIAL
148
0.0
149
0.0
149
0.0
 93
        0
 94
      127
282
     0
 72
     0
 77
     0
171
     0
175
     0
179
     0
273
     0
  0
XRECORD
  5
646
102
{ACAD_REACTORS
330
644
102
}
330
644
100
AcDbXrecord
280
     1
270
     1
271
     1
  0
XRECORD
  5
645
102
{ACAD_REACTORS
330
644
102
}
330
644
100
AcDbXrecord
280
     1
270
     1
271
     1
  0
XRECORD
  5
649
102
{ACAD_REACTORS
330
644
102
}
330
644
100
AcDbXrecord
280
     1
270
     1
271
     1
  0
XRECORD
  5
648
102
{ACAD_REACTORS
330
644
102
}
330
644
100
AcDbXrecord
280
     1
270
     1
271
     1
  0
XRECORD
  5
64A
102
{ACAD_REACTORS
330
644
102
}
330
644
100
AcDbXrecord
280
     1
270
     1
271
     1
  0
XRECORD
  5
647
102
{ACAD_REACTORS
330
644
102
}
330
644
100
AcDbXrecord
280
     1
270
     1
271
     1
  0
CELLSTYLEMAP
  5
1071
102
{ACAD_REACTORS
330
69E
102
}
330
69E
100
AcDbCellStyleMap
 90
        3
300
CELLSTYLE
  1
TABLEFORMAT_BEGIN
 90
        5
170
     1
 91
        0
 92
    32768
 62
   257
 93
        1
300
CONTENTFORMAT
  1
CONTENTFORMAT_BEGIN
 90
        0
 91
        0
 92
      512
 93
        0
300

 40
0.0
140
1.0
 94
        5
 62
     0
340
12
144
6.0
309
CONTENTFORMAT_END
171
     1
301
MARGIN
  1
CELLMARGIN_BEGIN
 40
1.5
 40
1.5
 40
1.5
 40
1.5
 40
4.5
 40
4.5
309
CELLMARGIN_END
 94
        6
 95
        1
302
GRIDFORMAT
  1
GRIDFORMAT_BEGIN
 90
        0
 91
        1
 62
     0
 92
       -2
340
0
 93
        0
 40
1.125
309
GRIDFORMAT_END
 95
        2
302
GRIDFORMAT
  1
GRIDFORMAT_BEGIN
 90
        0
 91
        1
 62
     0
 92
       -2
340
0
 93
        0
 40
1.125
309
GRIDFORMAT_END
 95
        4
302
GRIDFORMAT
  1
GRIDFORMAT_BEGIN
 90
        0
 91
        1
 62
     0
 92
       -2
340
0
 93
        0
 40
1.125
309
GRIDFORMAT_END
 95
        8
302
GRIDFORMAT
  1
GRIDFORMAT_BEGIN
 90
        0
 91
        1
 62
     0
 92
       -2
340
0
 93
        0
 40
1.125
309
GRIDFORMAT_END
 95
       16
302
GRIDFORMAT
  1
GRIDFORMAT_BEGIN
 90
        0
 91
        1
 62
     0
 92
       -2
340
0
 93
        0
 40
1.125
309
GRIDFORMAT_END
 95
       32
302
GRIDFORMAT
  1
GRIDFORMAT_BEGIN
 90
        0
 91
        1
 62
     0
 92
       -2
340
0
 93
        0
 40
1.125
309
GRIDFORMAT_END
309
TABLEFORMAT_END
  1
CELLSTYLE_BEGIN
 90
        1
 91
        1
300
_TITLE
309
CELLSTYLE_END
300
CELLSTYLE
  1
TABLEFORMAT_BEGIN
 90
        5
170
     1
 91
        0
 92
        0
 62
   257
 93
        1
300
CONTENTFORMAT
  1
CONTENTFORMAT_BEGIN
 90
        0
 91
        0
 92
      512
 93
        0
300

 40
0.0
140
1.0
 94
        5
 62
     0
340
12
144
4.5
309
CONTENTFORMAT_END
171
     1
301
MARGIN
  1
CELLMARGIN_BEGIN
 40
1.5
 40
1.5
 40
1.5
 40
1.5
 40
4.5
 40
4.5
309
CELLMARGIN_END
 94
        6
 95
        1
302
GRIDFORMAT
  1
GRIDFORMAT_BEGIN
 90
        0
 91
        1
 62
     0
 92
       -2
340
0
 93
        0
 40
1.125
309
GRIDFORMAT_END
 95
        2
302
GRIDFORMAT
  1
GRIDFORMAT_BEGIN
 90
        0
 91
        1
 62
     0
 92
       -2
340
0
 93
        0
 40
1.125
309
GRIDFORMAT_END
 95
        4
302
GRIDFORMAT
  1
GRIDFORMAT_BEGIN
 90
        0
 91
        1
 62
     0
 92
       -2
340
0
 93
        0
 40
1.125
309
GRIDFORMAT_END
 95
        8
302
GRIDFORMAT
  1
GRIDFORMAT_BEGIN
 90
        0
 91
        1
 62
     0
 92
       -2
340
0
 93
        0
 40
1.125
309
GRIDFORMAT_END
 95
       16
302
GRIDFORMAT
  1
GRIDFORMAT_BEGIN
 90
        0
 91
        1
 62
     0
 92
       -2
340
0
 93
        0
 40
1.125
309
GRIDFORMAT_END
 95
       32
302
GRIDFORMAT
  1
GRIDFORMAT_BEGIN
 90
        0
 91
        1
 62
     0
 92
       -2
340
0
 93
        0
 40
1.125
309
GRIDFORMAT_END
309
TABLEFORMAT_END
  1
CELLSTYLE_BEGIN
 90
        2
 91
        1
300
_HEADER
309
CELLSTYLE_END
300
CELLSTYLE
  1
TABLEFORMAT_BEGIN
 90
        5
170
     1
 91
        0
 92
        0
 62
   257
 93
        1
300
CONTENTFORMAT
  1
CONTENTFORMAT_BEGIN
 90
        0
 91
        0
 92
      512
 93
        0
300

 40
0.0
140
1.0
 94
        2
 62
     0
340
12
144
4.5
309
CONTENTFORMAT_END
171
     1
301
MARGIN
  1
CELLMARGIN_BEGIN
 40
1.5
 40
1.5
 40
1.5
 40
1.5
 40
4.5
 40
4.5
309
CELLMARGIN_END
 94
        6
 95
        1
302
GRIDFORMAT
  1
GRIDFORMAT_BEGIN
 90
        0
 91
        1
 62
     0
 92
       -2
340
0
 93
        0
 40
1.125
309
GRIDFORMAT_END
 95
        2
302
GRIDFORMAT
  1
GRIDFORMAT_BEGIN
 90
        0
 91
        1
 62
     0
 92
       -2
340
0
 93
        0
 40
1.125
309
GRIDFORMAT_END
 95
        4
302
GRIDFORMAT
  1
GRIDFORMAT_BEGIN
 90
        0
 91
        1
 62
     0
 92
       -2
340
0
 93
        0
 40
1.125
309
GRIDFORMAT_END
 95
        8
302
GRIDFORMAT
  1
GRIDFORMAT_BEGIN
 90
        0
 91
        1
 62
     0
 92
       -2
340
0
 93
        0
 40
1.125
309
GRIDFORMAT_END
 95
       16
302
GRIDFORMAT
  1
GRIDFORMAT_BEGIN
 90
        0
 91
        1
 62
     0
 92
       -2
340
0
 93
        0
 40
1.125
309
GRIDFORMAT_END
 95
       32
302
GRIDFORMAT
  1
GRIDFORMAT_BEGIN
 90
        0
 91
        1
 62
     0
 92
       -2
340
0
 93
        0
 40
1.125
309
GRIDFORMAT_END
309
TABLEFORMAT_END
  1
CELLSTYLE_BEGIN
 90
        3
 91
        2
300
_DATA
309
CELLSTYLE_END
  0
XRECORD
  5
107D
102
{ACAD_REACTORS
330
69E
102
}
330
69E
100
AcDbXrecord
280
     1
102
ACAD_ROUNDTRIP_PRE2007_TABLESTYLE
 90
      512
 91
        0
  1

 92
      512
 93
        0
  2

 94
      512
 95
        0
  3

  0
ENDSEC
  0
EOF
