  0
SECTION
  2
HEADER
  9
$ACADVER
  1
AC1015
  9
$ACADMAINTVER
 70
    20
  9
$DWGCODEPAGE
  3
ANSI_1252
  9
$INSBASE
 10
267.5068505439835
 20
0.0
 30
0.0
  9
$EXTMIN
 10
-0.1397598458133871
 20
-0.1227663886111259
 30
-0.0015258207003583
  9
$EXTMAX
 10
4580.139829698736
 20
3963.891609140404
 30
0.0000000349246037
  9
$LIMMIN
 10
0.0
 20
0.0
  9
$LIMMAX
 10
420.0
 20
297.0
  9
$ORTHOMODE
 70
     1
  9
$REGENMODE
 70
     1
  9
$FILLMODE
 70
     1
  9
$QTEXTMODE
 70
     0
  9
$MIRRTEXT
 70
     1
  9
$LTSCALE
 40
0.5
  9
$ATTMODE
 70
     1
  9
$TEXTSIZE
 40
5.86670481121007
  9
$TRACEWID
 40
1.0
  9
$TEXTSTYLE
  7
Standard
  9
$CLAYER
  8
0
  9
$CELTYPE
  6
ByLayer
  9
$CECOLOR
 62
   256
  9
$CELTSCALE
 40
1.0
  9
$DISPSILH
 70
     0
  9
$DIMSCALE
 40
1.0
  9
$DIMASZ
 40
2.5
  9
$DIMEXO
 40
0.0
  9
$DIMDLI
 40
3.75
  9
$DIMRND
 40
0.0
  9
$DIMDLE
 40
0.0
  9
$DIMEXE
 40
1.25
  9
$DIMTP
 40
0.0
  9
$DIMTM
 40
0.0
  9
$DIMTXT
 40
2.5
  9
$DIMCEN
 40
2.5
  9
$DIMTSZ
 40
0.0
  9
$DIMTOL
 70
     0
  9
$DIMLIM
 70
     0
  9
$DIMTIH
 70
     0
  9
$DIMTOH
 70
     0
  9
$DIMSE1
 70
     0
  9
$DIMSE2
 70
     0
  9
$DIMTAD
 70
     1
  9
$DIMZIN
 70
     8
  9
$DIMBLK
  1

  9
$DIMASO
 70
     1
  9
$DIMSHO
 70
     1
  9
$DIMPOST
  1

  9
$DIMAPOST
  1

  9
$DIMALT
 70
     0
  9
$DIMALTD
 70
     3
  9
$DIMALTF
 40
0.03937007874016
  9
$DIMLFAC
 40
1.0
  9
$DIMTOFL
 70
     1
  9
$DIMTVP
 40
0.0
  9
$DIMTIX
 70
     0
  9
$DIMSOXD
 70
     0
  9
$DIMSAH
 70
     0
  9
$DIMBLK1
  1

  9
$DIMBLK2
  1

  9
$DIMSTYLE
  2
ISO-25
  9
$DIMCLRD
 70
     3
  9
$DIMCLRE
 70
     3
  9
$DIMCLRT
 70
     0
  9
$DIMTFAC
 40
0.8
  9
$DIMGAP
 40
0.625
  9
$DIMJUST
 70
     0
  9
$DIMSD1
 70
     0
  9
$DIMSD2
 70
     0
  9
$DIMTOLJ
 70
     0
  9
$DIMTZIN
 70
     8
  9
$DIMALTZ
 70
     0
  9
$DIMALTTZ
 70
     0
  9
$DIMUPT
 70
     0
  9
$DIMDEC
 70
     2
  9
$DIMTDEC
 70
     2
  9
$DIMALTU
 70
     2
  9
$DIMALTTD
 70
     3
  9
$DIMTXSTY
  7
Standard
  9
$DIMAUNIT
 70
     0
  9
$DIMADEC
 70
     2
  9
$DIMALTRND
 40
0.0
  9
$DIMAZIN
 70
     2
  9
$DIMDSEP
 70
    44
  9
$DIMATFIT
 70
     3
  9
$DIMFRAC
 70
     0
  9
$DIMLDRBLK
  1

  9
$DIMLUNIT
 70
     2
  9
$DIMLWD
 70
    -2
  9
$DIMLWE
 70
    -2
  9
$DIMTMOVE
 70
     0
  9
$LUNITS
 70
     2
  9
$LUPREC
 70
     4
  9
$SKETCHINC
 40
1.0
  9
$FILLETRAD
 40
5.0
  9
$AUNITS
 70
     0
  9
$AUPREC
 70
     0
  9
$MENU
  1
.
  9
$ELEVATION
 40
0.0
  9
$PELEVATION
 40
0.0
  9
$THICKNESS
 40
0.0
  9
$LIMCHECK
 70
     0
  9
$CHAMFERA
 40
0.0
  9
$CHAMFERB
 40
0.0
  9
$CHAMFERC
 40
20.0
  9
$CHAMFERD
 40
0.0
  9
$SKPOLY
 70
     0
  9
$TDCREATE
 40
2455315.381463970
  9
$TDUCREATE
 40
2455315.298130637
  9
$TDUPDATE
 40
2455315.382055371
  9
$TDUUPDATE
 40
2455315.298722037
  9
$TDINDWG
 40
0.0005923032
  9
$TDUSRTIMER
 40
0.0005923032
  9
$USRTIMER
 70
     1
  9
$ANGBASE
 50
0.0
  9
$ANGDIR
 70
     0
  9
$PDMODE
 70
     0
  9
$PDSIZE
 40
0.0
  9
$PLINEWID
 40
0.0
  9
$SPLFRAME
 70
     0
  9
$SPLINETYPE
 70
     6
  9
$SPLINESEGS
 70
     8
  9
$HANDSEED
  5
1227
  9
$SURFTAB1
 70
     6
  9
$SURFTAB2
 70
     6
  9
$SURFTYPE
 70
     6
  9
$SURFU
 70
     6
  9
$SURFV
 70
     6
  9
$UCSBASE
  2

  9
$UCSNAME
  2

  9
$UCSORG
 10
0.0
 20
0.0
 30
0.0
  9
$UCSXDIR
 10
1.0
 20
0.0
 30
0.0
  9
$UCSYDIR
 10
0.0
 20
1.0
 30
0.0
  9
$UCSORTHOREF
  2

  9
$UCSORTHOVIEW
 70
     0
  9
$UCSORGTOP
 10
0.0
 20
0.0
 30
0.0
  9
$UCSORGBOTTOM
 10
0.0
 20
0.0
 30
0.0
  9
$UCSORGLEFT
 10
0.0
 20
0.0
 30
0.0
  9
$UCSORGRIGHT
 10
0.0
 20
0.0
 30
0.0
  9
$UCSORGFRONT
 10
0.0
 20
0.0
 30
0.0
  9
$UCSORGBACK
 10
0.0
 20
0.0
 30
0.0
  9
$PUCSBASE
  2

  9
$PUCSNAME
  2

  9
$PUCSORG
 10
0.0
 20
0.0
 30
0.0
  9
$PUCSXDIR
 10
1.0
 20
0.0
 30
0.0
  9
$PUCSYDIR
 10
0.0
 20
1.0
 30
0.0
  9
$PUCSORTHOREF
  2

  9
$PUCSORTHOVIEW
 70
     0
  9
$PUCSORGTOP
 10
0.0
 20
0.0
 30
0.0
  9
$PUCSORGBOTTOM
 10
0.0
 20
0.0
 30
0.0
  9
$PUCSORGLEFT
 10
0.0
 20
0.0
 30
0.0
  9
$PUCSORGRIGHT
 10
0.0
 20
0.0
 30
0.0
  9
$PUCSORGFRONT
 10
0.0
 20
0.0
 30
0.0
  9
$PUCSORGBACK
 10
0.0
 20
0.0
 30
0.0
  9
$USERI1
 70
     0
  9
$USERI2
 70
     0
  9
$USERI3
 70
     0
  9
$USERI4
 70
     0
  9
$USERI5
 70
     0
  9
$USERR1
 40
0.0
  9
$USERR2
 40
0.0
  9
$USERR3
 40
0.0
  9
$USERR4
 40
0.0
  9
$USERR5
 40
0.0
  9
$WORLDVIEW
 70
     1
  9
$SHADEDGE
 70
     3
  9
$SHADEDIF
 70
    70
  9
$TILEMODE
 70
     1
  9
$MAXACTVP
 70
    64
  9
$PINSBASE
 10
0.0
 20
0.0
 30
0.0
  9
$PLIMCHECK
 70
     0
  9
$PEXTMIN
 10
1.000000000000000E+20
 20
1.000000000000000E+20
 30
1.000000000000000E+20
  9
$PEXTMAX
 10
-1.000000000000000E+20
 20
-1.000000000000000E+20
 30
-1.000000000000000E+20
  9
$PLIMMIN
 10
0.0
 20
0.0
  9
$PLIMMAX
 10
420.0
 20
297.0
  9
$UNITMODE
 70
     0
  9
$VISRETAIN
 70
     1
  9
$PLINEGEN
 70
     0
  9
$PSLTSCALE
 70
     1
  9
$TREEDEPTH
 70
  3020
  9
$CMLSTYLE
  2
Standard
  9
$CMLJUST
 70
     0
  9
$CMLSCALE
 40
20.0
  9
$PROXYGRAPHICS
 70
     1
  9
$MEASUREMENT
 70
     1
  9
$CELWEIGHT
370
    -1
  9
$ENDCAPS
280
     0
  9
$JOINSTYLE
280
     0
  9
$LWDISPLAY
290
     0
  9
$INSUNITS
 70
     4
  9
$HYPERLINKBASE
  1

  9
$STYLESHEET
  1
monochrome.ctb
  9
$XEDIT
290
     1
  9
$CEPSNTYPE
380
     0
  9
$PSTYLEMODE
290
     1
  9
$FINGERPRINTGUID
  2
{DFE61E09-5109-456F-A4B6-B442CFF13A41}
  9
$VERSIONGUID
  2
{E0BA0D61-308F-4753-83C7-83C36977CA80}
  9
$EXTNAMES
290
     1
  9
$PSVPSCALE
 40
0.0
  9
$OLESTARTUP
290
     0
  0
ENDSEC
  0
SECTION
  2
CLASSES
  0
CLASS
  1
ACDBDICTIONARYWDFLT
  2
AcDbDictionaryWithDefault
  3
ObjectDBX Classes
 90
        0
280
     0
281
     0
  0
CLASS
  1
ACDBPLACEHOLDER
  2
AcDbPlaceHolder
  3
ObjectDBX Classes
 90
        0
280
     0
281
     0
  0
CLASS
  1
LAYOUT
  2
AcDbLayout
  3
ObjectDBX Classes
 90
        0
280
     0
281
     0
  0
CLASS
  1
DICTIONARYVAR
  2
AcDbDictionaryVar
  3
ObjectDBX Classes
 90
        0
280
     0
281
     0
  0
CLASS
  1
MATERIAL
  2
AcDbMaterial
  3
ObjectDBX Classes
 90
     1153
280
     0
281
     0
  0
CLASS
  1
VISUALSTYLE
  2
AcDbVisualStyle
  3
ObjectDBX Classes
 90
     4095
280
     0
281
     0
  0
CLASS
  1
TABLESTYLE
  2
AcDbTableStyle
  3
ObjectDBX Classes
 90
     4095
280
     0
281
     0
  0
CLASS
  1
SCALE
  2
AcDbScale
  3
ObjectDBX Classes
 90
     1153
280
     0
281
     0
  0
CLASS
  1
MLEADERSTYLE
  2
AcDbMLeaderStyle
  3
ACDB_MLEADERSTYLE_CLASS
 90
     4095
280
     0
281
     0
  0
CLASS
  1
CELLSTYLEMAP
  2
AcDbCellStyleMap
  3
ObjectDBX Classes
 90
     1152
280
     0
281
     0
  0
CLASS
  1
SORTENTSTABLE
  2
AcDbSortentsTable
  3
ObjectDBX Classes
 90
        0
280
     0
281
     0
  0
ENDSEC
  0
SECTION
  2
TABLES
  0
TABLE
  2
VPORT
  5
19
330
0
100
AcDbSymbolTable
 70
     1
  0
VPORT
  5
630
330
19
100
AcDbSymbolTableRecord
100
AcDbViewportTableRecord
  2
*Active
 70
     0
 10
0.0
 20
0.0
 11
1.0
 21
1.0
 12
2248.094817096338
 22
1944.5894254198
 13
0.0
 23
0.0
 14
10.0
 24
10.0
 15
10.0
 25
10.0
 16
0.0
 26
0.0
 36
1.0
 17
0.0
 27
0.0
 37
0.0
 40
4484.934830240689
 41
1.611330698287219
 42
50.0
 43
0.0
 44
0.0
 50
0.0
 51
0.0
 71
     0
 72
   100
 73
     1
 74
     2
 75
     0
 76
     0
 77
     0
 78
     0
281
     0
 65
     1
110
0.0
120
0.0
130
0.0
111
1.0
121
0.0
131
0.0
112
0.0
122
1.0
132
0.0
 79
     0
146
0.0
  0
ENDTAB
  0
TABLE
  2
LTYPE
  5
14
330
0
100
AcDbSymbolTable
 70
     5
  0
LTYPE
  5
15
330
14
100
AcDbSymbolTableRecord
100
AcDbLinetypeTableRecord
  2
ByBlock
 70
     0
  3

 72
    65
 73
     0
 40
0.0
  0
LTYPE
  5
16
330
14
100
AcDbSymbolTableRecord
100
AcDbLinetypeTableRecord
  2
ByLayer
 70
     0
  3

 72
    65
 73
     0
 40
0.0
  0
LTYPE
  5
8
330
14
100
AcDbSymbolTableRecord
100
AcDbLinetypeTableRecord
  2
Continuous
 70
     0
  3
Solid line
 72
    65
 73
     0
 40
0.0
  0
ENDTAB
  0
TABLE
  2
LAYER
  5
10
330
0
100
AcDbSymbolTable
 70
     9
  0
LAYER
  5
4
102
{ACAD_XDICTIONARY
360
68A
102
}
330
10
100
AcDbSymbolTableRecord
100
AcDbLayerTableRecord
  2
0
 70
     0
 62
     7
  6
Continuous
370
    -3
390
5
  0
LAYER
  5
34
330
10
100
AcDbSymbolTableRecord
100
AcDbLayerTableRecord
  2
Defpoints
 70
     0
 62
     7
  6
Continuous
290
     0
370
    -3
390
5
  0
ENDTAB
  0
TABLE
  2
STYLE
  5
11
330
0
100
AcDbSymbolTable
 70
     6
  0
STYLE
  5
12
330
11
100
AcDbSymbolTableRecord
100
AcDbTextStyleTableRecord
  2
Standard
 70
     0
 40
0.0
 41
0.9
 50
0.0
 71
     0
 42
5.86670481121007
  3
simplex.shx
  4

  0
ENDTAB
  0
TABLE
  2
VIEW
  5
17
330
0
100
AcDbSymbolTable
 70
     0
  0
ENDTAB
  0
TABLE
  2
UCS
  5
18
330
0
100
AcDbSymbolTable
 70
     0
  0
ENDTAB
  0
TABLE
  2
APPID
  5
1B
330
0
100
AcDbSymbolTable
 70
     3
  0
APPID
  5
1C
330
1B
100
AcDbSymbolTableRecord
100
AcDbRegAppTableRecord
  2
ACAD
 70
     0
  0
APPID
  5
683
330
1B
100
AcDbSymbolTableRecord
100
AcDbRegAppTableRecord
  2
ACAD_MLEADERVER
 70
     0
  0
APPID
  5
69C
330
1B
100
AcDbSymbolTableRecord
100
AcDbRegAppTableRecord
  2
DCO15
 70
     0
  0
ENDTAB
  0
TABLE
  2
DIMSTYLE
  5
1D
330
0
100
AcDbSymbolTable
 70
     2
100
AcDbDimStyleTable
 71
     1
340
1E
  0
DIMSTYLE
105
1E
330
1D
100
AcDbSymbolTableRecord
100
AcDbDimStyleTableRecord
  2
ISO-25
 70
     0
 41
2.5
 42
0.0
 43
3.75
 44
1.25
 73
     0
 74
     0
 77
     1
 78
     8
140
2.5
141
2.5
143
0.03937007874016
147
0.625
171
     3
172
     1
176
     3
177
     3
271
     2
272
     2
274
     3
278
    44
283
     0
284
     8
340
12
  0
DIMSTYLE
105
C29
330
1D
100
AcDbSymbolTableRecord
100
AcDbDimStyleTableRecord
  2
Standard
 70
     0
 41
1.25
 42
1.0
 44
0.75
 73
     0
 74
     0
 77
     1
140
2.5
146
0.8
147
1.25
176
     7
177
     7
178
     7
271
     2
340
12
  0
ENDTAB
  0
TABLE
  2
BLOCK_RECORD
  5
1
330
0
100
AcDbSymbolTable
 70
    37
  0
BLOCK_RECORD
  5
2
102
{ACAD_XDICTIONARY
360
C3B
102
}
330
1
100
AcDbSymbolTableRecord
100
AcDbBlockTableRecord
  2
*Model_Space
340
A
  0
BLOCK_RECORD
  5
C
330
1
100
AcDbSymbolTableRecord
100
AcDbBlockTableRecord
  2
*Paper_Space
340
F
  0
ENDTAB
  0
ENDSEC
  0
SECTION
  2
BLOCKS
  0
BLOCK
  5
3
330
2
100
AcDbEntity
  8
0
100
AcDbBlockBegin
  2
*Model_Space
 70
     0
 10
0.0
 20
0.0
 30
0.0
  3
*Model_Space
  1

  0
ENDBLK
  5
9
330
2
100
AcDbEntity
  8
0
100
AcDbBlockEnd
  0
BLOCK
  5
D
330
C
100
AcDbEntity
 67
     1
  8
0
100
AcDbBlockBegin
  2
*Paper_Space
 70
     0
 10
0.0
 20
0.0
 30
0.0
  3
*Paper_Space
  1

  0
ENDBLK
  5
E
330
C
100
AcDbEntity
 67
     1
  8
0
100
AcDbBlockEnd
  0
ENDSEC
  0
SECTION
  2
ENTITIES
  0
TEXT
  5
C3A
330
2
100
AcDbEntity
  8
0
 62
     7
100
AcDbText
 10
1905.922128198431
 20
3763.815495689186
 30
0.0
 40
200.0
  1
BZQ7
 41
0.9
100
AcDbText
  0
LINE
  5
C3D
330
2
100
AcDbEntity
  8
0
  6
Continuous
 62
     7
100
AcDbLine
 10
1642.000048459273
 20
37.99999216573906
 30
0.0
 11
1642.00004845922
 21
34.99998715573884
 31
0.0
  0
LINE
  5
C3E
330
2
100
AcDbEntity
  8
0
  6
Continuous
 62
     7
100
AcDbLine
 10
1642.00004845922
 20
34.99998715573884
 30
0.0
 11
1642.000048459174
 21
31.99998214573907
 31
0.0
  0
ARC
  5
C3F
330
2
100
AcDbEntity
  8
0
  6
Continuous
 62
     9
100
AcDbCircle
 10
2804.000048459291
 20
51.9999871525406
 30
0.0
 40
2.500000000000389
100
AcDbArc
 50
0.0000000056018473
 51
270.0000000056279
  0
ARC
  5
C40
330
2
100
AcDbEntity
  8
0
  6
Continuous
 62
     9
100
AcDbCircle
 10
2783.000048474489
 20
34.99998719745418
 30
0.0
 40
3.000000000000113
100
AcDbArc
 50
180.0000000054194
 51
90.00000000541946
  0
ARC
  5
C41
330
2
100
AcDbEntity
  8
0
  6
Continuous
 62
     9
100
AcDbCircle
 10
2813.000048474488
 20
34.9999872002968
 30
0.0
 40
3.000000000000113
100
AcDbArc
 50
180.0000000054194
 51
90.00000000541946
  0
ARC
  5
C42
330
2
100
AcDbEntity
  8
0
  6
Continuous
 62
     9
100
AcDbCircle
 10
2687.000048459099
 20
35.19998720491595
 30
0.0
 40
1.999999999999779
100
AcDbArc
 50
180.0000000017978
 51
90.00000000177175
  0
ARC
  5
C43
330
2
100
AcDbEntity
  8
0
  6
Continuous
 62
     9
100
AcDbCircle
 10
2697.000048459099
 20
35.19998720523427
 30
0.0
 40
2.000000000000667
100
AcDbArc
 50
180.0000000017978
 51
90.00000000177175
  0
LINE
  5
C44
330
2
100
AcDbEntity
  8
0
  6
Continuous
 62
     9
100
AcDbLine
 10
2766.000048477325
 20
24.99998714850062
 30
0.0
 11
2794.000048461747
 21
24.99998715123684
 31
0.0
  0
LINE
  5
C45
330
2
100
AcDbEntity
  8
0
  6
Continuous
 62
     7
100
AcDbLine
 10
2765.500048477767
 20
22.49998714845196
 30
0.0
 11
2794.00004846199
 21
22.49998715123684
 31
0.0
  0
LINE
  5
C46
330
2
100
AcDbEntity
  8
0
  6
Continuous
 62
     7
100
AcDbLine
 10
2766.000048477229
 20
25.49998714850062
 30
0.0
 11
2793.500048461697
 21
25.49998715118864
 31
0.0
  0
CIRCLE
  5
C47
330
2
100
AcDbEntity
  8
0
  6
Continuous
 62
     7
100
AcDbCircle
 10
2804.000048453016
 20
51.99998715250877
 30
0.0
 40
1.700000000000478
  0
LINE
  5
C48
330
2
100
AcDbEntity
  8
0
  6
Continuous
 62
     7
100
AcDbLine
 10
2802.750048452963
 20
52.72167498890394
 30
0.0
 11
2804.000048452909
 21
53.44336282548193
 31
0.0
  0
LINE
  5
C49
330
2
100
AcDbEntity
  8
0
  6
Continuous
 62
     7
100
AcDbLine
 10
2802.75004845307
 20
51.27829931592851
 30
0.0
 11
2802.750048452963
 21
52.72167498890394
 31
0.0
  0
LINE
  5
C4A
330
2
100
AcDbEntity
  8
0
  6
Continuous
 62
     7
100
AcDbLine
 10
2804.000048453123
 20
50.55661147953469
 30
0.0
 11
2802.75004845307
 21
51.27829931592851
 31
0.0
  0
LINE
  5
C4B
330
2
100
AcDbEntity
  8
0
  6
Continuous
 62
     7
100
AcDbLine
 10
2805.25004845307
 20
51.27829931611495
 30
0.0
 11
2804.000048453123
 21
50.55661147953469
 31
0.0
  0
LINE
  5
C4C
330
2
100
AcDbEntity
  8
0
  6
Continuous
 62
     7
100
AcDbLine
 10
2805.250048452963
 20
52.72167498908766
 30
0.0
 11
2805.25004845307
 21
51.27829931611495
 31
0.0
  0
LINE
  5
C4D
330
2
100
AcDbEntity
  8
0
  6
Continuous
 62
     7
100
AcDbLine
 10
2804.000048452909
 20
53.44336282548193
 30
0.0
 11
2805.250048452963
 21
52.72167498908766
 31
0.0
  0
LINE
  5
C4E
330
2
100
AcDbEntity
  8
0
  6
Continuous
 62
     7
100
AcDbLine
 10
2787.500048458314
 20
61.99998715092988
 30
0.0
 11
2769.000048460125
 21
43.49998714912226
 31
0.0
  0
LINE
  5
C4F
330
2
100
AcDbEntity
  8
0
  6
Continuous
 62
     7
100
AcDbLine
 10
2810.000048458315
 20
61.99998715312904
 30
0.0
 11
2787.500048458314
 21
61.99998715092988
 31
0.0
  0
LINE
  5
C50
330
2
100
AcDbEntity
  8
0
  6
Continuous
 62
     7
100
AcDbLine
 10
2789.000048461883
 20
25.49998715107586
 30
0.0
 11
2789.000048461689
 21
27.49998719809901
 31
0.0
  0
CIRCLE
  5
C51
330
2
100
AcDbEntity
  8
0
  6
Continuous
 62
     7
100
AcDbCircle
 10
2804.000048459292
 20
51.99998715254196
 30
0.0
 40
2.100000000000434
  0
LINE
  5
C52
330
2
100
AcDbEntity
  8
0
  6
Continuous
 62
     7
100
AcDbLine
 10
2769.000048460125
 20
43.49998714912226
 30
0.0
 11
2769.000048460465
 21
39.99998720177882
 31
0.0
  0
LINE
  5
C53
330
2
100
AcDbEntity
  8
0
  6
Continuous
 62
     7
100
AcDbLine
 10
2769.000048461444
 20
29.99998720177746
 30
0.0
 11
2769.000048461882
 21
25.49998714912226
 31
0.0
  0
LINE
  5
C54
330
2
100
AcDbEntity
  8
0
  6
Continuous
 62
     7
100
AcDbLine
 10
2820.000048457525
 20
71.99998715406763
 30
0.0
 11
2810.000048457526
 21
71.99998715346419
 31
0.0
  0
LINE
  5
C55
330
2
100
AcDbEntity
  8
0
  6
Continuous
 62
     7
100
AcDbLine
 10
2810.000048459306
 20
42.49998720008898
 30
0.0
 11
2810.000048457526
 21
71.99998715346419
 31
0.0
  0
LINE
  5
C56
330
2
100
AcDbEntity
  8
0
  6
Continuous
 62
     7
100
AcDbLine
 10
2820.00004845994
 20
31.99998715406719
 30
0.0
 11
2820.000048457525
 21
71.99998715406763
 31
0.0
  0
LINE
  5
C57
330
2
100
AcDbEntity
  8
0
  6
Continuous
 62
     7
100
AcDbLine
 10
2820.00004845994
 20
31.99998715406719
 30
0.0
 11
2818.000048475292
 21
31.99998715394668
 31
0.0
  0
LINE
  5
C58
330
2
100
AcDbEntity
  8
0
  6
Continuous
 62
     7
100
AcDbLine
 10
1644.500048461059
 20
751.4046153867239
 30
0.0
 11
1644.50004846107
 21
744.4999871554287
 31
0.0
  0
LINE
  5
C59
330
2
100
AcDbEntity
  8
0
  6
Continuous
 62
     9
100
AcDbLine
 10
1644.000048461059
 20
749.9999871568438
 30
0.0
 11
1644.000048461068
 21
743.9999871554277
 31
0.0
  0
LINE
  5
C5A
330
2
100
AcDbEntity
  8
0
  6
Continuous
 62
     7
100
AcDbLine
 10
1641.500048461059
 20
750.9999871559657
 30
0.0
 11
1641.500048461066
 21
743.999987155425
 31
0.0
  0
LINE
  5
C5B
330
2
100
AcDbEntity
  8
0
  6
Continuous
 62
     7
100
AcDbLine
 10
1649.177670038431
 20
768.999987155426
 30
0.0
 11
1661.000048460397
 21
768.9999871554446
 31
0.0
  0
LINE
  5
C5C
330
2
100
AcDbEntity
  8
0
  6
Continuous
 62
     7
100
AcDbLine
 10
1661.000048460397
 20
768.9999871554446
 30
0.0
 11
1661.00004846036
 21
789.9999871554446
 31
0.0
  0
LINE
  5
C5D
330
2
100
AcDbEntity
  8
0
  6
Continuous
 62
     7
100
AcDbLine
 10
1681.000048460364
 20
789.999987155476
 30
0.0
 11
1681.000048460401
 21
767.499987155476
 31
0.0
  0
LINE
  5
C5E
330
2
100
AcDbEntity
  8
0
  6
Continuous
 62
     7
100
AcDbLine
 10
1681.000048460401
 20
767.499987155476
 30
0.0
 11
1662.500048460426
 21
748.9999871554468
 31
0.0
  0
LINE
  5
C5F
330
2
100
AcDbEntity
  8
0
  6
Continuous
 62
     7
100
AcDbLine
 10
1662.500048460426
 20
748.9999871554468
 30
0.0
 11
1644.500048460428
 21
748.9999871554187
 31
0.0
  0
LINE
  5
C60
330
2
100
AcDbEntity
  8
0
  6
Continuous
 62
     7
100
AcDbLine
 10
1651.000048459349
 20
799.9999871554186
 30
0.0
 11
1651.000048459507
 21
795.9160669391098
 31
0.0
  0
LINE
  5
C61
330
2
100
AcDbEntity
  8
0
  6
Continuous
 62
     7
100
AcDbLine
 10
1651.000048459507
 20
795.9160669391098
 30
0.0
 11
1651.000048459546
 21
794.8989666415946
 31
0.0
  0
LINE
  5
C62
330
2
100
AcDbEntity
  8
0
  6
Continuous
 62
     7
100
AcDbLine
 10
1651.000048459546
 20
794.8989666415946
 30
0.0
 11
1651.000048459738
 21
789.9999871554187
 31
0.0
  0
LINE
  5
C63
330
2
100
AcDbEntity
  8
0
  6
Continuous
 62
     7
100
AcDbLine
 10
1691.000048459347
 20
799.9999871569757
 30
0.0
 11
1664.976520094511
 21
799.999987155963
 31
0.0
  0
LINE
  5
C64
330
2
100
AcDbEntity
  8
0
  6
Continuous
 62
     7
100
AcDbLine
 10
1664.976520094511
 20
799.999987155963
 30
0.0
 11
1660.500048459226
 21
799.9999871557888
 31
0.0
  0
LINE
  5
C65
330
2
100
AcDbEntity
  8
0
  6
Continuous
 62
     7
100
AcDbLine
 10
1660.500048459226
 20
799.9999871557888
 30
0.0
 11
1651.000048459349
 21
799.9999871554186
 31
0.0
  0
LINE
  5
C66
330
2
100
AcDbEntity
  8
0
  6
Continuous
 62
     7
100
AcDbLine
 10
1691.000048459738
 20
789.9999871569757
 30
0.0
 11
1658.000048459225
 21
789.999987155692
 31
0.0
  0
LINE
  5
C67
330
2
100
AcDbEntity
  8
0
  6
Continuous
 62
     7
100
AcDbLine
 10
1658.000048459225
 20
789.999987155692
 30
0.0
 11
1657.000048459225
 21
789.9999871556529
 31
0.0
  0
LINE
  5
C68
330
2
100
AcDbEntity
  8
0
  6
Continuous
 62
     7
100
AcDbLine
 10
1657.000048459225
 20
789.9999871556529
 30
0.0
 11
1651.000048459738
 21
789.9999871554187
 31
0.0
  0
LINE
  5
C69
330
2
100
AcDbEntity
  8
0
  6
Continuous
 62
     7
100
AcDbLine
 10
1691.000048459347
 20
799.9999871569757
 30
0.0
 11
1691.000048459438
 21
797.6420066046649
 31
0.0
  0
LINE
  5
C6A
330
2
100
AcDbEntity
  8
0
  6
Continuous
 62
     7
100
AcDbLine
 10
1691.000048459438
 20
797.6420066046649
 30
0.0
 11
1691.000048459738
 21
789.9999871569757
 31
0.0
  0
LINE
  5
C6B
330
2
100
AcDbEntity
  8
0
  6
Continuous
 62
     7
100
AcDbLine
 10
1651.813278222167
 20
787.119284079999
 30
0.0
 11
1649.411901296149
 21
788.7213833879404
 31
0.0
  0
LINE
  5
C6C
330
2
100
AcDbEntity
  8
0
  6
Continuous
 62
     7
100
AcDbLine
 10
1654.401425385247
 20
788.397887848022
 30
0.0
 11
1651.813278222167
 21
787.119284079999
 31
0.0
  0
LINE
  5
C6D
330
2
100
AcDbEntity
  8
0
  6
Continuous
 62
     7
100
AcDbLine
 10
1654.505297412162
 20
789.9999871555547
 30
0.0
 11
1654.401425385247
 21
788.397887848022
 31
0.0
  0
LINE
  5
C6E
330
2
100
AcDbEntity
  8
0
  6
Continuous
 62
     7
100
AcDbLine
 10
1649.598671533204
 20
791.6020864639076
 30
0.0
 11
1651.000048459647
 21
792.2943986492946
 31
0.0
  0
LINE
  5
C6F
330
2
100
AcDbEntity
  8
0
  6
Continuous
 62
     7
100
AcDbLine
 10
1649.411901296149
 20
788.7213833879404
 30
0.0
 11
1649.598671533204
 21
791.6020864639076
 31
0.0
  0
LINE
  5
C70
330
2
100
AcDbEntity
  8
0
  6
Continuous
 62
     9
100
AcDbLine
 10
1632.000048757016
 20
779.4999871559066
 30
0.0
 11
1628.000048757018
 21
779.4999871558766
 31
0.0
  0
LINE
  5
C71
330
2
100
AcDbEntity
  8
0
  6
Continuous
 62
     9
100
AcDbLine
 10
1628.000048757018
 20
779.4999871558766
 30
0.0
 11
1628.000048757012
 21
779.9999871558775
 31
0.0
  0
LINE
  5
C72
330
2
100
AcDbEntity
  8
0
  6
Continuous
 62
     7
100
AcDbLine
 10
1628.000048757012
 20
779.9999871558775
 30
0.0
 11
1632.000048757014
 21
779.9999871559066
 31
0.0
  0
LINE
  5
C73
330
2
100
AcDbEntity
  8
0
  6
Continuous
 62
     7
100
AcDbLine
 10
1632.000048757014
 20
779.9999871559066
 30
0.0
 11
1632.000048757016
 21
779.4999871559066
 31
0.0
  0
ARC
  5
C74
330
2
100
AcDbEntity
  8
0
  6
Continuous
 62
     9
100
AcDbCircle
 10
1628.000048757019
 20
778.9999871558766
 30
0.0
 40
0.5000000000001671
100
AcDbArc
 50
90.00000000041687
 51
180.0000000004169
  0
LINE
  5
C75
330
2
100
AcDbEntity
  8
0
  6
Continuous
 62
     9
100
AcDbLine
 10
1627.500048757021
 20
778.9999871558738
 30
0.0
 11
1627.000048757023
 21
778.9999871558697
 31
0.0
  0
ARC
  5
C76
330
2
100
AcDbEntity
  8
0
  6
Continuous
 62
     7
100
AcDbCircle
 10
1628.000048757019
 20
778.9999871558775
 30
0.0
 40
0.9999999999994455
100
AcDbArc
 50
90.00000000041687
 51
180.0000000004429
  0
LINE
  5
C77
330
2
100
AcDbEntity
  8
0
  6
Continuous
 62
     9
100
AcDbLine
 10
1627.500048757021
 20
778.9999871558738
 30
0.0
 11
1627.500048757229
 21
750.9999871558739
 31
0.0
  0
LINE
  5
C78
330
2
100
AcDbEntity
  8
0
  6
Continuous
 62
     9
100
AcDbLine
 10
1628.000048757236
 20
750.4999871558766
 30
0.0
 11
1632.000048757236
 21
750.4999871559066
 31
0.0
  0
ARC
  5
C79
330
2
100
AcDbEntity
  8
0
  6
Continuous
 62
     9
100
AcDbCircle
 10
1628.000048757232
 20
750.9999871558766
 30
0.0
 40
0.5000000000006111
100
AcDbArc
 50
180.000000000469
 51
270.0000000004169
  0
LINE
  5
C7A
330
2
100
AcDbEntity
  8
0
  6
Continuous
 62
     7
100
AcDbLine
 10
1632.000048757016
 20
779.4999871559066
 30
0.0
 11
1632.000048757236
 21
750.4999871559066
 31
0.0
  0
LINE
  5
C7B
330
2
100
AcDbEntity
  8
0
  6
Continuous
 62
     7
100
AcDbLine
 10
1627.000048757232
 20
750.9999871558697
 30
0.0
 11
1627.000048757023
 21
778.9999871558697
 31
0.0
  0
LINE
  5
C7C
330
2
100
AcDbEntity
  8
0
  6
Continuous
 62
     9
100
AcDbLine
 10
1627.000048757232
 20
750.9999871558697
 30
0.0
 11
1627.500048757229
 21
750.9999871558739
 31
0.0
  0
ARC
  5
C7D
330
2
100
AcDbEntity
  8
0
  6
Continuous
 62
     7
100
AcDbCircle
 10
1628.000048757232
 20
750.9999871558766
 30
0.0
 40
0.9999999999998896
100
AcDbArc
 50
180.0000000004169
 51
270.0000000004169
  0
LINE
  5
C7E
330
2
100
AcDbEntity
  8
0
  6
Continuous
 62
     9
100
AcDbLine
 10
1628.00004875724
 20
749.9999871558775
 30
0.0
 11
1628.000048757236
 21
750.4999871558766
 31
0.0
  0
LINE
  5
C7F
330
2
100
AcDbEntity
  8
0
  6
Continuous
 62
     7
100
AcDbLine
 10
1632.000048757236
 20
749.9999871559079
 30
0.0
 11
1628.00004875724
 21
749.9999871558775
 31
0.0
  0
LINE
  5
C80
330
2
100
AcDbEntity
  8
0
  6
Continuous
 62
     7
100
AcDbLine
 10
1632.000048757236
 20
750.4999871559066
 30
0.0
 11
1632.000048757236
 21
749.9999871559079
 31
0.0
  0
LINE
  5
C81
330
2
100
AcDbEntity
  8
0
  6
Continuous
 62
     9
100
AcDbLine
 10
1632.000048459229
 20
776.9999871559639
 30
0.0
 11
1633.000048459225
 21
776.9999871559639
 31
0.0
  0
LINE
  5
C82
330
2
100
AcDbEntity
  8
0
  6
Continuous
 62
     7
100
AcDbLine
 10
1632.000048459229
 20
778.9999871559658
 30
0.0
 11
1633.000048459225
 21
778.9999871559658
 31
0.0
  0
LINE
  5
C83
330
2
100
AcDbEntity
  8
0
  6
Continuous
 62
     9
100
AcDbLine
 10
1632.000048459229
 20
752.9999871559639
 30
0.0
 11
1633.000048459225
 21
752.9999871559639
 31
0.0
  0
LINE
  5
C84
330
2
100
AcDbEntity
  8
0
  6
Continuous
 62
     7
100
AcDbLine
 10
1632.000048459229
 20
750.9999871559657
 30
0.0
 11
1633.000048459225
 21
750.9999871559657
 31
0.0
  0
LINE
  5
C85
330
2
100
AcDbEntity
  8
0
  6
Continuous
 62
     7
100
AcDbLine
 10
1642.000048459226
 20
778.9999871559658
 30
0.0
 11
1641.000048459225
 21
778.9999871559658
 31
0.0
  0
LINE
  5
C86
330
2
100
AcDbEntity
  8
0
  6
Continuous
 62
     9
100
AcDbLine
 10
1642.000048459226
 20
776.9999871559639
 30
0.0
 11
1641.000048459225
 21
776.9999871559639
 31
0.0
  0
LINE
  5
C87
330
2
100
AcDbEntity
  8
0
  6
Continuous
 62
     9
100
AcDbLine
 10
1642.000048459226
 20
752.9999871559648
 30
0.0
 11
1641.000048459225
 21
752.9999871559648
 31
0.0
  0
LINE
  5
C88
330
2
100
AcDbEntity
  8
0
  6
Continuous
 62
     7
100
AcDbLine
 10
1642.000048459226
 20
750.9999871559657
 30
0.0
 11
1641.000048459225
 21
750.9999871559657
 31
0.0
  0
ARC
  5
C89
330
2
100
AcDbEntity
  8
0
  6
Continuous
 62
     7
100
AcDbCircle
 10
1531.201123984299
 20
790.9438833713888
 30
0.0
 40
120.0000000000009
100
AcDbArc
 50
340.0500512960598
 51
356.2426891191271
  0
LINE
  5
C8A
330
2
100
AcDbEntity
  8
0
  6
Continuous
 62
     7
100
AcDbLine
 10
1642.000048459226
 20
749.999987155963
 30
0.0
 11
1644.000048459229
 21
749.999987155963
 31
0.0
  0
LINE
  5
C8B
330
2
100
AcDbEntity
  8
0
  6
Continuous
 62
     7
100
AcDbLine
 10
1642.000048459226
 20
781.499987155963
 30
0.0
 11
1642.000048459226
 21
749.999987155963
 31
0.0
  0
LINE
  5
C8C
330
2
100
AcDbEntity
  8
0
  6
Continuous
 62
     7
100
AcDbLine
 10
1642.500048459226
 20
781.499987155963
 30
0.0
 11
1642.000048459226
 21
781.499987155963
 31
0.0
  0
ARC
  5
C8D
330
2
100
AcDbEntity
  8
0
  6
Continuous
 62
     7
100
AcDbCircle
 10
1642.500048459226
 20
781.999987155963
 30
0.0
 40
0.4999999999988347
100
AcDbArc
 50
270.0
 51
0.0
  0
LINE
  5
C8E
330
2
100
AcDbEntity
  8
0
  6
Continuous
 62
     7
100
AcDbLine
 10
1645.071845228951
 20
788.999987155963
 30
0.0
 11
1643.000048459225
 21
788.999987155963
 31
0.0
  0
ARC
  5
C8F
330
2
100
AcDbEntity
  8
0
  6
Continuous
 62
     7
100
AcDbCircle
 10
1652.000048459225
 20
789.999987155963
 30
0.0
 40
7.000000000000017
100
AcDbArc
 50
188.2132107017504
 51
261.3163089940572
  0
LINE
  5
C90
330
2
100
AcDbEntity
  8
0
  6
Continuous
 62
     7
100
AcDbLine
 10
1643.000048459225
 20
788.999987155963
 30
0.0
 11
1643.000048459225
 21
781.999987155963
 31
0.0
  0
ARC
  5
C91
330
2
100
AcDbEntity
  8
0
  6
Continuous
 62
     7
100
AcDbCircle
 10
1645.500048459225
 20
789.499987155983
 30
0.0
 40
0.4999999999988347
100
AcDbArc
 50
270.0
 51
0.0
  0
LINE
  5
C92
330
2
100
AcDbEntity
  8
0
  6
Continuous
 62
     7
100
AcDbLine
 10
1646.000048459226
 20
789.9999871559839
 30
0.0
 11
1646.000048459226
 21
789.499987155983
 31
0.0
  0
LINE
  5
C93
330
2
100
AcDbEntity
  8
0
  6
Continuous
 62
     7
100
AcDbLine
 10
1651.470980594897
 20
783.999987155983
 30
0.0
 11
1652.000048459225
 21
783.999987155983
 31
0.0
  0
ARC
  5
C94
330
2
100
AcDbEntity
  8
0
  6
Continuous
 62
     7
100
AcDbCircle
 10
1651.470980594897
 20
783.4999871559839
 30
0.0
 40
0.49999999999956
100
AcDbArc
 50
90.0
 51
176.458294016943
  0
ARC
  5
C95
330
2
100
AcDbEntity
  8
0
  6
Continuous
 62
     7
100
AcDbCircle
 10
1531.201123984299
 20
790.9438833714098
 30
0.0
 40
119.9999999999993
100
AcDbArc
 50
356.2426891191271
 51
356.4582940169171
  0
LINE
  5
C96
330
2
100
AcDbEntity
  8
0
  6
Continuous
 62
     7
100
AcDbLine
 10
1645.500048459225
 20
788.9999871559839
 30
0.0
 11
1645.071845228951
 21
788.9999871559839
 31
0.0
  0
LINE
  5
C97
330
2
100
AcDbEntity
  8
0
  6
Continuous
 62
     7
100
AcDbLine
 10
1652.000048459225
 20
795.999987155963
 30
0.0
 11
1652.500048459225
 21
795.999987155963
 31
0.0
  0
ARC
  5
C98
330
2
100
AcDbEntity
  8
0
  6
Continuous
 62
     7
100
AcDbCircle
 10
1652.500048459225
 20
796.499987155963
 30
0.0
 40
0.4999999999997229
100
AcDbArc
 50
270.0
 51
0.0
  0
LINE
  5
C99
330
2
100
AcDbEntity
  8
0
  6
Continuous
 62
     7
100
AcDbLine
 10
1653.000048459225
 20
796.499987155963
 30
0.0
 11
1653.000048459225
 21
798.999987155963
 31
0.0
  0
LINE
  5
C9A
330
2
100
AcDbEntity
  8
0
  6
Continuous
 62
     7
100
AcDbLine
 10
1653.000048459225
 20
798.999987155963
 30
0.0
 11
1660.000048459226
 21
798.999987155963
 31
0.0
  0
ARC
  5
C9B
330
2
100
AcDbEntity
  8
0
  6
Continuous
 62
     7
100
AcDbCircle
 10
1660.000048459226
 20
799.499987155963
 30
0.0
 40
0.5000000000001671
100
AcDbArc
 50
270.0
 51
0.0
  0
LINE
  5
C9C
330
2
100
AcDbEntity
  8
0
  6
Continuous
 62
     7
100
AcDbLine
 10
1660.500048459226
 20
799.999987155963
 30
0.0
 11
1664.976520094511
 21
799.999987155963
 31
0.0
  0
LINE
  5
C9D
330
2
100
AcDbEntity
  8
0
  6
Continuous
 62
     7
100
AcDbLine
 10
1664.976520094511
 20
799.999987155963
 30
0.0
 11
1691.000048459347
 21
799.999987155963
 31
0.0
  0
LINE
  5
C9E
330
2
100
AcDbEntity
  8
0
  6
Continuous
 62
     7
100
AcDbLine
 10
1691.000048459347
 20
799.999987155963
 30
0.0
 11
1692.000048459226
 21
799.999987155963
 31
0.0
  0
ARC
  5
C9F
330
2
100
AcDbEntity
  8
0
  6
Continuous
 62
     7
100
AcDbCircle
 10
1651.0561522438
 20
910.7989116308909
 30
0.0
 40
119.9999999999998
100
AcDbArc
 50
289.4428106003003
 51
289.9499487038823
  0
ARC
  5
CA0
330
2
100
AcDbEntity
  8
0
  6
Continuous
 62
     7
100
AcDbCircle
 10
1651.0561522438
 20
910.7989116308909
 30
0.0
 40
120.0
100
AcDbArc
 50
273.5417059830537
 51
289.4428106003003
  0
ARC
  5
CA1
330
2
100
AcDbEntity
  8
0
  6
Continuous
 62
     7
100
AcDbCircle
 10
1658.500048459224
 20
790.5290550202916
 30
0.0
 40
0.5000000000000582
100
AcDbArc
 50
93.54170598315935
 51
180.0000000000781
  0
LINE
  5
CA2
330
2
100
AcDbEntity
  8
0
  6
Continuous
 62
     7
100
AcDbLine
 10
1658.000048459225
 20
790.5290550202916
 30
0.0
 11
1658.000048459225
 21
789.999987155963
 31
0.0
  0
ARC
  5
CA3
330
2
100
AcDbEntity
  8
0
  6
Continuous
 62
     7
100
AcDbCircle
 10
1652.000048459225
 20
789.999987155963
 30
0.0
 40
6.000000000000227
100
AcDbArc
 50
99.59406822418122
 51
0.0
  0
ARC
  5
CA4
330
2
100
AcDbEntity
  8
0
  6
Continuous
 62
     7
100
AcDbCircle
 10
1652.000048459225
 20
789.999987155963
 30
0.0
 40
6.000000000000079
100
AcDbArc
 50
90.0
 51
99.59406822418122
  0
ARC
  5
CA5
330
2
100
AcDbEntity
  8
0
  6
Continuous
 62
     7
100
AcDbCircle
 10
1652.000048459225
 20
789.999987155963
 30
0.0
 40
5.000000000000781
100
AcDbArc
 50
101.5369590290317
 51
180.0
  0
ARC
  5
CA6
330
2
100
AcDbEntity
  8
0
  6
Continuous
 62
     7
100
AcDbCircle
 10
1652.000048459225
 20
789.999987155963
 30
0.0
 40
5.000000000000262
100
AcDbArc
 50
359.9999999964565
 51
101.5369590290317
  0
ARC
  5
CA7
330
2
100
AcDbEntity
  8
0
  6
Continuous
 62
     7
100
AcDbCircle
 10
1652.000048459225
 20
789.999987155963
 30
0.0
 40
5.000000000000781
100
AcDbArc
 50
180.0
 51
359.9999999964305
  0
LINE
  5
CA8
330
2
100
AcDbEntity
  8
0
  6
Continuous
 62
     7
100
AcDbLine
 10
1692.000048459226
 20
799.999987155963
 30
0.0
 11
1692.000048459226
 21
797.999987155963
 31
0.0
  0
LINE
  5
CA9
330
2
100
AcDbEntity
  8
0
  6
Continuous
 62
     7
100
AcDbLine
 10
1660.500048459226
 20
799.499987155963
 30
0.0
 11
1660.500048459226
 21
799.999987155963
 31
0.0
  0
LINE
  5
CAA
330
2
100
AcDbEntity
  8
0
  6
Continuous
 62
     7
100
AcDbLine
 10
2818.000048473827
 20
42.49998720084704
 30
0.0
 11
2778.000048473827
 21
42.49998719705672
 31
0.0
  0
LINE
  5
CAB
330
2
100
AcDbEntity
  8
0
  6
Continuous
 62
     7
100
AcDbLine
 10
2818.000048473827
 20
42.49998720084704
 30
0.0
 11
2818.000048473924
 21
41.49998720077019
 31
0.0
  0
LINE
  5
CAC
330
2
100
AcDbEntity
  8
0
  6
Continuous
 62
     9
100
AcDbLine
 10
2818.000048473872
 20
41.49998720077019
 30
0.0
 11
2778.000048473872
 21
41.49998719697987
 31
0.0
  0
LINE
  5
CAD
330
2
100
AcDbEntity
  8
0
  6
Continuous
 62
     7
100
AcDbLine
 10
2778.000048473827
 20
42.49998719705672
 30
0.0
 11
2778.000048473922
 21
41.49998719697987
 31
0.0
  0
LINE
  5
CAE
330
2
100
AcDbEntity
  8
0
  6
Continuous
 62
     9
100
AcDbLine
 10
2818.000048475103
 20
28.49998720077019
 30
0.0
 11
2778.000048475103
 21
28.49998719697988
 31
0.0
  0
LINE
  5
CAF
330
2
100
AcDbEntity
  8
0
  6
Continuous
 62
     7
100
AcDbLine
 10
2778.000048473872
 20
41.49998719697987
 30
0.0
 11
2778.000048475103
 21
28.49998719697988
 31
0.0
  0
CIRCLE
  5
CB0
330
2
100
AcDbEntity
  8
0
  6
Continuous
 62
     7
100
AcDbCircle
 10
2813.000048474488
 20
34.99998720029589
 30
0.0
 40
2.499999999999502
  0
CIRCLE
  5
CB1
330
2
100
AcDbEntity
  8
0
  6
Continuous
 62
     7
100
AcDbCircle
 10
2783.000048474488
 20
34.99998719745418
 30
0.0
 40
2.500000000000389
  0
LINE
  5
CB2
330
2
100
AcDbEntity
  8
0
  6
Continuous
 62
     7
100
AcDbLine
 10
2818.000048473872
 20
41.49998720077019
 30
0.0
 11
2818.000048475103
 21
28.49998720077019
 31
0.0
  0
LINE
  5
CB3
330
2
100
AcDbEntity
  8
0
  6
Continuous
 62
     7
100
AcDbLine
 10
2818.000048475249
 20
27.49998720084704
 30
0.0
 11
2778.000048475249
 21
27.49998719705673
 31
0.0
  0
LINE
  5
CB4
330
2
100
AcDbEntity
  8
0
  6
Continuous
 62
     7
100
AcDbLine
 10
2778.000048475155
 20
28.49998719697988
 30
0.0
 11
2778.000048475249
 21
27.49998719705673
 31
0.0
  0
LINE
  5
CB5
330
2
100
AcDbEntity
  8
0
  6
Continuous
 62
     7
100
AcDbLine
 10
2818.000048475156
 20
28.49998720077019
 30
0.0
 11
2818.000048475249
 21
27.49998720084704
 31
0.0
  0
LINE
  5
CB6
330
2
100
AcDbEntity
  8
0
  6
Continuous
 62
     7
100
AcDbLine
 10
1632.000048459425
 20
47.49998715589072
 30
0.0
 11
1632.000048459022
 21
22.49998715590073
 31
0.0
  0
LINE
  5
CB7
330
2
100
AcDbEntity
  8
0
  6
Continuous
 62
     7
100
AcDbLine
 10
1626.300048459425
 20
47.49998715598303
 30
0.0
 11
1626.300048459021
 21
22.49998715599259
 31
0.0
  0
LINE
  5
CB8
330
2
100
AcDbEntity
  8
0
  6
Continuous
 62
     7
100
AcDbLine
 10
1626.000048459025
 20
22.79998715599777
 30
0.0
 11
1626.000048459418
 21
47.19998715598785
 31
0.0
  0
LINE
  5
CB9
330
2
100
AcDbEntity
  8
0
  6
Continuous
 62
     9
100
AcDbLine
 10
1642.000048459271
 20
37.99998715573884
 30
0.0
 11
1642.000048459211
 21
34.99998329134815
 31
0.0
  0
LINE
  5
CBA
330
2
100
AcDbEntity
  8
0
  6
Continuous
 62
     9
100
AcDbLine
 10
1642.000048459211
 20
34.99998329134815
 30
0.0
 11
1642.000048459174
 21
31.99998715573884
 31
0.0
  0
LINE
  5
CBB
330
2
100
AcDbEntity
  8
0
  6
Continuous
 62
     7
100
AcDbLine
 10
1643.000048460344
 20
48.99998715634684
 30
0.0
 11
1643.000048460239
 21
47.70179289219686
 31
0.0
  0
LINE
  5
CBC
330
2
100
AcDbEntity
  8
0
  6
Continuous
 62
     7
100
AcDbLine
 10
1643.000048460195
 20
47.09755916358654
 30
0.0
 11
1643.000048458116
 21
20.99998715635911
 31
0.0
  0
LINE
  5
CBD
330
2
100
AcDbEntity
  8
0
  6
Continuous
 62
     7
100
AcDbLine
 10
1644.000048460346
 20
48.99998715626679
 30
0.0
 11
1644.000048460166
 21
46.78912946619584
 31
0.0
  0
LINE
  5
CBE
330
2
100
AcDbEntity
  8
0
  6
Continuous
 62
     7
100
AcDbLine
 10
1644.000048460133
 20
46.33779766850511
 30
0.0
 11
1644.000048459429
 21
37.49998723828276
 31
0.0
  0
LINE
  5
CBF
330
2
100
AcDbEntity
  8
0
  6
Continuous
 62
     7
100
AcDbLine
 10
1644.000048459029
 20
32.49998723828412
 30
0.0
 11
1644.00004845812
 21
20.99998715627771
 31
0.0
  0
LINE
  5
CC0
330
2
100
AcDbEntity
  8
0
  6
Continuous
 62
     7
100
AcDbLine
 10
1647.000048459426
 20
46.999975563107
 30
0.0
 11
1647.000048459418
 21
46.48453159760584
 31
0.0
  0
LINE
  5
CC1
330
2
100
AcDbEntity
  8
0
  6
Continuous
 62
     7
100
AcDbLine
 10
1647.000048459407
 20
46.05190967086264
 30
0.0
 11
1647.000048458985
 21
19.99998715629317
 31
0.0
  0
LINE
  5
CC2
330
2
100
AcDbEntity
  8
0
  6
Continuous
 62
     7
100
AcDbLine
 10
1647.000048459451
 20
46.99999874945888
 30
0.0
 11
1645.000048459451
 21
46.99999874949208
 31
0.0
  0
LINE
  5
CC3
330
2
100
AcDbEntity
  8
0
  6
Continuous
 62
     9
100
AcDbLine
 10
1645.000048459425
 20
46.99997556314019
 30
0.0
 11
1645.000048459415
 21
46.37720427752401
 31
0.0
  0
LINE
  5
CC4
330
2
100
AcDbEntity
  8
0
  6
Continuous
 62
     9
100
AcDbLine
 10
1645.000048459409
 20
45.96952506324305
 30
0.0
 11
1645.000048458983
 21
19.99998715632591
 31
0.0
  0
LINE
  5
CC5
330
2
100
AcDbEntity
  8
0
  6
Continuous
 62
     7
100
AcDbLine
 10
1645.000048459396
 20
46.99997556314019
 30
0.0
 11
1647.0000484594
 21
46.999975563107
 31
0.0
  0
LINE
  5
CC6
330
2
100
AcDbEntity
  8
0
  6
Continuous
 62
     7
100
AcDbLine
 10
1644.000048459426
 20
46.99997786749054
 30
0.0
 11
1644.00004845942
 21
46.78912946665014
 31
0.0
  0
LINE
  5
CC7
330
2
100
AcDbEntity
  8
0
  6
Continuous
 62
     7
100
AcDbLine
 10
1644.000048459415
 20
46.3377976688871
 30
0.0
 11
1644.000048459271
 21
37.49998723828276
 31
0.0
  0
LINE
  5
CC8
330
2
100
AcDbEntity
  8
0
  6
Continuous
 62
     7
100
AcDbLine
 10
1644.000048459189
 20
32.49998723828276
 30
0.0
 11
1644.000048459009
 21
20.99998715634183
 31
0.0
  0
LINE
  5
CC9
330
2
100
AcDbEntity
  8
0
  6
Continuous
 62
     7
100
AcDbLine
 10
1644.000048459403
 20
46.99997786749054
 30
0.0
 11
1645.000048459396
 21
46.99997556314019
 31
0.0
  0
LINE
  5
CCA
330
2
100
AcDbEntity
  8
0
  6
Continuous
 62
     7
100
AcDbLine
 10
1645.000048459451
 20
46.99999874949208
 30
0.0
 11
1644.000048459447
 21
46.99999644517356
 31
0.0
  0
LINE
  5
CCB
330
2
100
AcDbEntity
  8
0
  6
Continuous
 62
     4
100
AcDbLine
 10
1641.000048459229
 20
-0.0000128441720335
 30
0.0
 11
1641.000048459229
 21
799.9999871558279
 31
0.0
  0
LINE
  5
CCC
330
2
100
AcDbEntity
  8
0
  6
Continuous
 62
     4
100
AcDbLine
 10
1633.000048459231
 20
-0.0000128441720335
 30
0.0
 11
1641.000048459229
 21
-0.0000128441720335
 31
0.0
  0
LINE
  5
CCD
330
2
100
AcDbEntity
  8
0
  6
Continuous
 62
     4
100
AcDbLine
 10
1633.000048459231
 20
799.9999871558279
 30
0.0
 11
1633.000048459231
 21
-0.0000128441720335
 31
0.0
  0
LINE
  5
CCE
330
2
100
AcDbEntity
  8
0
  6
Continuous
 62
     4
100
AcDbLine
 10
1641.000048459229
 20
799.9999871558279
 30
0.0
 11
1633.000048459231
 21
799.9999871558279
 31
0.0
  0
LINE
  5
CCF
330
2
100
AcDbEntity
  8
0
  6
Continuous
 62
     9
100
AcDbLine
 10
1669.000048459166
 20
42.4999871058626
 30
0.0
 11
1647.000048459315
 21
42.49998710584214
 31
0.0
  0
LINE
  5
CD0
330
2
100
AcDbEntity
  8
0
  6
Continuous
 62
     7
100
AcDbLine
 10
1642.000048459653
 20
44.49998710596583
 30
0.0
 11
1643.000048465759
 21
43.49998709986175
 31
0.0
  0
LINE
  5
CD1
330
2
100
AcDbEntity
  8
0
  6
Continuous
 62
     7
100
AcDbLine
 10
1669.00004845924
 20
44.49998710599084
 30
0.0
 11
1647.000048459349
 21
44.49998710597083
 31
0.0
  0
LINE
  5
CD2
330
2
100
AcDbEntity
  8
0
  6
Continuous
 62
     7
100
AcDbLine
 10
1643.000048459956
 20
44.49998710596583
 30
0.0
 11
1642.000048459653
 21
44.49998710596583
 31
0.0
  0
LINE
  5
CD3
330
2
100
AcDbEntity
  8
0
  6
Continuous
 62
     9
100
AcDbLine
 10
1682.000048459475
 20
24.49998710587488
 30
0.0
 11
1647.000048459025
 21
24.49998710584214
 31
0.0
  0
LINE
  5
CD4
330
2
100
AcDbEntity
  8
0
  6
Continuous
 62
     7
100
AcDbLine
 10
1682.000048459475
 20
24.49998710587488
 30
0.0
 11
1682.000048459475
 21
27.99998712284378
 31
0.0
  0
LINE
  5
CD5
330
2
100
AcDbEntity
  8
0
  6
Continuous
 62
     7
100
AcDbLine
 10
1682.000048459673
 20
22.49998710600312
 30
0.0
 11
1647.000048459002
 21
22.49998710596947
 31
0.0
  0
LINE
  5
CD6
330
2
100
AcDbEntity
  8
0
  6
Continuous
 62
     7
100
AcDbLine
 10
1643.000048458214
 20
22.49998710596719
 30
0.0
 11
1642.000048459675
 21
22.49998710596583
 31
0.0
  0
LINE
  5
CD7
330
2
100
AcDbEntity
  8
0
  6
Continuous
 62
     7
100
AcDbLine
 10
1643.000048464055
 20
23.49998711034777
 30
0.0
 11
1642.000048459675
 21
22.49998710596583
 31
0.0
  0
LINE
  5
CD8
330
2
100
AcDbEntity
  8
0
  6
Continuous
 62
     7
100
AcDbLine
 10
1682.000048459673
 20
22.49998710600312
 30
0.0
 11
1682.000048459671
 21
24.49998710587488
 31
0.0
  0
LINE
  5
CD9
330
2
100
AcDbEntity
  8
0
  6
Continuous
 62
     7
100
AcDbLine
 10
1642.267997652006
 20
23.49998710590171
 30
0.0
 11
1642.267997652006
 21
23.74998710590171
 31
0.0
  0
LINE
  5
CDA
330
2
100
AcDbEntity
  8
0
  6
Continuous
 62
     7
100
AcDbLine
 10
1642.267997652006
 20
23.74998710596583
 30
0.0
 11
1642.000048459673
 21
23.74998710596583
 31
0.0
  0
LINE
  5
CDB
330
2
100
AcDbEntity
  8
0
  6
Continuous
 62
     7
100
AcDbLine
 10
1642.000048459673
 20
23.74998710596583
 30
0.0
 11
1642.000048459664
 21
31.94997723917459
 31
0.0
  0
LINE
  5
CDC
330
2
100
AcDbEntity
  8
0
  6
Continuous
 62
     7
100
AcDbLine
 10
1642.000048459664
 20
31.94997723917459
 30
0.0
 11
1642.000048459664
 21
31.99998715573884
 31
0.0
  0
LINE
  5
CDD
330
2
100
AcDbEntity
  8
0
  6
Continuous
 62
     7
100
AcDbLine
 10
1642.000048459657
 20
37.99998715573884
 30
0.0
 11
1642.000048459657
 21
38.04999715573604
 31
0.0
  0
LINE
  5
CDE
330
2
100
AcDbEntity
  8
0
  6
Continuous
 62
     7
100
AcDbLine
 10
1642.000048459657
 20
38.04999715573604
 30
0.0
 11
1642.000048459653
 21
43.24998710596583
 31
0.0
  0
LINE
  5
CDF
330
2
100
AcDbEntity
  8
0
  6
Continuous
 62
     7
100
AcDbLine
 10
1642.000048459653
 20
43.24998710596583
 30
0.0
 11
1642.267997651986
 21
43.24998710596583
 31
0.0
  0
LINE
  5
CE0
330
2
100
AcDbEntity
  8
0
  6
Continuous
 62
     7
100
AcDbLine
 10
1642.267997651986
 20
43.24998710590171
 30
0.0
 11
1642.267997651986
 21
43.4999871059017
 31
0.0
  0
LINE
  5
CE1
330
2
100
AcDbEntity
  8
0
  6
Continuous
 62
     7
100
AcDbLine
 10
1642.267997651986
 20
43.49998710596582
 30
0.0
 11
1642.000048459653
 21
43.49998710596582
 31
0.0
  0
LINE
  5
CE2
330
2
100
AcDbEntity
  8
0
  6
Continuous
 62
     7
100
AcDbLine
 10
1642.000048459653
 20
43.49998710596582
 30
0.0
 11
1642.000048459653
 21
44.49998710596583
 31
0.0
  0
LINE
  5
CE3
330
2
100
AcDbEntity
  8
0
  6
Continuous
 62
     7
100
AcDbLine
 10
1642.000048459675
 20
22.49998710596583
 30
0.0
 11
1642.000048459673
 21
23.49998710596583
 31
0.0
  0
LINE
  5
CE4
330
2
100
AcDbEntity
  8
0
  6
Continuous
 62
     7
100
AcDbLine
 10
1642.000048459673
 20
23.49998710596583
 30
0.0
 11
1642.267997652006
 21
23.49998710596583
 31
0.0
  0
LINE
  5
CE5
330
2
100
AcDbEntity
  8
0
  6
Continuous
 62
     7
100
AcDbLine
 10
1647.80004852736
 20
57.10751842109903
 30
0.0
 11
1647.800049598914
 21
46.89245734279711
 31
0.0
  0
ARC
  5
CE6
330
2
100
AcDbEntity
  8
0
  6
Continuous
 62
     7
100
AcDbCircle
 10
1645.819927911421
 20
54.21263656577321
 30
0.0
 40
3.507309311987233
100
AcDbArc
 50
55.62758316846649
 51
167.1798631684872
  0
LINE
  5
CE7
330
2
100
AcDbEntity
  8
0
  6
Continuous
 62
     7
100
AcDbLine
 10
1642.400050053144
 20
49.00909762710489
 30
0.0
 11
1642.400050805218
 21
54.9908776520956
 31
0.0
  0
ARC
  5
CE8
330
2
100
AcDbEntity
  8
0
  6
Continuous
 62
     7
100
AcDbCircle
 10
1645.819927906314
 20
49.78733957599889
 30
0.0
 40
3.507310231730443
100
AcDbArc
 50
192.8201478636375
 51
304.3724278636393
  0
ARC
  5
CE9
330
2
100
AcDbEntity
  8
0
  6
Continuous
 62
     7
100
AcDbCircle
 10
1649.450048459581
 20
55.94998721428374
 30
0.0
 40
0.4500000000002843
100
AcDbArc
 50
89.99999664493637
 51
173.6206373072946
  0
ARC
  5
CEA
330
2
100
AcDbEntity
  8
0
  6
Continuous
 62
     7
100
AcDbCircle
 10
1649.450048459581
 20
55.94998721428374
 30
0.0
 40
0.4499999999994575
100
AcDbArc
 50
173.6206373072946
 51
179.9999966449363
  0
LINE
  5
CEB
330
2
100
AcDbEntity
  8
0
  6
Continuous
 62
     7
100
AcDbLine
 10
1649.00004845958
 20
55.94998724063407
 30
0.0
 11
1649.000048459513
 21
55.94883839671684
 31
0.0
  0
LINE
  5
CEC
330
2
100
AcDbEntity
  8
0
  6
Continuous
 62
     7
100
AcDbLine
 10
1649.000048459513
 20
55.94883839671684
 30
0.0
 11
1649.000047996986
 21
48.04998924063102
 31
0.0
  0
ARC
  5
CED
330
2
100
AcDbEntity
  8
0
  6
Continuous
 62
     7
100
AcDbCircle
 10
1649.450047996985
 20
48.04998921428069
 30
0.0
 40
0.4500000000007284
100
AcDbArc
 50
179.9999966449624
 51
186.3796339584047
  0
ARC
  5
CEE
330
2
100
AcDbEntity
  8
0
  6
Continuous
 62
     7
100
AcDbCircle
 10
1649.450047996985
 20
48.04998921428069
 30
0.0
 40
0.4500000000002068
100
AcDbArc
 50
186.3796339584047
 51
269.9999966449364
  0
LINE
  5
CEF
330
2
100
AcDbEntity
  8
0
  6
Continuous
 62
     7
100
AcDbLine
 10
1649.450047970635
 20
47.59998921428087
 30
0.0
 11
1649.550047970631
 21
47.59998920842508
 31
0.0
  0
ARC
  5
CF0
330
2
100
AcDbEntity
  8
0
  6
Continuous
 62
     7
100
AcDbCircle
 10
1649.550047996985
 20
48.04998920842582
 30
0.0
 40
0.4500000000002843
100
AcDbArc
 50
269.9999966449364
 51
353.6203667918354
  0
ARC
  5
CF1
330
2
100
AcDbEntity
  8
0
  6
Continuous
 62
     7
100
AcDbCircle
 10
1649.550047996985
 20
48.04998920842582
 30
0.0
 40
0.4499999999991914
100
AcDbArc
 50
353.6203667918095
 51
359.9999966449364
  0
LINE
  5
CF2
330
2
100
AcDbEntity
  8
0
  6
Continuous
 62
     7
100
AcDbLine
 10
1650.000047996986
 20
48.04998918207502
 30
0.0
 11
1650.00004802626
 21
48.54998918207503
 31
0.0
  0
ARC
  5
CF3
330
2
100
AcDbEntity
  8
0
  6
Continuous
 62
     7
100
AcDbCircle
 10
1650.450047026261
 20
48.5499881557248
 30
0.0
 40
0.449999000000039
100
AcDbArc
 50
89.99986932073035
 51
179.9998693207043
  0
LINE
  5
CF4
330
2
100
AcDbEntity
  8
0
  6
Continuous
 62
     7
100
AcDbLine
 10
1650.450048052613
 20
48.99998715572474
 30
0.0
 11
1650.550048052611
 21
48.99998914986918
 31
0.0
  0
ARC
  5
CF5
330
2
100
AcDbEntity
  8
0
  6
Continuous
 62
     7
100
AcDbCircle
 10
1650.550048026263
 20
48.5499891498689
 30
0.0
 40
0.4499999999998403
100
AcDbArc
 50
359.9999966449624
 51
89.99999664493637
  0
LINE
  5
CF6
330
2
100
AcDbEntity
  8
0
  6
Continuous
 62
     7
100
AcDbLine
 10
1651.000048026262
 20
48.54998912351766
 30
0.0
 11
1651.000047994057
 21
47.99998912351793
 31
0.0
  0
LINE
  5
CF7
330
2
100
AcDbEntity
  8
0
  6
Continuous
 62
     7
100
AcDbLine
 10
1651.000047994057
 20
47.99998912351793
 30
0.0
 11
1654.700047994058
 21
47.99998890685901
 31
0.0
  0
LINE
  5
CF8
330
2
100
AcDbEntity
  8
0
  6
Continuous
 62
     7
100
AcDbLine
 10
1654.700047994058
 20
47.99998890685901
 30
0.0
 11
1654.700047958922
 21
47.39998890685865
 31
0.0
  0
LINE
  5
CF9
330
2
100
AcDbEntity
  8
0
  6
Continuous
 62
     7
100
AcDbLine
 10
1654.700047958922
 20
47.39998890685865
 30
0.0
 11
1658.235397128823
 21
47.39998848890491
 31
0.0
  0
ARC
  5
CFA
330
2
100
AcDbEntity
  8
0
  6
Continuous
 62
     7
100
AcDbCircle
 10
1658.000047637906
 20
47.31566890091516
 30
0.0
 40
0.2499983515809095
100
AcDbArc
 50
19.71127840081329
 51
84.71062540080165
  0
LINE
  5
CFB
330
2
100
AcDbEntity
  8
0
  6
Continuous
 62
     7
100
AcDbLine
 10
1658.023093968562
 20
47.56460271227251
 30
0.0
 11
1656.049719979262
 21
47.74730282782548
 31
0.0
  0
LINE
  5
CFC
330
2
100
AcDbEntity
  8
0
  6
Continuous
 62
     7
100
AcDbLine
 10
1656.049719979262
 20
47.74730282782548
 30
0.0
 11
1656.072767993837
 21
47.99623682647689
 31
0.0
  0
LINE
  5
CFD
330
2
100
AcDbEntity
  8
0
  6
Continuous
 62
     7
100
AcDbLine
 10
1656.072767993837
 20
47.99623682647689
 30
0.0
 11
1658.046139699159
 21
47.81353954692668
 31
0.0
  0
ARC
  5
CFE
330
2
100
AcDbEntity
  8
0
  6
Continuous
 62
     7
100
AcDbCircle
 10
1658.000045643996
 20
47.31566939840013
 30
0.0
 40
0.4999993467149972
100
AcDbArc
 50
9.708685039796174
 51
84.71049303982344
  0
LINE
  5
CFF
330
2
100
AcDbEntity
  8
0
  6
Continuous
 62
     7
100
AcDbLine
 10
1658.492883958922
 20
47.39998868476277
 30
0.0
 11
1659.200045958925
 21
47.39998864335302
 31
0.0
  0
LINE
  5
D00
330
2
100
AcDbEntity
  8
0
  6
Continuous
 62
     7
100
AcDbLine
 10
1659.200045958925
 20
47.39998864335302
 30
0.0
 11
1659.200045994057
 21
47.99998864335338
 31
0.0
  0
LINE
  5
D01
330
2
100
AcDbEntity
  8
0
  6
Continuous
 62
     7
100
AcDbLine
 10
1659.200045994057
 20
47.99998864335338
 30
0.0
 11
1661.00004599406
 21
47.99998853795204
 31
0.0
  0
LINE
  5
D02
330
2
100
AcDbEntity
  8
0
  6
Continuous
 62
     7
100
AcDbLine
 10
1661.00004599406
 20
47.99998853795204
 30
0.0
 11
1661.000045947214
 21
47.19998853795186
 31
0.0
  0
ARC
  5
D03
330
2
100
AcDbEntity
  8
0
  6
Continuous
 62
     7
100
AcDbCircle
 10
1660.200045947215
 20
47.19998858479721
 30
0.0
 40
0.7999999999999135
100
AcDbArc
 50
269.9999966449364
 51
359.9999966449624
  0
LINE
  5
D04
330
2
100
AcDbEntity
  8
0
  6
Continuous
 62
     7
100
AcDbLine
 10
1660.200045900372
 20
46.39998858479702
 30
0.0
 11
1647.800048367411
 21
46.3999887536629
 31
0.0
  0
LINE
  5
D05
330
2
100
AcDbEntity
  8
0
  6
Continuous
 62
     7
100
AcDbLine
 10
1642.000050053144
 20
49.00909765052756
 30
0.0
 11
1642.000049702867
 21
54.99087676657882
 31
0.0
  0
ARC
  5
D06
330
2
100
AcDbEntity
  8
0
  6
Continuous
 62
     7
100
AcDbCircle
 10
1645.843851921858
 20
54.19737531577993
 30
0.0
 40
3.924851596061053
100
AcDbArc
 50
60.10494679292755
 51
168.3359047928909
  0
LINE
  5
D07
330
2
100
AcDbEntity
  8
0
  6
Continuous
 62
     7
100
AcDbLine
 10
1647.800048556199
 20
57.59998531090286
 30
0.0
 11
1660.200046556203
 21
57.59998458480095
 31
0.0
  0
ARC
  5
D08
330
2
100
AcDbEntity
  8
0
  6
Continuous
 62
     7
100
AcDbCircle
 10
1660.200046509359
 20
56.79998458480032
 30
0.0
 40
0.7999999999999135
100
AcDbArc
 50
359.9999966448843
 51
89.99999664493637
  0
LINE
  5
D09
330
2
100
AcDbEntity
  8
0
  6
Continuous
 62
     7
100
AcDbLine
 10
1661.000046509358
 20
56.79998453795497
 30
0.0
 11
1661.000046462515
 21
55.99998653795501
 31
0.0
  0
LINE
  5
D0A
330
2
100
AcDbEntity
  8
0
  6
Continuous
 62
     7
100
AcDbLine
 10
1661.000046462515
 20
55.99998653795501
 30
0.0
 11
1659.200046462511
 21
55.9999866433568
 31
0.0
  0
LINE
  5
D0B
330
2
100
AcDbEntity
  8
0
  6
Continuous
 62
     7
100
AcDbLine
 10
1659.200046462511
 20
55.9999866433568
 30
0.0
 11
1659.200046497644
 21
56.59998464335649
 31
0.0
  0
LINE
  5
D0C
330
2
100
AcDbEntity
  8
0
  6
Continuous
 62
     7
100
AcDbLine
 10
1659.200046497644
 20
56.59998464335649
 30
0.0
 11
1658.492885388867
 21
56.59998489290001
 31
0.0
  0
ARC
  5
D0D
330
2
100
AcDbEntity
  8
0
  6
Continuous
 62
     7
100
AcDbCircle
 10
1658.000047189309
 20
56.68430494658605
 30
0.0
 40
0.4999993623979361
100
AcDbArc
 50
275.2894180610676
 51
350.2912260611051
  0
LINE
  5
D0E
330
2
100
AcDbEntity
  8
0
  6
Continuous
 62
     7
100
AcDbLine
 10
1658.046140473429
 20
56.18643471092582
 30
0.0
 11
1656.072768462731
 21
56.00373682647978
 31
0.0
  0
LINE
  5
D0F
330
2
100
AcDbEntity
  8
0
  6
Continuous
 62
     7
100
AcDbLine
 10
1656.072768462731
 20
56.00373682647978
 30
0.0
 11
1656.049720477309
 21
56.25267282782852
 31
0.0
  0
LINE
  5
D10
330
2
100
AcDbEntity
  8
0
  6
Continuous
 62
     7
100
AcDbLine
 10
1656.049720477309
 20
56.25267282782852
 30
0.0
 11
1658.023093346015
 21
56.43536929427273
 31
0.0
  0
ARC
  5
D11
330
2
100
AcDbEntity
  8
0
  6
Continuous
 62
     7
100
AcDbCircle
 10
1658.000047083189
 20
56.68430525966505
 30
0.0
 40
0.2500004901912803
100
AcDbArc
 50
275.2893136103678
 51
340.2886606103813
  0
LINE
  5
D12
330
2
100
AcDbEntity
  8
0
  6
Continuous
 62
     7
100
AcDbLine
 10
1658.235398497645
 20
56.59998469984294
 30
0.0
 11
1654.700048497645
 21
56.59998490686212
 31
0.0
  0
LINE
  5
D13
330
2
100
AcDbEntity
  8
0
  6
Continuous
 62
     7
100
AcDbLine
 10
1654.700048497645
 20
56.59998490686212
 30
0.0
 11
1654.700048462511
 21
55.99998690686198
 31
0.0
  0
LINE
  5
D14
330
2
100
AcDbEntity
  8
0
  6
Continuous
 62
     7
100
AcDbLine
 10
1654.700048462511
 20
55.99998690686198
 30
0.0
 11
1651.00004846251
 21
55.99998712352089
 31
0.0
  0
LINE
  5
D15
330
2
100
AcDbEntity
  8
0
  6
Continuous
 62
     7
100
AcDbLine
 10
1651.00004846251
 20
55.99998712352089
 30
0.0
 11
1651.000048430304
 21
55.44998712352072
 31
0.0
  0
ARC
  5
D16
330
2
100
AcDbEntity
  8
0
  6
Continuous
 62
     7
100
AcDbCircle
 10
1650.550048430305
 20
55.4499871498715
 30
0.0
 40
0.4500000000007284
100
AcDbArc
 50
269.9999966449364
 51
359.9999966449624
  0
LINE
  5
D17
330
2
100
AcDbEntity
  8
0
  6
Continuous
 62
     7
100
AcDbLine
 10
1650.550048403953
 20
54.99998714987078
 30
0.0
 11
1650.450048403953
 21
54.99998715572655
 31
0.0
  0
ARC
  5
D18
330
2
100
AcDbEntity
  8
0
  6
Continuous
 62
     7
100
AcDbCircle
 10
1650.450048430304
 20
55.44998715572683
 30
0.0
 40
0.4500000000002843
100
AcDbArc
 50
179.9999966449624
 51
269.9999966449364
  0
LINE
  5
D19
330
2
100
AcDbEntity
  8
0
  6
Continuous
 62
     7
100
AcDbLine
 10
1650.000048430303
 20
55.44998718207671
 30
0.0
 11
1650.000048459582
 21
55.94998718207808
 31
0.0
  0
ARC
  5
D1A
330
2
100
AcDbEntity
  8
0
  6
Continuous
 62
     7
100
AcDbCircle
 10
1649.550048459581
 20
55.94998720842795
 30
0.0
 40
0.4500000000007284
100
AcDbArc
 50
359.9999966449624
 51
6.379363442934026
  0
ARC
  5
D1B
330
2
100
AcDbEntity
  8
0
  6
Continuous
 62
     7
100
AcDbCircle
 10
1649.550048459581
 20
55.94998720842795
 30
0.0
 40
0.4500000000004453
100
AcDbArc
 50
6.379363442908133
 51
89.99999664493637
  0
LINE
  5
D1C
330
2
100
AcDbEntity
  8
0
  6
Continuous
 62
     7
100
AcDbLine
 10
1649.550048485929
 20
56.39998720842823
 30
0.0
 11
1649.450048485932
 21
56.39998721428401
 31
0.0
  0
ARC
  5
D1D
330
2
100
AcDbEntity
  8
0
  6
Continuous
 62
     7
100
AcDbCircle
 10
1645.843852130128
 20
49.80259873006071
 30
0.0
 40
3.924851381929462
100
AcDbArc
 50
191.6640903182863
 51
299.8950483183281
  0
LINE
  5
D1E
330
2
100
AcDbEntity
  8
0
  6
Continuous
 62
     9
100
AcDbLine
 10
1670.00004846
 20
74.99998712283468
 30
0.0
 11
1670.00004846
 21
55.99998712283604
 31
0.0
  0
LINE
  5
D1F
330
2
100
AcDbEntity
  8
0
  6
Continuous
 62
     7
100
AcDbLine
 10
1669.000048459938
 20
55.99998712278284
 30
0.0
 11
1669.000048459938
 21
74.99998712278193
 31
0.0
  0
LINE
  5
D20
330
2
100
AcDbEntity
  8
0
  6
Continuous
 62
     9
100
AcDbLine
 10
1670.00004846
 20
74.99998712278193
 30
0.0
 11
1669.000048459938
 21
74.99998712278193
 31
0.0
  0
LINE
  5
D21
330
2
100
AcDbEntity
  8
0
  6
Continuous
 62
     9
100
AcDbLine
 10
1688.00004846
 20
62.99998715446282
 30
0.0
 11
1688.00004846
 21
74.9999871228365
 31
0.0
  0
LINE
  5
D22
330
2
100
AcDbEntity
  8
0
  6
Continuous
 62
     9
100
AcDbLine
 10
1688.00004846
 20
74.9999871228365
 30
0.0
 11
1670.00004846
 21
74.99998712283468
 31
0.0
  0
ARC
  5
D23
330
2
100
AcDbEntity
  8
0
  6
Continuous
 62
     7
100
AcDbCircle
 10
1670.000048459935
 20
74.99998712278193
 30
0.0
 40
0.9999999999998896
100
AcDbArc
 50
90.0
 51
180.0
  0
LINE
  5
D24
330
2
100
AcDbEntity
  8
0
  6
Continuous
 62
     9
100
AcDbLine
 10
1670.000048459935
 20
74.99998712283468
 30
0.0
 11
1670.000048459935
 21
75.99998712278284
 31
0.0
  0
LINE
  5
D25
330
2
100
AcDbEntity
  8
0
  6
Continuous
 62
     7
100
AcDbLine
 10
1670.000048459935
 20
75.99998712278284
 30
0.0
 11
1688.000048459937
 21
75.99998712278466
 31
0.0
  0
LINE
  5
D26
330
2
100
AcDbEntity
  8
0
  6
Continuous
 62
     9
100
AcDbLine
 10
1688.000048459937
 20
74.9999871228365
 30
0.0
 11
1688.000048459937
 21
75.99998712278466
 31
0.0
  0
LINE
  5
D27
330
2
100
AcDbEntity
  8
0
  6
Continuous
 62
     9
100
AcDbLine
 10
1688.00004846
 20
74.99998712278466
 30
0.0
 11
1689.000048459939
 21
74.99998712278466
 31
0.0
  0
LINE
  5
D28
330
2
100
AcDbEntity
  8
0
  6
Continuous
 62
     7
100
AcDbLine
 10
1689.000048459939
 20
74.99998712278466
 30
0.0
 11
1689.000048459939
 21
62.99998715441006
 31
0.0
  0
ARC
  5
D29
330
2
100
AcDbEntity
  8
0
  6
Continuous
 62
     7
100
AcDbCircle
 10
1688.000048459937
 20
74.99998712278466
 30
0.0
 40
1.000000000001222
100
AcDbArc
 50
0.0
 51
90.0
  0
LINE
  5
D2A
330
2
100
AcDbEntity
  8
0
  6
Continuous
 62
     9
100
AcDbLine
 10
1670.000048458663
 20
28.99998712335992
 30
0.0
 11
1670.000048458625
 21
27.99998712329034
 31
0.0
  0
ARC
  5
D2B
330
2
100
AcDbEntity
  8
0
  6
Continuous
 62
     7
100
AcDbCircle
 10
1670.000048458663
 20
28.99998712329034
 30
0.0
 40
0.9999999999994455
100
AcDbArc
 50
179.9999999978635
 51
269.9999999978114
  0
LINE
  5
D2C
330
2
100
AcDbEntity
  8
0
  6
Continuous
 62
     9
100
AcDbLine
 10
1670.000048458663
 20
28.99998712329034
 30
0.0
 11
1669.000048458665
 21
28.99998712332672
 31
0.0
  0
LINE
  5
D2D
330
2
100
AcDbEntity
  8
0
  6
Continuous
 62
     9
100
AcDbLine
 10
1670.000048458663
 20
28.99998712335992
 30
0.0
 11
1688.000048458661
 21
28.99998712269098
 31
0.0
  0
LINE
  5
D2E
330
2
100
AcDbEntity
  8
0
  6
Continuous
 62
     9
100
AcDbLine
 10
1688.000048458661
 20
28.99998712269098
 30
0.0
 11
1688.000048458627
 21
27.99998712262004
 31
0.0
  0
LINE
  5
D2F
330
2
100
AcDbEntity
  8
0
  6
Continuous
 62
     7
100
AcDbLine
 10
1688.000048458627
 20
27.99998712262004
 30
0.0
 11
1670.000048458625
 21
27.99998712329034
 31
0.0
  0
LINE
  5
D30
330
2
100
AcDbEntity
  8
0
  6
Continuous
 62
     9
100
AcDbLine
 10
1688.000048458661
 20
28.99998712262004
 30
0.0
 11
1688.500048459513
 21
28.99998712260185
 31
0.0
  0
ARC
  5
D31
330
2
100
AcDbEntity
  8
0
  6
Continuous
 62
     7
100
AcDbCircle
 10
1688.000048458661
 20
28.99998712262004
 30
0.0
 40
0.9999999999998896
100
AcDbArc
 50
269.9999999978114
 51
300.0000000561913
  0
LINE
  5
D32
330
2
100
AcDbEntity
  8
0
  6
Continuous
 62
     9
100
AcDbLine
 10
1670.000048459368
 20
47.999987123359
 30
0.0
 11
1670.000048459073
 21
39.99998723735689
 31
0.0
  0
LINE
  5
D33
330
2
100
AcDbEntity
  8
0
  6
Continuous
 62
     9
100
AcDbLine
 10
1670.0000484587
 20
29.99998723735826
 30
0.0
 11
1670.000048458663
 21
28.99998712335992
 31
0.0
  0
LINE
  5
D34
330
2
100
AcDbEntity
  8
0
  6
Continuous
 62
     9
100
AcDbLine
 10
1688.000048458661
 20
28.99998712269098
 30
0.0
 11
1688.000048458702
 21
29.99998723677482
 31
0.0
  0
LINE
  5
D35
330
2
100
AcDbEntity
  8
0
  6
Continuous
 62
     9
100
AcDbLine
 10
1688.000048459073
 20
39.99998723677482
 30
0.0
 11
1688.000048459369
 21
47.99998712269007
 31
0.0
  0
LINE
  5
D36
330
2
100
AcDbEntity
  8
0
  6
Continuous
 62
     7
100
AcDbLine
 10
1669.000048458665
 20
28.99998712332672
 30
0.0
 11
1669.000048458701
 21
29.99998723739009
 31
0.0
  0
LINE
  5
D37
330
2
100
AcDbEntity
  8
0
  6
Continuous
 62
     7
100
AcDbLine
 10
1669.000048459073
 20
39.99998723739009
 30
0.0
 11
1669.000048459371
 21
47.9999871233249
 31
0.0
  0
LINE
  5
D38
330
2
100
AcDbEntity
  8
0
  6
Continuous
 62
     7
100
AcDbLine
 10
1689.000048459202
 20
43.49998710176078
 30
0.0
 11
1689.000048459185
 21
42.99998715462516
 31
0.0
  0
LINE
  5
D39
330
2
100
AcDbEntity
  8
0
  6
Continuous
 62
     7
100
AcDbLine
 10
1689.000048459076
 20
40.14998715451702
 30
0.0
 11
1689.000048459071
 21
39.99998723674298
 31
0.0
  0
LINE
  5
D3A
330
2
100
AcDbEntity
  8
0
  6
Continuous
 62
     7
100
AcDbLine
 10
1689.0000484587
 20
29.99998723674162
 30
0.0
 11
1689.000048458694
 21
29.84998715451866
 31
0.0
  0
CIRCLE
  5
D3B
330
2
100
AcDbEntity
  8
0
  6
Continuous
 62
     7
100
AcDbCircle
 10
2697.000048458586
 20
35.1999872052329
 30
0.0
 40
1.300000000000522
  0
LINE
  5
D3C
330
2
100
AcDbEntity
  8
0
  6
Continuous
 62
     7
100
AcDbLine
 10
2697.577398727744
 20
36.199987205252
 30
0.0
 11
2698.154748996967
 21
35.19998720527019
 31
0.0
  0
LINE
  5
D3D
330
2
100
AcDbEntity
  8
0
  6
Continuous
 62
     7
100
AcDbLine
 10
2696.422698189365
 20
36.19998720521517
 30
0.0
 11
2697.577398727744
 21
36.199987205252
 31
0.0
  0
LINE
  5
D3E
330
2
100
AcDbEntity
  8
0
  6
Continuous
 62
     7
100
AcDbLine
 10
2695.845347920207
 20
35.19998720519698
 30
0.0
 11
2696.422698189365
 21
36.19998720521517
 31
0.0
  0
LINE
  5
D3F
330
2
100
AcDbEntity
  8
0
  6
Continuous
 62
     7
100
AcDbLine
 10
2696.422698189429
 20
34.19998720521517
 30
0.0
 11
2695.845347920207
 21
35.19998720519698
 31
0.0
  0
LINE
  5
D40
330
2
100
AcDbEntity
  8
0
  6
Continuous
 62
     7
100
AcDbLine
 10
2697.577398727807
 20
34.19998720525064
 30
0.0
 11
2696.422698189429
 21
34.19998720521517
 31
0.0
  0
LINE
  5
D41
330
2
100
AcDbEntity
  8
0
  6
Continuous
 62
     7
100
AcDbLine
 10
2698.154748996967
 20
35.19998720527019
 30
0.0
 11
2697.577398727807
 21
34.19998720525064
 31
0.0
  0
CIRCLE
  5
D42
330
2
100
AcDbEntity
  8
0
  6
Continuous
 62
     7
100
AcDbCircle
 10
2687.000048458586
 20
35.19998720491867
 30
0.0
 40
1.300000000000522
  0
LINE
  5
D43
330
2
100
AcDbEntity
  8
0
  6
Continuous
 62
     7
100
AcDbLine
 10
2687.577398727745
 20
36.1999872049355
 30
0.0
 11
2688.154748996965
 21
35.1999872049546
 31
0.0
  0
LINE
  5
D44
330
2
100
AcDbEntity
  8
0
  6
Continuous
 62
     7
100
AcDbLine
 10
2686.422698189364
 20
36.19998720489957
 30
0.0
 11
2687.577398727745
 21
36.1999872049355
 31
0.0
  0
LINE
  5
D45
330
2
100
AcDbEntity
  8
0
  6
Continuous
 62
     7
100
AcDbLine
 10
2685.845347920208
 20
35.19998720488184
 30
0.0
 11
2686.422698189364
 21
36.19998720489957
 31
0.0
  0
LINE
  5
D46
330
2
100
AcDbEntity
  8
0
  6
Continuous
 62
     7
100
AcDbLine
 10
2686.422698189429
 20
34.19998720489957
 30
0.0
 11
2685.845347920208
 21
35.19998720488184
 31
0.0
  0
LINE
  5
D47
330
2
100
AcDbEntity
  8
0
  6
Continuous
 62
     7
100
AcDbLine
 10
2687.577398727809
 20
34.19998720493686
 30
0.0
 11
2686.422698189429
 21
34.19998720489957
 31
0.0
  0
LINE
  5
D48
330
2
100
AcDbEntity
  8
0
  6
Continuous
 62
     7
100
AcDbLine
 10
2688.154748996965
 20
35.1999872049546
 30
0.0
 11
2687.577398727809
 21
34.19998720493686
 31
0.0
  0
ELLIPSE
  5
D49
330
2
100
AcDbEntity
  8
0
  6
Continuous
 62
    92
100
AcDbEllipse
 10
2676.503206464522
 20
35.19998720461899
 30
0.0
 11
-1.783999671169488
 21
-1.783999670707635
 31
0.0
210
0.0
220
0.0
230
1.0
 40
0.9817175512361295
 41
5.507012439495597
 42
7.059358175185304
  0
ELLIPSE
  5
D4A
330
2
100
AcDbEntity
  8
0
  6
Continuous
 62
    92
100
AcDbEllipse
 10
2676.503206464522
 20
35.19998720461899
 30
0.0
 11
-1.783999671169488
 21
-1.783999670707635
 31
0.0
210
0.0
220
0.0
230
1.0
 40
0.9817175512361295
 41
3.9177655215956
 42
5.507012439495597
  0
LINE
  5
D4B
330
2
100
AcDbEntity
  8
0
  6
Continuous
 62
     7
100
AcDbLine
 10
2700.000048458868
 20
42.69998720533613
 30
0.0
 11
2680.000048458869
 21
42.69998720470676
 31
0.0
  0
LINE
  5
D4C
330
2
100
AcDbEntity
  8
0
  6
Continuous
 62
     9
100
AcDbLine
 10
2700.000048458895
 20
41.69998720532794
 30
0.0
 11
2680.000048458895
 21
41.69998720469766
 31
0.0
  0
LINE
  5
D4D
330
2
100
AcDbEntity
  8
0
  6
Continuous
 62
     7
100
AcDbLine
 10
2680.000048458869
 20
42.69998720470676
 30
0.0
 11
2680.000048458899
 21
41.69998720469766
 31
0.0
  0
LINE
  5
D4E
330
2
100
AcDbEntity
  8
0
  6
Continuous
 62
     7
100
AcDbLine
 10
2700.000048458868
 20
42.69998720533613
 30
0.0
 11
2700.0000484589
 21
41.69998720532794
 31
0.0
  0
LINE
  5
D4F
330
2
100
AcDbEntity
  8
0
  6
Continuous
 62
     9
100
AcDbLine
 10
2700.000048459303
 20
28.69998720532795
 30
0.0
 11
2680.000048459303
 21
28.69998720469766
 31
0.0
  0
LINE
  5
D50
330
2
100
AcDbEntity
  8
0
  6
Continuous
 62
     7
100
AcDbLine
 10
2680.000048458895
 20
41.69998720469766
 30
0.0
 11
2680.000048459303
 21
28.69998720469766
 31
0.0
  0
CIRCLE
  5
D51
330
2
100
AcDbEntity
  8
0
  6
Continuous
 62
     7
100
AcDbCircle
 10
2697.000048459099
 20
35.1999872052329
 30
0.0
 40
1.650000000000594
  0
CIRCLE
  5
D52
330
2
100
AcDbEntity
  8
0
  6
Continuous
 62
     7
100
AcDbCircle
 10
2687.000048459099
 20
35.19998720491867
 30
0.0
 40
1.649999999999706
  0
LINE
  5
D53
330
2
100
AcDbEntity
  8
0
  6
Continuous
 62
     7
100
AcDbLine
 10
2700.000048458895
 20
41.69998720532794
 30
0.0
 11
2700.000048459303
 21
28.69998720532795
 31
0.0
  0
LINE
  5
D54
330
2
100
AcDbEntity
  8
0
  6
Continuous
 62
     7
100
AcDbLine
 10
2700.000048459341
 20
27.69998720533613
 30
0.0
 11
2680.000048459342
 21
27.69998720470676
 31
0.0
  0
LINE
  5
D55
330
2
100
AcDbEntity
  8
0
  6
Continuous
 62
     7
100
AcDbLine
 10
2680.000048459309
 20
28.69998720469766
 30
0.0
 11
2680.000048459342
 21
27.69998720470676
 31
0.0
  0
LINE
  5
D56
330
2
100
AcDbEntity
  8
0
  6
Continuous
 62
     7
100
AcDbLine
 10
2700.00004845931
 20
28.69998720532795
 30
0.0
 11
2700.000048459341
 21
27.69998720533613
 31
0.0
  0
LINE
  5
D57
330
2
100
AcDbEntity
  8
0
  6
Continuous
 62
     7
100
AcDbLine
 10
2242.000048487295
 20
58.49998713614104
 30
0.0
 11
2240.973354792678
 21
58.49998713672448
 31
0.0
  0
LINE
  5
D58
330
2
100
AcDbEntity
  8
0
  6
Continuous
 62
     7
100
AcDbLine
 10
2242.000048479907
 20
45.49998713614104
 30
0.0
 11
2242.000048487295
 21
58.49998713614104
 31
0.0
  0
LINE
  5
D59
330
2
100
AcDbEntity
  8
0
  6
Continuous
 62
     7
100
AcDbLine
 10
2242.000048465124
 20
19.49998713614104
 30
0.0
 11
2242.000048466545
 21
21.9999871558266
 31
0.0
  0
LINE
  5
D5A
330
2
100
AcDbEntity
  8
0
  6
Continuous
 62
     7
100
AcDbLine
 10
2242.000048466545
 20
21.9999871558266
 30
0.0
 11
2242.000048479907
 21
45.49998713614104
 31
0.0
  0
LINE
  5
D5B
330
2
100
AcDbEntity
  8
0
  6
Continuous
 62
     7
100
AcDbLine
 10
2241.500048465124
 20
19.49998713642617
 30
0.0
 11
2242.000048465124
 21
19.49998713614104
 31
0.0
  0
LINE
  5
D5C
330
2
100
AcDbEntity
  8
0
  6
Continuous
 62
     7
100
AcDbLine
 10
2241.00007541007
 20
45.49858676810254
 30
0.0
 11
2241.451971543094
 21
21.9999871558266
 31
0.0
  0
LINE
  5
D5D
330
2
100
AcDbEntity
  8
0
  6
Continuous
 62
     7
100
AcDbLine
 10
2241.451971543094
 20
21.9999871558266
 30
0.0
 11
2241.500048465124
 21
19.49998713642617
 31
0.0
  0
LINE
  5
D5E
330
2
100
AcDbEntity
  8
0
  6
Continuous
 62
     7
100
AcDbLine
 10
2229.96202629144
 20
46.07706641632103
 30
0.0
 11
2241.00007541007
 21
45.49858676810254
 31
0.0
  0
LINE
  5
D5F
330
2
100
AcDbEntity
  8
0
  6
Continuous
 62
     7
100
AcDbLine
 10
2229.993427865525
 20
46.67624413715611
 30
0.0
 11
2229.96202629144
 21
46.07706641632103
 31
0.0
  0
ARC
  5
D60
330
2
100
AcDbEntity
  8
0
  6
Continuous
 62
     7
100
AcDbCircle
 10
2230.392879679415
 20
46.65530975443107
 30
0.0
 40
0.3999999999997422
100
AcDbArc
 50
86.99999996743306
 51
176.9999999674316
  0
LINE
  5
D61
330
2
100
AcDbEntity
  8
0
  6
Continuous
 62
     7
100
AcDbLine
 10
2231.512306550337
 20
46.99719201583002
 30
0.0
 11
2230.41381406214
 21
47.05476156832083
 31
0.0
  0
LINE
  5
D62
330
2
100
AcDbEntity
  8
0
  6
Continuous
 62
     7
100
AcDbLine
 10
2231.501839358974
 20
46.79746610888514
 30
0.0
 11
2231.512306550337
 21
46.99719201583002
 31
0.0
  0
LINE
  5
D63
330
2
100
AcDbEntity
  8
0
  6
Continuous
 62
     7
100
AcDbLine
 10
2234.497727963149
 20
46.64045823845299
 30
0.0
 11
2231.501839358974
 21
46.79746610888514
 31
0.0
  0
LINE
  5
D64
330
2
100
AcDbEntity
  8
0
  6
Continuous
 62
     7
100
AcDbLine
 10
2234.508195154512
 20
46.84018414539695
 30
0.0
 11
2234.497727963149
 21
46.64045823845299
 31
0.0
  0
LINE
  5
D65
330
2
100
AcDbEntity
  8
0
  6
Continuous
 62
     7
100
AcDbLine
 10
2237.504083758684
 20
46.6831762749648
 30
0.0
 11
2234.508195154512
 21
46.84018414539695
 31
0.0
  0
LINE
  5
D66
330
2
100
AcDbEntity
  8
0
  6
Continuous
 62
     7
100
AcDbLine
 10
2237.508910300538
 20
47.05738111515666
 30
0.0
 11
2237.504083758684
 21
46.6831762749648
 31
0.0
  0
ARC
  5
D67
330
2
100
AcDbEntity
  8
0
  6
Continuous
 62
     7
100
AcDbCircle
 10
2237.908769168432
 20
47.06800588655688
 30
0.0
 40
0.3999999999997422
100
AcDbArc
 50
86.99999996743306
 51
181.5220654132436
  0
LINE
  5
D68
330
2
100
AcDbEntity
  8
0
  6
Continuous
 62
     7
100
AcDbLine
 10
2238.1294294581
 20
47.45699050908479
 30
0.0
 11
2237.929703551154
 21
47.46745770044708
 31
0.0
  0
ARC
  5
D69
330
2
100
AcDbEntity
  8
0
  6
Continuous
 62
     7
100
AcDbCircle
 10
2238.108495075375
 20
47.05753869519457
 30
0.0
 40
0.3999999999999982
100
AcDbArc
 50
1.522065413061335
 51
86.99999996743306
  0
LINE
  5
D6A
330
2
100
AcDbEntity
  8
0
  6
Continuous
 62
     7
100
AcDbLine
 10
2238.502713293411
 20
46.63084031815469
 30
0.0
 11
2238.508353943268
 21
47.06816346659389
 31
0.0
  0
LINE
  5
D6B
330
2
100
AcDbEntity
  8
0
  6
Continuous
 62
     7
100
AcDbLine
 10
2241.000048480475
 20
46.49996052545202
 30
0.0
 11
2238.502713293411
 21
46.63084031815469
 31
0.0
  0
LINE
  5
D6C
330
2
100
AcDbEntity
  8
0
  6
Continuous
 62
     7
100
AcDbLine
 10
2241.000048486728
 20
57.50001374796648
 30
0.0
 11
2241.000048485874
 21
55.99998715570428
 31
0.0
  0
LINE
  5
D6D
330
2
100
AcDbEntity
  8
0
  6
Continuous
 62
     7
100
AcDbLine
 10
2241.000048485874
 20
55.99998715570428
 30
0.0
 11
2241.000048481327
 21
47.99998715570427
 31
0.0
  0
LINE
  5
D6E
330
2
100
AcDbEntity
  8
0
  6
Continuous
 62
     7
100
AcDbLine
 10
2241.000048481327
 20
47.99998715570427
 30
0.0
 11
2241.000048480475
 21
46.49996052545202
 31
0.0
  0
LINE
  5
D6F
330
2
100
AcDbEntity
  8
0
  6
Continuous
 62
     7
100
AcDbLine
 10
2238.502713299515
 20
57.36913395810415
 30
0.0
 11
2241.000048486728
 21
57.50001374796648
 31
0.0
  0
LINE
  5
D70
330
2
100
AcDbEntity
  8
0
  6
Continuous
 62
     7
100
AcDbLine
 10
2238.50794689491
 20
56.96336996378068
 30
0.0
 11
2238.502713299515
 21
57.36913395810415
 31
0.0
  0
ARC
  5
D71
330
2
100
AcDbEntity
  8
0
  6
Continuous
 62
     7
100
AcDbCircle
 10
2238.108495080997
 20
56.94243558151175
 30
0.0
 40
0.399999999999937
100
AcDbArc
 50
272.9999999674439
 51
2.999999967365842
  0
LINE
  5
D72
330
2
100
AcDbEntity
  8
0
  6
Continuous
 62
     7
100
AcDbLine
 10
2237.929703556308
 20
56.53251657646388
 30
0.0
 11
2238.129429463265
 21
56.5429837675988
 31
0.0
  0
ARC
  5
D73
330
2
100
AcDbEntity
  8
0
  6
Continuous
 62
     7
100
AcDbCircle
 10
2237.908769174038
 20
56.93196839037682
 30
0.0
 40
0.4000000000004038
100
AcDbArc
 50
182.9999999675219
 51
272.9999999674439
  0
LINE
  5
D74
330
2
100
AcDbEntity
  8
0
  6
Continuous
 62
     7
100
AcDbLine
 10
2237.50408376473
 20
57.31679800242909
 30
0.0
 11
2237.509317360125
 21
56.91103400810698
 31
0.0
  0
LINE
  5
D75
330
2
100
AcDbEntity
  8
0
  6
Continuous
 62
     7
100
AcDbLine
 10
2234.508195160377
 20
57.15979013540255
 30
0.0
 11
2237.50408376473
 21
57.31679800242909
 31
0.0
  0
LINE
  5
D76
330
2
100
AcDbEntity
  8
0
  6
Continuous
 62
     7
100
AcDbLine
 10
2234.497727969243
 20
57.35951604236015
 30
0.0
 11
2234.508195160377
 21
57.15979013540255
 31
0.0
  0
LINE
  5
D77
330
2
100
AcDbEntity
  8
0
  6
Continuous
 62
     7
100
AcDbLine
 10
2231.501839364891
 20
57.20250817533496
 30
0.0
 11
2234.497727969243
 21
57.35951604236015
 31
0.0
  0
LINE
  5
D78
330
2
100
AcDbEntity
  8
0
  6
Continuous
 62
     7
100
AcDbLine
 10
2231.512306556025
 20
57.00278226837781
 30
0.0
 11
2231.501839364891
 21
57.20250817533496
 31
0.0
  0
LINE
  5
D79
330
2
100
AcDbEntity
  8
0
  6
Continuous
 62
     7
100
AcDbLine
 10
2230.413814067762
 20
56.94521271713483
 30
0.0
 11
2231.512306556025
 21
57.00278226837781
 31
0.0
  0
ARC
  5
D7A
330
2
100
AcDbEntity
  8
0
  6
Continuous
 62
     7
100
AcDbCircle
 10
2230.392879685493
 20
57.34466453104869
 30
0.0
 40
0.3999999999994703
100
AcDbArc
 50
182.9999999674179
 51
272.9999999674439
  0
LINE
  5
D7B
330
2
100
AcDbEntity
  8
0
  6
Continuous
 62
     7
100
AcDbLine
 10
2229.962026298174
 20
57.92290786964895
 30
0.0
 11
2229.993427871578
 21
57.32373014877885
 31
0.0
  0
LINE
  5
D7C
330
2
100
AcDbEntity
  8
0
  6
Continuous
 62
     7
100
AcDbLine
 10
2240.973354792678
 20
58.49998713672448
 30
0.0
 11
2229.962026298174
 21
57.92290786964895
 31
0.0
  0
LINE
  5
D7D
330
2
100
AcDbEntity
  8
0
  6
Continuous
 62
     7
100
AcDbLine
 10
1710.500048460044
 20
46.99998715588662
 30
0.0
 11
1705.000048459511
 21
46.99998715588662
 31
0.0
  0
LINE
  5
D7E
330
2
100
AcDbEntity
  8
0
  6
Continuous
 62
     7
100
AcDbLine
 10
1697.000048459511
 20
46.99998715588617
 30
0.0
 11
1691.500048460042
 21
46.9999871558848
 31
0.0
  0
LINE
  5
D7F
330
2
100
AcDbEntity
  8
0
  6
Continuous
 62
     7
100
AcDbLine
 10
1691.000048460113
 20
46.9999871552518
 30
0.0
 11
1697.000048459511
 21
46.99998715563288
 31
0.0
  0
LINE
  5
D80
330
2
100
AcDbEntity
  8
0
  6
Continuous
 62
     7
100
AcDbLine
 10
1705.000048459511
 20
46.99998715613992
 30
0.0
 11
1711.00004846011
 21
46.99998715652054
 31
0.0
  0
LINE
  5
D81
330
2
100
AcDbEntity
  8
0
  6
Continuous
 62
     7
100
AcDbLine
 10
1687.000048459507
 20
56.99998715462334
 30
0.0
 11
1689.056785331577
 21
56.99998715462334
 31
0.0
  0
LINE
  5
D82
330
2
100
AcDbEntity
  8
0
  6
Continuous
 62
     7
100
AcDbLine
 10
1689.056785331577
 20
56.99998715462334
 30
0.0
 11
1691.914798525862
 21
56.99998715462334
 31
0.0
  0
LINE
  5
D83
330
2
100
AcDbEntity
  8
0
  6
Continuous
 62
     7
100
AcDbLine
 10
1691.914798525862
 20
56.99998715462334
 30
0.0
 11
1692.188590453332
 21
56.99998715462334
 31
0.0
  0
LINE
  5
D84
330
2
100
AcDbEntity
  8
0
  6
Continuous
 62
     7
100
AcDbLine
 10
1692.188590453332
 20
56.99998715462334
 30
0.0
 11
1693.615120721769
 21
56.99998715462379
 31
0.0
  0
LINE
  5
D85
330
2
100
AcDbEntity
  8
0
  6
Continuous
 62
     7
100
AcDbLine
 10
1693.615120721769
 20
56.99998715462379
 30
0.0
 11
1695.762320275904
 21
56.99998715462379
 31
0.0
  0
LINE
  5
D86
330
2
100
AcDbEntity
  8
0
  6
Continuous
 62
     7
100
AcDbLine
 10
1695.762320275904
 20
56.99998715462379
 30
0.0
 11
1697.122834878905
 21
56.99998715462379
 31
0.0
  0
LINE
  5
D87
330
2
100
AcDbEntity
  8
0
  6
Continuous
 62
     7
100
AcDbLine
 10
1700.877262039869
 20
56.99998715462516
 30
0.0
 11
1705.852437274141
 21
56.99998715462516
 31
0.0
  0
LINE
  5
D88
330
2
100
AcDbEntity
  8
0
  6
Continuous
 62
     7
100
AcDbLine
 10
1705.852437274141
 20
56.99998715462516
 30
0.0
 11
1706.381889224338
 21
56.99998715462516
 31
0.0
  0
LINE
  5
D89
330
2
100
AcDbEntity
  8
0
  6
Continuous
 62
     7
100
AcDbLine
 10
1706.381889224338
 20
56.99998715462516
 30
0.0
 11
1707.137973710349
 21
56.99998715462516
 31
0.0
  0
LINE
  5
D8A
330
2
100
AcDbEntity
  8
0
  6
Continuous
 62
     7
100
AcDbLine
 10
1707.137973710349
 20
56.99998715462516
 30
0.0
 11
1707.379374439488
 21
56.99998715462516
 31
0.0
  0
LINE
  5
D8B
330
2
100
AcDbEntity
  8
0
  6
Continuous
 62
     7
100
AcDbLine
 10
1707.379374439488
 20
56.99998715462516
 30
0.0
 11
1707.615300259673
 21
56.99998715462516
 31
0.0
  0
LINE
  5
D8C
330
2
100
AcDbEntity
  8
0
  6
Continuous
 62
     7
100
AcDbLine
 10
1707.615300259673
 20
56.99998715462516
 30
0.0
 11
1707.845678379781
 21
56.99998715462516
 31
0.0
  0
LINE
  5
D8D
330
2
100
AcDbEntity
  8
0
  6
Continuous
 62
     7
100
AcDbLine
 10
1707.845678379781
 20
56.99998715462516
 30
0.0
 11
1708.302507623588
 21
56.99998715462516
 31
0.0
  0
LINE
  5
D8E
330
2
100
AcDbEntity
  8
0
  6
Continuous
 62
     7
100
AcDbLine
 10
1708.302507623588
 20
56.99998715462516
 30
0.0
 11
1711.000048459509
 21
56.99998715462561
 31
0.0
  0
LINE
  5
D8F
330
2
100
AcDbEntity
  8
0
  6
Continuous
 62
     7
100
AcDbLine
 10
1688.500048459513
 20
25.53588553948884
 30
0.0
 11
1713.500048459515
 21
25.53588553949294
 31
0.0
  0
LINE
  5
D90
330
2
100
AcDbEntity
  8
0
  6
Continuous
 62
     7
100
AcDbLine
 10
1688.500048459513
 20
26.49998715462698
 30
0.0
 11
1713.500048459515
 21
26.49998715463107
 31
0.0
  0
LINE
  5
D91
330
2
100
AcDbEntity
  8
0
  6
Continuous
 62
     7
100
AcDbLine
 10
1690.500048459515
 20
24.99998715462698
 30
0.0
 11
1711.500048459515
 21
24.99998715462971
 31
0.0
  0
LINE
  5
D92
330
2
100
AcDbEntity
  8
0
  6
Continuous
 62
     7
100
AcDbLine
 10
1686.800048459508
 20
62.99998715462334
 30
0.0
 11
1711.200048459508
 21
62.99998715462698
 31
0.0
  0
LINE
  5
D93
330
2
100
AcDbEntity
  8
0
  6
Continuous
 62
     7
100
AcDbLine
 10
1711.500048459507
 20
62.69998715462543
 30
0.0
 11
1686.500048459509
 21
62.69998715462316
 31
0.0
  0
LINE
  5
D94
330
2
100
AcDbEntity
  8
0
  6
Continuous
 62
     7
100
AcDbLine
 10
1711.500048459507
 20
56.99998715462561
 30
0.0
 11
1686.500048459509
 21
56.99998715462197
 31
0.0
  0
LINE
  5
D95
330
2
100
AcDbEntity
  8
0
  6
Continuous
 62
     9
100
AcDbLine
 10
1713.500048459513
 20
42.49998715463107
 30
0.0
 11
1688.500048459513
 21
42.49998715462697
 31
0.0
  0
LINE
  5
D96
330
2
100
AcDbEntity
  8
0
  6
Continuous
 62
     7
100
AcDbLine
 10
1689.000048459513
 20
42.99998715462698
 30
0.0
 11
1713.000048459511
 21
42.99998715462971
 31
0.0
  0
LINE
  5
D97
330
2
100
AcDbEntity
  8
0
  6
Continuous
 62
     7
100
AcDbLine
 10
1688.500048459513
 20
40.14998715462661
 30
0.0
 11
1693.048781711106
 21
40.14998715462661
 31
0.0
  0
LINE
  5
D98
330
2
100
AcDbEntity
  8
0
  6
Continuous
 62
     7
100
AcDbLine
 10
1693.048781711106
 20
40.14998715462661
 30
0.0
 11
1713.500048459513
 21
40.14998715463116
 31
0.0
  0
LINE
  5
D99
330
2
100
AcDbEntity
  8
0
  6
Continuous
 62
     7
100
AcDbLine
 10
1713.500048459515
 20
29.84998715463098
 30
0.0
 11
1688.500048459513
 21
29.84998715462689
 31
0.0
  0
LINE
  5
D9A
330
2
100
AcDbEntity
  8
0
  6
Continuous
 62
     9
100
AcDbLine
 10
1688.500048459513
 20
27.49998715462698
 30
0.0
 11
1693.048781711108
 21
27.49998715462789
 31
0.0
  0
LINE
  5
D9B
330
2
100
AcDbEntity
  8
0
  6
Continuous
 62
     9
100
AcDbLine
 10
1693.048781711108
 20
27.49998715462789
 30
0.0
 11
1713.500048459515
 21
27.49998715462971
 31
0.0
  0
LINE
  5
D9C
330
2
100
AcDbEntity
  8
0
  6
Continuous
 62
     7
100
AcDbLine
 10
1713.000048459514
 20
26.99998715462971
 30
0.0
 11
1693.366832381045
 21
26.99998715462789
 31
0.0
  0
LINE
  5
D9D
330
2
100
AcDbEntity
  8
0
  6
Continuous
 62
     7
100
AcDbLine
 10
1693.366832381045
 20
26.99998715462789
 30
0.0
 11
1689.000048459515
 21
26.99998715462698
 31
0.0
  0
LINE
  5
D9E
330
2
100
AcDbEntity
  8
0
  6
Continuous
 62
     9
100
AcDbLine
 10
1711.000048459513
 20
38.6499871546298
 30
0.0
 11
1694.63903506079
 21
38.64998715462798
 31
0.0
  0
LINE
  5
D9F
330
2
100
AcDbEntity
  8
0
  6
Continuous
 62
     9
100
AcDbLine
 10
1694.63903506079
 20
38.64998715462798
 30
0.0
 11
1691.000048459513
 21
38.64998715462661
 31
0.0
  0
LINE
  5
DA0
330
2
100
AcDbEntity
  8
0
  6
Continuous
 62
     9
100
AcDbLine
 10
1711.000048459515
 20
31.34998715463007
 30
0.0
 11
1694.63903506079
 21
31.3499871546278
 31
0.0
  0
LINE
  5
DA1
330
2
100
AcDbEntity
  8
0
  6
Continuous
 62
     9
100
AcDbLine
 10
1694.63903506079
 20
31.3499871546278
 30
0.0
 11
1691.000048459513
 21
31.34998715462689
 31
0.0
  0
LINE
  5
DA2
330
2
100
AcDbEntity
  8
0
  6
Continuous
 62
     7
100
AcDbLine
 10
1713.500048459513
 20
46.99998715463107
 30
0.0
 11
1688.500048459513
 21
46.99998715462697
 31
0.0
  0
LINE
  5
DA3
330
2
100
AcDbEntity
  8
0
  6
Continuous
 62
     7
100
AcDbLine
 10
1713.500048459513
 20
43.4999871546297
 30
0.0
 11
1688.500048459513
 21
43.49998715462698
 31
0.0
  0
LINE
  5
DA4
330
2
100
AcDbEntity
  8
0
  6
Continuous
 62
     9
100
AcDbLine
 10
1707.000048459511
 20
42.99998715462879
 30
0.0
 11
1704.590046864892
 21
42.99998715462879
 31
0.0
  0
LINE
  5
DA5
330
2
100
AcDbEntity
  8
0
  6
Continuous
 62
     9
100
AcDbLine
 10
1697.285534555564
 20
42.99998715462789
 30
0.0
 11
1695.000048459513
 21
42.99998715462789
 31
0.0
  0
LINE
  5
DA6
330
2
100
AcDbEntity
  8
0
  6
Continuous
 62
     7
100
AcDbLine
 10
2152.500048460042
 20
46.99998715594984
 30
0.0
 11
2147.000048459512
 21
46.99998715594893
 31
0.0
  0
LINE
  5
DA7
330
2
100
AcDbEntity
  8
0
  6
Continuous
 62
     7
100
AcDbLine
 10
2139.00004845951
 20
46.99998715594893
 30
0.0
 11
2133.500048460044
 21
46.99998715594711
 31
0.0
  0
LINE
  5
DA8
330
2
100
AcDbEntity
  8
0
  6
Continuous
 62
     7
100
AcDbLine
 10
2133.000048460111
 20
46.9999871553141
 30
0.0
 11
2139.00004845951
 21
46.99998715569472
 31
0.0
  0
LINE
  5
DA9
330
2
100
AcDbEntity
  8
0
  6
Continuous
 62
     7
100
AcDbLine
 10
2147.000048459512
 20
46.99998715620222
 30
0.0
 11
2153.000048460111
 21
46.99998715658284
 31
0.0
  0
LINE
  5
DAA
330
2
100
AcDbEntity
  8
0
  6
Continuous
 62
     7
100
AcDbLine
 10
2129.000048459511
 20
56.99998715468473
 30
0.0
 11
2132.600731085652
 21
56.99998715468609
 31
0.0
  0
LINE
  5
DAB
330
2
100
AcDbEntity
  8
0
  6
Continuous
 62
     7
100
AcDbLine
 10
2132.600731085652
 20
56.99998715468609
 30
0.0
 11
2133.644949885812
 21
56.99998715468609
 31
0.0
  0
LINE
  5
DAC
330
2
100
AcDbEntity
  8
0
  6
Continuous
 62
     7
100
AcDbLine
 10
2133.644949885812
 20
56.99998715468609
 30
0.0
 11
2139.122834878904
 21
56.99998715468655
 31
0.0
  0
LINE
  5
DAD
330
2
100
AcDbEntity
  8
0
  6
Continuous
 62
     7
100
AcDbLine
 10
2142.877262039869
 20
56.99998715468791
 30
0.0
 11
2145.481598422306
 21
56.99998715468791
 31
0.0
  0
LINE
  5
DAE
330
2
100
AcDbEntity
  8
0
  6
Continuous
 62
     7
100
AcDbLine
 10
2145.481598422306
 20
56.99998715468791
 30
0.0
 11
2146.67767571969
 21
56.99998715468791
 31
0.0
  0
LINE
  5
DAF
330
2
100
AcDbEntity
  8
0
  6
Continuous
 62
     7
100
AcDbLine
 10
2146.67767571969
 20
56.99998715468791
 30
0.0
 11
2147.81150621906
 21
56.99998715468791
 31
0.0
  0
LINE
  5
DB0
330
2
100
AcDbEntity
  8
0
  6
Continuous
 62
     7
100
AcDbLine
 10
2147.81150621906
 20
56.99998715468791
 30
0.0
 11
2150.342044471488
 21
56.99998715468928
 31
0.0
  0
LINE
  5
DB1
330
2
100
AcDbEntity
  8
0
  6
Continuous
 62
     7
100
AcDbLine
 10
2150.342044471488
 20
56.99998715468928
 30
0.0
 11
2153.000048459509
 21
56.99998715468928
 31
0.0
  0
LINE
  5
DB2
330
2
100
AcDbEntity
  8
0
  6
Continuous
 62
     7
100
AcDbLine
 10
2130.500048459513
 20
25.5358855395516
 30
0.0
 11
2155.500048459513
 21
25.53588553955478
 31
0.0
  0
LINE
  5
DB3
330
2
100
AcDbEntity
  8
0
  6
Continuous
 62
     7
100
AcDbLine
 10
2130.500048459513
 20
26.49998715468928
 30
0.0
 11
2155.500048459513
 21
26.49998715469292
 31
0.0
  0
LINE
  5
DB4
330
2
100
AcDbEntity
  8
0
  6
Continuous
 62
     7
100
AcDbLine
 10
2132.500048459514
 20
24.99998715468974
 30
0.0
 11
2153.500048459513
 21
24.99998715469292
 31
0.0
  0
LINE
  5
DB5
330
2
100
AcDbEntity
  8
0
  6
Continuous
 62
     7
100
AcDbLine
 10
2128.800048459509
 20
62.9999871546861
 30
0.0
 11
2153.200048459509
 21
62.99998715468928
 31
0.0
  0
LINE
  5
DB6
330
2
100
AcDbEntity
  8
0
  6
Continuous
 62
     7
100
AcDbLine
 10
2153.500048459509
 20
62.6999871546891
 30
0.0
 11
2128.50004845951
 21
62.699987154685
 31
0.0
  0
LINE
  5
DB7
330
2
100
AcDbEntity
  8
0
  6
Continuous
 62
     7
100
AcDbLine
 10
2153.50004845951
 20
56.99998715468928
 30
0.0
 11
2128.50004845951
 21
56.99998715468473
 31
0.0
  0
LINE
  5
DB8
330
2
100
AcDbEntity
  8
0
  6
Continuous
 62
     9
100
AcDbLine
 10
2155.500048459512
 20
42.49998715469291
 30
0.0
 11
2130.500048459513
 21
42.49998715468928
 31
0.0
  0
LINE
  5
DB9
330
2
100
AcDbEntity
  8
0
  6
Continuous
 62
     7
100
AcDbLine
 10
2131.000048459512
 20
42.99998715468973
 30
0.0
 11
2155.00004845951
 21
42.99998715469292
 31
0.0
  0
LINE
  5
DBA
330
2
100
AcDbEntity
  8
0
  6
Continuous
 62
     7
100
AcDbLine
 10
2130.500048459513
 20
40.14998715468983
 30
0.0
 11
2135.048781711106
 21
40.14998715468983
 31
0.0
  0
LINE
  5
DBB
330
2
100
AcDbEntity
  8
0
  6
Continuous
 62
     7
100
AcDbLine
 10
2135.048781711106
 20
40.14998715468983
 30
0.0
 11
2155.500048459512
 21
40.14998715469255
 31
0.0
  0
LINE
  5
DBC
330
2
100
AcDbEntity
  8
0
  6
Continuous
 62
     7
100
AcDbLine
 10
2155.500048459513
 20
29.84998715469283
 30
0.0
 11
2130.500048459513
 21
29.84998715468919
 31
0.0
  0
LINE
  5
DBD
330
2
100
AcDbEntity
  8
0
  6
Continuous
 62
     9
100
AcDbLine
 10
2130.500048459513
 20
27.49998715468974
 30
0.0
 11
2135.048781711109
 21
27.49998715468974
 31
0.0
  0
LINE
  5
DBE
330
2
100
AcDbEntity
  8
0
  6
Continuous
 62
     9
100
AcDbLine
 10
2135.048781711109
 20
27.49998715468974
 30
0.0
 11
2155.500048459513
 21
27.49998715469292
 31
0.0
  0
LINE
  5
DBF
330
2
100
AcDbEntity
  8
0
  6
Continuous
 62
     7
100
AcDbLine
 10
2155.000048459513
 20
26.99998715469292
 30
0.0
 11
2135.366832381045
 21
26.99998715468974
 31
0.0
  0
LINE
  5
DC0
330
2
100
AcDbEntity
  8
0
  6
Continuous
 62
     7
100
AcDbLine
 10
2135.366832381045
 20
26.99998715468974
 30
0.0
 11
2131.000048459513
 21
26.99998715468974
 31
0.0
  0
LINE
  5
DC1
330
2
100
AcDbEntity
  8
0
  6
Continuous
 62
     9
100
AcDbLine
 10
2153.000048459513
 20
38.64998715469255
 30
0.0
 11
2136.639035060787
 21
38.64998715468983
 31
0.0
  0
LINE
  5
DC2
330
2
100
AcDbEntity
  8
0
  6
Continuous
 62
     9
100
AcDbLine
 10
2136.639035060787
 20
38.64998715469074
 30
0.0
 11
2133.000048459511
 21
38.64998715468983
 31
0.0
  0
LINE
  5
DC3
330
2
100
AcDbEntity
  8
0
  6
Continuous
 62
     9
100
AcDbLine
 10
2153.000048459513
 20
31.34998715469192
 30
0.0
 11
2136.63903506079
 21
31.34998715469101
 31
0.0
  0
LINE
  5
DC4
330
2
100
AcDbEntity
  8
0
  6
Continuous
 62
     9
100
AcDbLine
 10
2136.63903506079
 20
31.34998715469101
 30
0.0
 11
2133.000048459512
 21
31.34998715468964
 31
0.0
  0
LINE
  5
DC5
330
2
100
AcDbEntity
  8
0
  6
Continuous
 62
     7
100
AcDbLine
 10
2155.50004845951
 20
46.99998715469291
 30
0.0
 11
2130.50004845951
 21
46.99998715468928
 31
0.0
  0
LINE
  5
DC6
330
2
100
AcDbEntity
  8
0
  6
Continuous
 62
     7
100
AcDbLine
 10
2155.50004845951
 20
43.49998715469292
 30
0.0
 11
2130.50004845951
 21
43.49998715468973
 31
0.0
  0
LINE
  5
DC7
330
2
100
AcDbEntity
  8
0
  6
Continuous
 62
     9
100
AcDbLine
 10
2149.000048459511
 20
42.999987154692
 30
0.0
 11
2147.613139818756
 21
42.999987154692
 31
0.0
  0
LINE
  5
DC8
330
2
100
AcDbEntity
  8
0
  6
Continuous
 62
     9
100
AcDbLine
 10
2147.613139818756
 20
42.999987154692
 30
0.0
 11
2146.590046864889
 21
42.999987154692
 31
0.0
  0
LINE
  5
DC9
330
2
100
AcDbEntity
  8
0
  6
Continuous
 62
     9
100
AcDbLine
 10
2139.285534555565
 20
42.99998715468973
 30
0.0
 11
2137.000048459512
 21
42.99998715468973
 31
0.0
  0
LINE
  5
DCA
330
2
100
AcDbEntity
  8
0
  6
Continuous
 62
     4
100
AcDbLine
 10
1649.000048459513
 20
55.99998715562105
 30
0.0
 11
1649.002834857521
 21
55.99998715562105
 31
0.0
  0
LINE
  5
DCB
330
2
100
AcDbEntity
  8
0
  6
Continuous
 62
     4
100
AcDbLine
 10
1649.002834857521
 20
55.99998715562105
 30
0.0
 11
1649.997262060986
 21
55.99998715562105
 31
0.0
  0
LINE
  5
DCC
330
2
100
AcDbEntity
  8
0
  6
Continuous
 62
     4
100
AcDbLine
 10
1649.997262060986
 20
55.99998715562105
 30
0.0
 11
1651.00004846251
 21
55.99998715562105
 31
0.0
  0
LINE
  5
DCD
330
2
100
AcDbEntity
  8
0
  6
Continuous
 62
     4
100
AcDbLine
 10
1651.00004846251
 20
55.99998715562105
 30
0.0
 11
1654.700048462511
 21
55.99998715562151
 31
0.0
  0
LINE
  5
DCE
330
2
100
AcDbEntity
  8
0
  6
Continuous
 62
     4
100
AcDbLine
 10
1654.700048462511
 20
55.99998715562151
 30
0.0
 11
1659.200046462511
 21
55.99998715562287
 31
0.0
  0
LINE
  5
DCF
330
2
100
AcDbEntity
  8
0
  6
Continuous
 62
     4
100
AcDbLine
 10
1659.200046462511
 20
55.99998715562287
 30
0.0
 11
1661.000046462515
 21
55.99998715562287
 31
0.0
  0
LINE
  5
DD0
330
2
100
AcDbEntity
  8
0
  6
Continuous
 62
     4
100
AcDbLine
 10
1661.000046462515
 20
55.99998715562287
 30
0.0
 11
2241.000048459513
 21
55.99998715570428
 31
0.0
  0
LINE
  5
DD1
330
2
100
AcDbEntity
  8
0
  6
Continuous
 62
     4
100
AcDbLine
 10
2241.000048459513
 20
55.99998715570428
 30
0.0
 11
2241.000048459516
 21
47.99998715570427
 31
0.0
  0
LINE
  5
DD2
330
2
100
AcDbEntity
  8
0
  6
Continuous
 62
     4
100
AcDbLine
 10
1649.000048459515
 20
47.99998715561969
 30
0.0
 11
1649.000048459515
 21
48.04998921428069
 31
0.0
  0
LINE
  5
DD3
330
2
100
AcDbEntity
  8
0
  6
Continuous
 62
     4
100
AcDbLine
 10
1649.000048459515
 20
48.04998921428069
 30
0.0
 11
1649.000048459513
 21
55.94883839671684
 31
0.0
  0
LINE
  5
DD4
330
2
100
AcDbEntity
  8
0
  6
Continuous
 62
     4
100
AcDbLine
 10
1649.000048459513
 20
55.94883839671684
 30
0.0
 11
1649.000048459513
 21
55.94998721428374
 31
0.0
  0
LINE
  5
DD5
330
2
100
AcDbEntity
  8
0
  6
Continuous
 62
     4
100
AcDbLine
 10
1649.000048459513
 20
55.94998721428374
 30
0.0
 11
1649.000048459513
 21
55.99998715562105
 31
0.0
  0
LINE
  5
DD6
330
2
100
AcDbEntity
  8
0
  6
Continuous
 62
     4
100
AcDbLine
 10
2241.000048459516
 20
47.99998715570427
 30
0.0
 11
1661.00004599406
 21
47.99998715562288
 31
0.0
  0
LINE
  5
DD7
330
2
100
AcDbEntity
  8
0
  6
Continuous
 62
     4
100
AcDbLine
 10
1661.00004599406
 20
47.99998715562288
 30
0.0
 11
1659.200045994057
 21
47.99998715562288
 31
0.0
  0
LINE
  5
DD8
330
2
100
AcDbEntity
  8
0
  6
Continuous
 62
     4
100
AcDbLine
 10
1659.200045994057
 20
47.99998715562288
 30
0.0
 11
1654.700047994058
 21
47.99998715562151
 31
0.0
  0
LINE
  5
DD9
330
2
100
AcDbEntity
  8
0
  6
Continuous
 62
     4
100
AcDbLine
 10
1654.700047994058
 20
47.99998715562151
 30
0.0
 11
1651.000047994057
 21
47.99998715562105
 31
0.0
  0
LINE
  5
DDA
330
2
100
AcDbEntity
  8
0
  6
Continuous
 62
     4
100
AcDbLine
 10
1651.000047994057
 20
47.99998715562105
 30
0.0
 11
1649.997261362967
 21
47.99998715562105
 31
0.0
  0
LINE
  5
DDB
330
2
100
AcDbEntity
  8
0
  6
Continuous
 62
     4
100
AcDbLine
 10
1649.997261362967
 20
47.99998715562105
 30
0.0
 11
1649.002834631654
 21
47.99998715561969
 31
0.0
  0
LINE
  5
DDC
330
2
100
AcDbEntity
  8
0
  6
Continuous
 62
     4
100
AcDbLine
 10
1649.002834631654
 20
47.99998715561969
 30
0.0
 11
1649.000048459515
 21
47.99998715561969
 31
0.0
  0
LINE
  5
DDD
330
2
100
AcDbEntity
  8
0
  6
Continuous
 62
     7
100
AcDbLine
 10
2268.000048475684
 20
12.99998715282527
 30
0.0
 11
2244.000048475685
 21
12.99998715514493
 31
0.0
  0
LINE
  5
DDE
330
2
100
AcDbEntity
  8
0
  6
Continuous
 62
     7
100
AcDbLine
 10
2246.500059601663
 20
22.99998715367156
 30
0.0
 11
2246.619294655748
 21
22.99998715367565
 31
0.0
  0
LINE
  5
DDF
330
2
100
AcDbEntity
  8
0
  6
Continuous
 62
     7
100
AcDbLine
 10
2247.136255182217
 20
22.99998715369156
 30
0.0
 11
2255.748697564111
 21
22.99998715397305
 31
0.0
  0
LINE
  5
DE0
330
2
100
AcDbEntity
  8
0
  6
Continuous
 62
     7
100
AcDbLine
 10
2255.748697564111
 20
22.99998715397305
 30
0.0
 11
2261.931953896255
 21
22.99998715417405
 31
0.0
  0
LINE
  5
DE1
330
2
100
AcDbEntity
  8
0
  6
Continuous
 62
     7
100
AcDbLine
 10
2261.931953896255
 20
22.99998715417405
 30
0.0
 11
2263.466150918121
 21
22.99998715422453
 31
0.0
  0
LINE
  5
DE2
330
2
100
AcDbEntity
  8
0
  6
Continuous
 62
     7
100
AcDbLine
 10
2263.466150918121
 20
22.99998715422453
 30
0.0
 11
2265.500048476008
 21
22.99998715429092
 31
0.0
  0
LINE
  5
DE3
330
2
100
AcDbEntity
  8
0
  6
Continuous
 62
     7
100
AcDbLine
 10
2246.000060187471
 20
22.99998715302991
 30
0.0
 11
2266.000048476008
 21
22.99998715493257
 31
0.0
  0
LINE
  5
DE4
330
2
100
AcDbEntity
  8
0
  6
Continuous
 62
     7
100
AcDbLine
 10
2244.000062529224
 20
12.99998715436868
 30
0.0
 11
2268.000048475741
 21
12.9999871535997
 31
0.0
  0
LINE
  5
DE5
330
2
100
AcDbEntity
  8
0
  6
Continuous
 62
     7
100
AcDbLine
 10
2243.500048473598
 20
6.299987155174676
 30
0.0
 11
2268.500048473597
 21
6.299987152794528
 31
0.0
  0
LINE
  5
DE6
330
2
100
AcDbEntity
  8
0
  6
Continuous
 62
     7
100
AcDbLine
 10
2268.200048473568
 20
5.999987152823905
 30
0.0
 11
2243.800048473568
 21
5.99998715514539
 31
0.0
  0
LINE
  5
DE7
330
2
100
AcDbEntity
  8
0
  6
Continuous
 62
     7
100
AcDbLine
 10
2243.500048474141
 20
11.99998715517358
 30
0.0
 11
2268.500048474139
 21
11.99998715279434
 31
0.0
  0
LINE
  5
DE8
330
2
100
AcDbEntity
  8
0
  6
Continuous
 62
     7
100
AcDbLine
 10
2768.000048478333
 20
12.99998715396714
 30
0.0
 11
2744.000048478332
 21
12.99998715400306
 31
0.0
  0
LINE
  5
DE9
330
2
100
AcDbEntity
  8
0
  6
Continuous
 62
     7
100
AcDbLine
 10
2746.500048570044
 20
22.99998715276752
 30
0.0
 11
2746.61721654016
 21
22.99998715278298
 31
0.0
  0
LINE
  5
DEA
330
2
100
AcDbEntity
  8
0
  6
Continuous
 62
     7
100
AcDbLine
 10
2747.1315091922
 20
22.99998715284755
 30
0.0
 11
2755.734576936467
 21
22.99998715394668
 31
0.0
  0
LINE
  5
DEB
330
2
100
AcDbEntity
  8
0
  6
Continuous
 62
     7
100
AcDbLine
 10
2755.734576936467
 20
22.99998715394668
 30
0.0
 11
2761.499533712365
 21
22.99998715468337
 31
0.0
  0
LINE
  5
DEC
330
2
100
AcDbEntity
  8
0
  6
Continuous
 62
     7
100
AcDbLine
 10
2761.499533712365
 20
22.99998715468337
 30
0.0
 11
2765.500048477706
 21
22.9999871551945
 31
0.0
  0
LINE
  5
DED
330
2
100
AcDbEntity
  8
0
  6
Continuous
 62
     7
100
AcDbLine
 10
2746.000048574927
 20
22.99998715207676
 30
0.0
 11
2766.000048477706
 21
22.99998715588481
 31
0.0
  0
LINE
  5
DEE
330
2
100
AcDbEntity
  8
0
  6
Continuous
 62
     7
100
AcDbLine
 10
2744.000048595051
 20
12.99998715322681
 30
0.0
 11
2768.00004847839
 21
12.99998715474294
 31
0.0
  0
LINE
  5
DEF
330
2
100
AcDbEntity
  8
0
  6
Continuous
 62
     7
100
AcDbLine
 10
2743.500048476886
 20
6.299987153985966
 30
0.0
 11
2768.500048476886
 21
6.299987153985966
 31
0.0
  0
LINE
  5
DF0
330
2
100
AcDbEntity
  8
0
  6
Continuous
 62
     7
100
AcDbLine
 10
2768.200048476886
 20
5.999987153984875
 30
0.0
 11
2743.800048476887
 21
5.999987153984875
 31
0.0
  0
LINE
  5
DF1
330
2
100
AcDbEntity
  8
0
  6
Continuous
 62
     7
100
AcDbLine
 10
2743.500048476886
 20
11.99998715398487
 30
0.0
 11
2768.500048476886
 21
11.99998715398487
 31
0.0
  0
LINE
  5
DF2
330
2
100
AcDbEntity
  8
0
  6
Continuous
 62
     7
100
AcDbLine
 10
2778.000048474961
 20
29.99998720148733
 30
0.0
 11
2700.000048459263
 21
29.99998720401163
 31
0.0
  0
LINE
  5
DF3
330
2
100
AcDbEntity
  8
0
  6
Continuous
 62
     7
100
AcDbLine
 10
2680.000048459352
 20
29.99998720465965
 30
0.0
 11
2242.000048471092
 21
29.99998721884003
 31
0.0
  0
LINE
  5
DF4
330
2
100
AcDbEntity
  8
0
  6
Continuous
 62
     7
100
AcDbLine
 10
2241.298125392586
 20
29.99998721886186
 30
0.0
 11
2153.846213479643
 21
29.99998722169266
 31
0.0
  0
LINE
  5
DF5
330
2
100
AcDbEntity
  8
0
  6
Continuous
 62
     7
100
AcDbLine
 10
2132.153883440838
 20
29.99998722239616
 30
0.0
 11
1711.846213449971
 21
29.99998723600311
 31
0.0
  0
LINE
  5
DF6
330
2
100
AcDbEntity
  8
0
  6
Continuous
 62
     7
100
AcDbLine
 10
1690.153883470509
 20
29.99998723670524
 30
0.0
 11
1647.000048459107
 21
29.99998723810222
 31
0.0
  0
LINE
  5
DF7
330
2
100
AcDbEntity
  8
0
  6
Continuous
 62
     7
100
AcDbLine
 10
1644.000048475804
 20
32.49998723828412
 30
0.0
 11
1644.000048475724
 21
29.99998723819863
 31
0.0
  0
LINE
  5
DF8
330
2
100
AcDbEntity
  8
0
  6
Continuous
 62
     9
100
AcDbLine
 10
1644.000048475789
 20
32.49998723828412
 30
0.0
 11
1691.000048459509
 21
32.49998723676072
 31
0.0
  0
LINE
  5
DF9
330
2
100
AcDbEntity
  8
0
  6
Continuous
 62
     9
100
AcDbLine
 10
1711.000048459515
 20
32.49998723611361
 30
0.0
 11
2133.000048459518
 21
32.49998722245209
 31
0.0
  0
LINE
  5
DFA
330
2
100
AcDbEntity
  8
0
  6
Continuous
 62
     9
100
AcDbLine
 10
2153.000048459508
 20
32.49998722180499
 30
0.0
 11
2241.25004847093
 21
32.49998721894826
 31
0.0
  0
LINE
  5
DFB
330
2
100
AcDbEntity
  8
0
  6
Continuous
 62
     9
100
AcDbLine
 10
2242.000048472513
 20
32.49998721892371
 30
0.0
 11
2680.000048459184
 21
32.49998720474378
 31
0.0
  0
LINE
  5
DFC
330
2
100
AcDbEntity
  8
0
  6
Continuous
 62
     9
100
AcDbLine
 10
2700.000048459185
 20
32.49998720409576
 30
0.0
 11
2778.000048474725
 21
32.49998720157055
 31
0.0
  0
LINE
  5
DFD
330
2
100
AcDbEntity
  8
0
  6
Continuous
 62
     9
100
AcDbLine
 10
2778.000048474251
 20
37.49998720157191
 30
0.0
 11
2700.000048459028
 21
37.49998720409712
 31
0.0
  0
LINE
  5
DFE
330
2
100
AcDbEntity
  8
0
  6
Continuous
 62
     9
100
AcDbLine
 10
2675.566011288329
 20
37.49998720488702
 30
0.0
 11
2242.000048475357
 21
37.49998721892325
 31
0.0
  0
LINE
  5
DFF
330
2
100
AcDbEntity
  8
0
  6
Continuous
 62
     9
100
AcDbLine
 10
2241.15389462762
 20
37.49998721895099
 30
0.0
 11
2153.000048459507
 21
37.49998722180499
 31
0.0
  0
LINE
  5
E00
330
2
100
AcDbEntity
  8
0
  6
Continuous
 62
     9
100
AcDbLine
 10
2133.000048459518
 20
37.49998722245255
 30
0.0
 11
1711.000048459515
 21
37.49998723611361
 31
0.0
  0
LINE
  5
E01
330
2
100
AcDbEntity
  8
0
  6
Continuous
 62
     9
100
AcDbLine
 10
1691.000048459509
 20
37.49998723676163
 30
0.0
 11
1644.000048475951
 21
37.49998723828276
 31
0.0
  0
LINE
  5
E02
330
2
100
AcDbEntity
  8
0
  6
Continuous
 62
     7
100
AcDbLine
 10
1644.000048475789
 20
32.49998723828412
 30
0.0
 11
1644.000048475951
 21
37.49998723828276
 31
0.0
  0
LINE
  5
E03
330
2
100
AcDbEntity
  8
0
  6
Continuous
 62
     7
100
AcDbLine
 10
1644.000048476047
 20
39.99998723819999
 30
0.0
 11
1644.000048475966
 21
37.49998723828276
 31
0.0
  0
LINE
  5
E04
330
2
100
AcDbEntity
  8
0
  6
Continuous
 62
     7
100
AcDbLine
 10
1647.000048459962
 20
39.99998723810222
 30
0.0
 11
1690.153883131572
 21
39.99998723670524
 31
0.0
  0
LINE
  5
E05
330
2
100
AcDbEntity
  8
0
  6
Continuous
 62
     7
100
AcDbLine
 10
1711.846213785997
 20
39.99998723600311
 30
0.0
 11
2132.153883161246
 21
39.99998722239616
 31
0.0
  0
LINE
  5
E06
330
2
100
AcDbEntity
  8
0
  6
Continuous
 62
     7
100
AcDbLine
 10
2153.846213756319
 20
39.99998722169403
 30
0.0
 11
2241.105817705967
 21
39.99998721886823
 31
0.0
  0
LINE
  5
E07
330
2
100
AcDbEntity
  8
0
  6
Continuous
 62
     7
100
AcDbLine
 10
2242.000048476779
 20
39.99998721884003
 30
0.0
 11
2680.000048458949
 21
39.99998720465965
 31
0.0
  0
LINE
  5
E08
330
2
100
AcDbEntity
  8
0
  6
Continuous
 62
     7
100
AcDbLine
 10
2700.000048458948
 20
39.99998720401163
 30
0.0
 11
2778.000048474014
 21
39.99998720148733
 31
0.0
  0
LINE
  5
E09
330
2
100
AcDbEntity
  8
0
  6
Continuous
 62
     9
100
AcDbLine
 10
2187.000048460024
 20
40.99998707024451
 30
0.0
 11
2155.500048459506
 21
40.99998707222858
 31
0.0
  0
LINE
  5
E0A
330
2
100
AcDbEntity
  8
0
  6
Continuous
 62
     9
100
AcDbLine
 10
2130.500048459518
 20
40.99998707380291
 30
0.0
 11
1713.500048459515
 21
40.99998710005775
 31
0.0
  0
LINE
  5
E0B
330
2
100
AcDbEntity
  8
0
  6
Continuous
 62
     7
100
AcDbLine
 10
2187.000048460423
 20
43.49998707040549
 30
0.0
 11
2155.500048459508
 21
43.49998711353964
 31
0.0
  0
LINE
  5
E0C
330
2
100
AcDbEntity
  8
0
  6
Continuous
 62
     7
100
AcDbLine
 10
2130.500048459513
 20
43.49998711432727
 30
0.0
 11
1713.500048459515
 21
43.49998712742444
 31
0.0
  0
LINE
  5
E0D
330
2
100
AcDbEntity
  8
0
  6
Continuous
 62
     9
100
AcDbLine
 10
2187.00004845908
 20
25.99998707024452
 30
0.0
 11
2155.500048459508
 21
25.99998707222858
 31
0.0
  0
LINE
  5
E0E
330
2
100
AcDbEntity
  8
0
  6
Continuous
 62
     9
100
AcDbLine
 10
2130.50004845952
 20
25.99998707380155
 30
0.0
 11
1713.500048459518
 21
25.99998710005775
 31
0.0
  0
LINE
  5
E0F
330
2
100
AcDbEntity
  8
0
  6
Continuous
 62
     9
100
AcDbLine
 10
1688.500048459513
 20
25.999987101633
 30
0.0
 11
1682.000048459475
 21
25.99998710204181
 31
0.0
  0
LINE
  5
E10
330
2
100
AcDbEntity
  8
0
  6
Continuous
 62
     7
100
AcDbLine
 10
2187.000048459166
 20
23.49998707040549
 30
0.0
 11
1682.000048459502
 21
23.49998710220189
 31
0.0
  0
LINE
  5
E11
330
2
100
AcDbEntity
  8
0
  6
Continuous
 62
     9
100
AcDbLine
 10
2193.000048458998
 20
11.99998708757675
 30
0.0
 11
2193.000048459126
 21
13.99998708757675
 31
0.0
  0
LINE
  5
E12
330
2
100
AcDbEntity
  8
0
  6
Continuous
 62
     7
100
AcDbLine
 10
2192.000048458996
 20
11.99998708770499
 30
0.0
 11
2193.000048458998
 21
11.99998708764087
 31
0.0
  0
LINE
  5
E13
330
2
100
AcDbEntity
  8
0
  6
Continuous
 62
     9
100
AcDbLine
 10
2225.000048458996
 20
11.99998708553357
 30
0.0
 11
2225.000048459127
 21
13.99998708553267
 31
0.0
  0
LINE
  5
E14
330
2
100
AcDbEntity
  8
0
  6
Continuous
 62
     7
100
AcDbLine
 10
2193.000048458998
 20
11.99998708757675
 30
0.0
 11
2225.000048458996
 21
11.99998708553357
 31
0.0
  0
LINE
  5
E15
330
2
100
AcDbEntity
  8
0
  6
Continuous
 62
     7
100
AcDbLine
 10
2226.000048458996
 20
11.99998708553357
 30
0.0
 11
2226.000048459125
 21
13.99998708553267
 31
0.0
  0
LINE
  5
E16
330
2
100
AcDbEntity
  8
0
  6
Continuous
 62
     7
100
AcDbLine
 10
2225.000048458996
 20
11.99998708559678
 30
0.0
 11
2226.000048458996
 21
11.99998708553357
 31
0.0
  0
LINE
  5
E17
330
2
100
AcDbEntity
  8
0
  6
Continuous
 62
     7
100
AcDbLine
 10
2197.500048461888
 20
57.49998708792282
 30
0.0
 11
2194.500048461888
 21
57.49998708811381
 31
0.0
  0
LINE
  5
E18
330
2
100
AcDbEntity
  8
0
  6
Continuous
 62
     7
100
AcDbLine
 10
2194.500048461888
 20
57.49998708811381
 30
0.0
 11
2191.500048461888
 21
57.49998708830481
 31
0.0
  0
LINE
  5
E19
330
2
100
AcDbEntity
  8
0
  6
Continuous
 62
     7
100
AcDbLine
 10
2190.500048462398
 20
65.49998708836756
 30
0.0
 11
2194.500048462396
 21
65.49998708811381
 31
0.0
  0
LINE
  5
E1A
330
2
100
AcDbEntity
  8
0
  6
Continuous
 62
     7
100
AcDbLine
 10
2194.500048462396
 20
65.49998708811381
 30
0.0
 11
2198.500048462396
 21
65.4999870878587
 31
0.0
  0
LINE
  5
E1B
330
2
100
AcDbEntity
  8
0
  6
Continuous
 62
     7
100
AcDbLine
 10
2222.500048496082
 20
57.49998708633211
 30
0.0
 11
2219.500048496084
 21
57.49998708652356
 31
0.0
  0
LINE
  5
E1C
330
2
100
AcDbEntity
  8
0
  6
Continuous
 62
     7
100
AcDbLine
 10
2219.500048496084
 20
57.49998708652356
 30
0.0
 11
2216.500048496084
 21
57.49998708671501
 31
0.0
  0
LINE
  5
E1D
330
2
100
AcDbEntity
  8
0
  6
Continuous
 62
     7
100
AcDbLine
 10
2215.500048496592
 20
65.49998708677776
 30
0.0
 11
2219.500048496593
 21
65.49998708652265
 31
0.0
  0
LINE
  5
E1E
330
2
100
AcDbEntity
  8
0
  6
Continuous
 62
     7
100
AcDbLine
 10
2219.500048496593
 20
65.49998708652265
 30
0.0
 11
2223.500048496592
 21
65.49998708626844
 31
0.0
  0
LINE
  5
E1F
330
2
100
AcDbEntity
  8
0
  6
Continuous
 62
     9
100
AcDbLine
 10
2187.000048461007
 20
43.49998708778957
 30
0.0
 11
2227.000048460996
 21
43.49998708524572
 31
0.0
  0
LINE
  5
E20
330
2
100
AcDbEntity
  8
0
  6
Continuous
 62
     7
100
AcDbLine
 10
2187.0000484612
 20
46.49998708798193
 30
0.0
 11
2227.000048461187
 21
46.49998708543807
 31
0.0
  0
LINE
  5
E21
330
2
100
AcDbEntity
  8
0
  6
Continuous
 62
     7
100
AcDbLine
 10
2187.000048461007
 20
43.49998708778957
 30
0.0
 11
2187.0000484612
 21
46.49998708798011
 31
0.0
  0
LINE
  5
E22
330
2
100
AcDbEntity
  8
0
  6
Continuous
 62
     7
100
AcDbLine
 10
2227.000048460996
 20
43.49998708524572
 30
0.0
 11
2227.000048461187
 21
46.49998708543352
 31
0.0
  0
LINE
  5
E23
330
2
100
AcDbEntity
  8
0
  6
Continuous
 62
     7
100
AcDbLine
 10
2187.000048459735
 20
23.49998708778958
 30
0.0
 11
2227.000048459723
 21
23.49998708524572
 31
0.0
  0
LINE
  5
E24
330
2
100
AcDbEntity
  8
0
  6
Continuous
 62
     7
100
AcDbLine
 10
2187.000048459735
 20
23.49998708778958
 30
0.0
 11
2187.000048460149
 21
29.99998722061992
 31
0.0
  0
LINE
  5
E25
330
2
100
AcDbEntity
  8
0
  6
Continuous
 62
     7
100
AcDbLine
 10
2187.000048460785
 20
39.99998722061992
 30
0.0
 11
2187.000048461007
 21
43.49998708778957
 31
0.0
  0
LINE
  5
E26
330
2
100
AcDbEntity
  8
0
  6
Continuous
 62
     7
100
AcDbLine
 10
2227.000048459723
 20
23.49998708524572
 30
0.0
 11
2227.000048460136
 21
29.9999872193248
 31
0.0
  0
LINE
  5
E27
330
2
100
AcDbEntity
  8
0
  6
Continuous
 62
     7
100
AcDbLine
 10
2227.000048460771
 20
39.9999872193248
 30
0.0
 11
2227.000048460996
 21
43.49998708524572
 31
0.0
  0
LINE
  5
E28
330
2
100
AcDbEntity
  8
0
  6
Continuous
 62
     7
100
AcDbLine
 10
2187.000048462282
 20
63.49998708826979
 30
0.0
 11
2227.000048462268
 21
63.49998708572593
 31
0.0
  0
LINE
  5
E29
330
2
100
AcDbEntity
  8
0
  6
Continuous
 62
     9
100
AcDbLine
 10
2227.000048462075
 20
60.49998708553267
 30
0.0
 11
2187.000048462091
 21
60.4999870880788
 31
0.0
  0
LINE
  5
E2A
330
2
100
AcDbEntity
  8
0
  6
Continuous
 62
     7
100
AcDbLine
 10
2187.000048462091
 20
60.4999870880788
 30
0.0
 11
2187.000048462282
 21
63.49998708826752
 31
0.0
  0
LINE
  5
E2B
330
2
100
AcDbEntity
  8
0
  6
Continuous
 62
     7
100
AcDbLine
 10
2227.000048462268
 20
63.49998708572366
 30
0.0
 11
2227.000048462075
 21
60.49998708553267
 31
0.0
  0
LINE
  5
E2C
330
2
100
AcDbEntity
  8
0
  6
Continuous
 62
     7
100
AcDbLine
 10
2187.000048461963
 20
58.49998708807788
 30
0.0
 11
2227.000048461949
 21
58.49998708553357
 31
0.0
  0
LINE
  5
E2D
330
2
100
AcDbEntity
  8
0
  6
Continuous
 62
     7
100
AcDbLine
 10
2187.000048462091
 20
60.4999870880788
 30
0.0
 11
2187.000048461963
 21
58.49998708807788
 31
0.0
  0
LINE
  5
E2E
330
2
100
AcDbEntity
  8
0
  6
Continuous
 62
     7
100
AcDbLine
 10
2227.000048462075
 20
60.49998708553267
 30
0.0
 11
2227.000048461949
 21
58.49998708553357
 31
0.0
  0
ARC
  5
E2F
330
2
100
AcDbEntity
  8
0
  6
Continuous
 62
     7
100
AcDbCircle
 10
2207.000048461606
 20
52.99998708776683
 30
0.0
 40
4.299999999999846
100
AcDbArc
 50
44.24072005374615
 51
135.7592799463265
  0
LINE
  5
E30
330
2
100
AcDbEntity
  8
0
  6
Continuous
 62
     7
100
AcDbLine
 10
2187.000048461963
 20
58.49998708903967
 30
0.0
 11
2187.000048461803
 21
55.99998715569654
 31
0.0
  0
LINE
  5
E31
330
2
100
AcDbEntity
  8
0
  6
Continuous
 62
     7
100
AcDbLine
 10
2187.000048461294
 20
47.99998715569654
 30
0.0
 11
2187.0000484612
 21
46.49998708903967
 31
0.0
  0
LINE
  5
E32
330
2
100
AcDbEntity
  8
0
  6
Continuous
 62
     7
100
AcDbLine
 10
2227.000048461949
 20
58.49998708649446
 30
0.0
 11
2227.000048461791
 21
55.99998715570291
 31
0.0
  0
LINE
  5
E33
330
2
100
AcDbEntity
  8
0
  6
Continuous
 62
     7
100
AcDbLine
 10
2227.000048461282
 20
47.99998715570291
 30
0.0
 11
2227.000048461187
 21
46.49998708649445
 31
0.0
  0
LINE
  5
E34
330
2
100
AcDbEntity
  8
0
  6
Continuous
 62
     7
100
AcDbLine
 10
2227.000048459662
 20
22.49998708540488
 30
0.0
 11
2192.000048459663
 21
22.49998708763178
 31
0.0
  0
LINE
  5
E35
330
2
100
AcDbEntity
  8
0
  6
Continuous
 62
     7
100
AcDbLine
 10
2192.000048459663
 20
22.49998708763178
 30
0.0
 11
2192.000048459629
 21
21.9999871558266
 31
0.0
  0
LINE
  5
E36
330
2
100
AcDbEntity
  8
0
  6
Continuous
 62
     7
100
AcDbLine
 10
2192.000048459121
 20
13.9999871558266
 30
0.0
 11
2192.000048458993
 21
11.99998708763178
 31
0.0
  0
LINE
  5
E37
330
2
100
AcDbEntity
  8
0
  6
Continuous
 62
     7
100
AcDbLine
 10
2192.000048458993
 20
11.99998708763178
 30
0.0
 11
2193.000048458998
 21
11.99998708756811
 31
0.0
  0
LINE
  5
E38
330
2
100
AcDbEntity
  8
0
  6
Continuous
 62
     7
100
AcDbLine
 10
2193.000048458998
 20
11.99998708756811
 30
0.0
 11
2225.000048458996
 21
11.99998708553357
 31
0.0
  0
LINE
  5
E39
330
2
100
AcDbEntity
  8
0
  6
Continuous
 62
     7
100
AcDbLine
 10
2225.000048458996
 20
11.99998708553357
 30
0.0
 11
2227.000048458993
 21
11.99998708540579
 31
0.0
  0
LINE
  5
E3A
330
2
100
AcDbEntity
  8
0
  6
Continuous
 62
     7
100
AcDbLine
 10
2227.000048458993
 20
11.99998708540579
 30
0.0
 11
2227.000048458771
 21
8.499987085404882
 31
0.0
  0
LINE
  5
E3B
330
2
100
AcDbEntity
  8
0
  6
Continuous
 62
     7
100
AcDbLine
 10
2227.000048458771
 20
8.499987085404882
 30
0.0
 11
2189.000048458771
 21
8.499987087822773
 31
0.0
  0
ARC
  5
E3C
330
2
100
AcDbEntity
  8
0
  6
Continuous
 62
     7
100
AcDbCircle
 10
2189.000048458899
 20
10.49998708782277
 30
0.0
 40
1.999999999999779
100
AcDbArc
 50
179.9999999963523
 51
269.9999999963523
  0
LINE
  5
E3D
330
2
100
AcDbEntity
  8
0
  6
Continuous
 62
     7
100
AcDbLine
 10
2187.000048458898
 20
10.49998708794965
 30
0.0
 11
2187.000048459724
 21
23.49998708778958
 31
0.0
  0
LINE
  5
E3E
330
2
100
AcDbEntity
  8
0
  6
Continuous
 62
     7
100
AcDbLine
 10
2227.000048459726
 20
23.49998708524572
 30
0.0
 11
2227.000048459662
 21
22.49998708540488
 31
0.0
  0
LINE
  5
E3F
330
2
100
AcDbEntity
  8
0
  6
Continuous
 62
     4
100
AcDbLine
 10
2820.00004845923
 20
21.9999871558266
 30
0.0
 11
2242.000048466544
 21
21.9999871558266
 31
0.0
  0
LINE
  5
E40
330
2
100
AcDbEntity
  8
0
  6
Continuous
 62
     4
100
AcDbLine
 10
2242.000048466545
 20
21.9999871558266
 30
0.0
 11
2241.451971543094
 21
21.9999871558266
 31
0.0
  0
LINE
  5
E41
330
2
100
AcDbEntity
  8
0
  6
Continuous
 62
     4
100
AcDbLine
 10
2241.451971543094
 20
21.9999871558266
 30
0.0
 11
2192.00004845923
 21
21.9999871558266
 31
0.0
  0
LINE
  5
E42
330
2
100
AcDbEntity
  8
0
  6
Continuous
 62
     4
100
AcDbLine
 10
2192.00004845923
 20
13.9999871558266
 30
0.0
 11
2820.00004845923
 21
13.9999871558266
 31
0.0
  0
LINE
  5
E43
330
2
100
AcDbEntity
  8
0
  6
Continuous
 62
     4
100
AcDbLine
 10
2192.00004845923
 20
21.9999871558266
 30
0.0
 11
2192.00004845923
 21
13.9999871558266
 31
0.0
  0
LINE
  5
E44
330
2
100
AcDbEntity
  8
0
  6
Continuous
 62
     4
100
AcDbLine
 10
2820.00004845923
 20
13.9999871558266
 30
0.0
 11
2820.00004845923
 21
21.9999871558266
 31
0.0
  0
LINE
  5
E45
330
2
100
AcDbEntity
  8
0
  6
Continuous
 62
     7
100
AcDbLine
 10
2820.00004845923
 20
-0.0000127160233205
 30
0.0
 11
1641.000048459229
 21
-0.0000127160233205
 31
0.0
  0
LINE
  5
E46
330
2
100
AcDbEntity
  8
0
  6
Continuous
 62
     7
100
AcDbLine
 10
1633.000048459231
 20
-0.0000127160233205
 30
0.0
 11
1620.000048459231
 21
-0.0000127160233205
 31
0.0
  0
ELLIPSE
  5
E47
330
2
100
AcDbEntity
  8
0
  6
Continuous
 62
     9
100
AcDbEllipse
 10
2730.259014877816
 20
710.2589537025628
 30
0.0
 11
27.83488918612686
 21
27.83488918612686
 31
0.0
210
0.0
220
0.0
230
1.0
 40
0.889126490715979
 41
5.556410252859888
 42
7.009960361499286
  0
LINE
  5
E48
330
2
100
AcDbEntity
  8
0
  6
Continuous
 62
     9
100
AcDbLine
 10
1705.384101731493
 20
747.5051757392198
 30
0.0
 11
2734.615995186966
 21
747.5051757392198
 31
0.0
  0
ELLIPSE
  5
E49
330
2
100
AcDbEntity
  8
0
  6
Continuous
 62
     9
100
AcDbEllipse
 10
1709.741082040644
 20
710.2589537025628
 30
0.0
 11
-27.83488918612598
 21
27.83488918612642
 31
0.0
210
0.0
220
0.0
230
1.0
 40
0.889126490715993
 41
5.556410252859888
 42
7.009960361499286
  0
LINE
  5
E4A
330
2
100
AcDbEntity
  8
0
  6
Continuous
 62
     9
100
AcDbLine
 10
1672.494860003986
 20
85.38404055624051
 30
0.0
 11
1672.494860003986
 21
714.6159340117129
 31
0.0
  0
ELLIPSE
  5
E4B
330
2
100
AcDbEntity
  8
0
  6
Continuous
 62
     9
100
AcDbEllipse
 10
1709.741082040644
 20
89.74102086539096
 30
0.0
 11
-27.83488918612598
 21
-27.83488918612642
 31
0.0
210
0.0
220
0.0
230
1.0
 40
0.889126490715993
 41
5.556410252859888
 42
5.817015373287549
  0
LINE
  5
E4C
330
2
100
AcDbEntity
  8
0
  6
Continuous
 62
     9
100
AcDbLine
 10
2734.615995186966
 20
52.49479882873493
 30
0.0
 11
2242.000048483882
 21
52.49479882873493
 31
0.0
  0
ELLIPSE
  5
E4D
330
2
100
AcDbEntity
  8
0
  6
Continuous
 62
     9
100
AcDbEllipse
 10
2730.259014877816
 20
89.74102086539096
 30
0.0
 11
27.83488918612686
 21
-27.83488918612686
 31
0.0
210
0.0
220
0.0
230
1.0
 40
0.8891264907159801
 41
5.556410252859888
 42
7.009960361499282
  0
LINE
  5
E4E
330
2
100
AcDbEntity
  8
0
  6
Continuous
 62
     9
100
AcDbLine
 10
2767.505236914474
 20
714.6159340117129
 30
0.0
 11
2767.505236914474
 21
85.38404055624051
 31
0.0
  0
LINE
  5
E4F
330
2
100
AcDbEntity
  8
0
  6
Continuous
 62
     7
100
AcDbLine
 10
1620.000048459231
 20
799.9999872839766
 30
0.0
 11
1633.000048459231
 21
799.9999872839766
 31
0.0
  0
LINE
  5
E50
330
2
100
AcDbEntity
  8
0
  6
Continuous
 62
     7
100
AcDbLine
 10
1641.000048459229
 20
799.9999872839766
 30
0.0
 11
1651.000048459349
 21
799.9999872839766
 31
0.0
  0
LINE
  5
E51
330
2
100
AcDbEntity
  8
0
  6
Continuous
 62
     7
100
AcDbLine
 10
1692.000048459226
 20
799.9999872839766
 30
0.0
 11
2820.00004845923
 21
799.9999872839766
 31
0.0
  0
LINE
  5
E52
330
2
100
AcDbEntity
  8
0
  6
Continuous
 62
     7
100
AcDbLine
 10
1620.000048459231
 20
-0.0000127160233205
 30
0.0
 11
1620.000048459231
 21
799.9999872839766
 31
0.0
  0
LINE
  5
E53
330
2
100
AcDbEntity
  8
0
  6
Continuous
 62
     7
100
AcDbLine
 10
2820.00004845923
 20
799.9999872839766
 30
0.0
 11
2820.00004845923
 21
71.99998715406763
 31
0.0
  0
LINE
  5
E54
330
2
100
AcDbEntity
  8
0
  6
Continuous
 62
     7
100
AcDbLine
 10
2820.00004845923
 20
31.99998715406719
 30
0.0
 11
2820.00004845923
 21
21.9999871558266
 31
0.0
  0
LINE
  5
E55
330
2
100
AcDbEntity
  8
0
  6
Continuous
 62
     7
100
AcDbLine
 10
2820.00004845923
 20
13.9999871558266
 30
0.0
 11
2820.00004845923
 21
-0.0000127160233205
 31
0.0
  0
ELLIPSE
  5
E56
330
2
100
AcDbEntity
  8
0
  6
Continuous
 62
     9
100
AcDbEllipse
 10
1709.741082040644
 20
710.2589537041649
 30
0.0
 11
-12.11720491336976
 21
12.11720491225732
 31
0.0
210
0.0
220
0.0
230
1.0
 40
0.5835560150004764
 41
5.556410252833122
 42
7.009960361472521
  0
LINE
  5
E57
330
2
100
AcDbEntity
  8
0
  6
Continuous
 62
     9
100
AcDbLine
 10
1695.987175523636
 20
714.6159340133153
 30
0.0
 11
1672.494860003986
 21
714.6159340133153
 31
0.0
  0
LINE
  5
E58
330
2
100
AcDbEntity
  8
0
  6
Continuous
 62
     9
100
AcDbLine
 10
1705.384101731493
 20
724.0128602206259
 30
0.0
 11
1705.384101731493
 21
747.5051757392198
 31
0.0
  0
LINE
  5
E59
330
2
100
AcDbEntity
  8
0
  6
Continuous
 62
     9
100
AcDbLine
 10
2767.505236914474
 20
714.6159340133153
 30
0.0
 11
2744.012921394826
 21
714.6159340133153
 31
0.0
  0
ELLIPSE
  5
E5A
330
2
100
AcDbEntity
  8
0
  6
Continuous
 62
     9
100
AcDbEllipse
 10
2730.259014877816
 20
710.2589537041649
 30
0.0
 11
12.11720491336887
 21
12.11720491225731
 31
0.0
210
0.0
220
0.0
230
1.0
 40
0.5835560150004754
 41
5.556410252886652
 42
7.009960361526062
  0
LINE
  5
E5B
330
2
100
AcDbEntity
  8
0
  6
Continuous
 62
     9
100
AcDbLine
 10
2734.615995186966
 20
747.5051757392198
 30
0.0
 11
2734.615995186966
 21
724.0128602206259
 31
0.0
  0
LINE
  5
E5C
330
2
100
AcDbEntity
  8
0
  6
Continuous
 62
     9
100
AcDbLine
 10
2734.615995186966
 20
724.0128602206259
 30
0.0
 11
1705.384101731493
 21
724.0128602206259
 31
0.0
  0
LINE
  5
E5D
330
2
100
AcDbEntity
  8
0
  6
Continuous
 62
     9
100
AcDbLine
 10
1695.987175523636
 20
714.6159340127669
 30
0.0
 11
1695.987175523636
 21
85.38404055729461
 31
0.0
  0
LINE
  5
E5E
330
2
100
AcDbEntity
  8
0
  6
Continuous
 62
     9
100
AcDbLine
 10
1695.987175523636
 20
85.38404055784258
 30
0.0
 11
1672.494860003986
 21
85.38404055784258
 31
0.0
  0
LINE
  5
E5F
330
2
100
AcDbEntity
  8
0
  6
Continuous
 62
     9
100
AcDbLine
 10
2767.505236914474
 20
85.38404055784258
 30
0.0
 11
2744.012921394826
 21
85.38404055784258
 31
0.0
  0
LINE
  5
E60
330
2
100
AcDbEntity
  8
0
  6
Continuous
 62
     9
100
AcDbLine
 10
2744.012921394826
 20
85.38404055729461
 30
0.0
 11
2744.012921394826
 21
714.6159340127669
 31
0.0
  0
LINE
  5
E61
330
2
100
AcDbEntity
  8
0
  6
Continuous
 62
     9
100
AcDbLine
 10
2734.615995186966
 20
52.49479882873493
 30
0.0
 11
2734.615995186966
 21
75.98711434943561
 31
0.0
  0
ELLIPSE
  5
E62
330
2
100
AcDbEntity
  8
0
  6
Continuous
 62
     9
100
AcDbEllipse
 10
2730.259014877816
 20
89.74102086699303
 30
0.0
 11
12.1172049129905
 21
-12.11720491410206
 31
0.0
210
0.0
220
0.0
230
1.0
 40
0.5835560149651704
 41
5.556410252886648
 42
7.009960361526039
  0
ELLIPSE
  5
E63
330
2
100
AcDbEntity
  8
0
  6
Continuous
 62
     9
100
AcDbEllipse
 10
1709.741082040644
 20
89.74102086699303
 30
0.0
 11
-12.11720491298962
 21
-12.11720491410206
 31
0.0
210
0.0
220
0.0
230
1.0
 40
0.5835560149651703
 41
5.556410252833122
 42
7.009960361472519
  0
LINE
  5
E64
330
2
100
AcDbEntity
  8
0
  6
Continuous
 62
     9
100
AcDbLine
 10
1705.384101731495
 20
75.98711434943561
 30
0.0
 11
1705.384101731495
 21
62.99998715430593
 31
0.0
  0
LINE
  5
E65
330
2
100
AcDbEntity
  8
0
  6
Continuous
 62
     9
100
AcDbLine
 10
1705.384101731493
 20
75.98711434943561
 30
0.0
 11
2734.615995186966
 21
75.98711434943561
 31
0.0
  0
ELLIPSE
  5
E66
330
2
100
AcDbEntity
  8
0
  6
Continuous
 62
     9
100
AcDbEllipse
 10
1711.560933211976
 20
708.4391025331537
 30
0.0
 11
7.071067811242669
 21
7.071067812487896
 31
0.0
210
0.0
220
0.0
230
1.0
 40
0.8891264907367228
 41
0.8440212723762744
 42
2.297571381015536
  0
LINE
  5
E67
330
2
100
AcDbEntity
  8
0
  6
Continuous
 62
     9
100
AcDbLine
 10
1702.164007004116
 20
708.4391025333738
 30
0.0
 11
1695.987175523636
 21
714.6159340127669
 31
0.0
  0
LINE
  5
E68
330
2
100
AcDbEntity
  8
0
  6
Continuous
 62
     9
100
AcDbLine
 10
1705.384101731493
 20
724.0128602206259
 30
0.0
 11
1711.560933211976
 21
717.8360287412315
 31
0.0
  0
ELLIPSE
  5
E69
330
2
100
AcDbEntity
  8
0
  6
Continuous
 62
     9
100
AcDbEllipse
 10
2728.439163706485
 20
708.4391025331537
 30
0.0
 11
7.07106781124267
 21
-7.071067812487452
 31
0.0
210
0.0
220
0.0
230
1.0
 40
0.8891264907367229
 41
0.8440212725742599
 42
2.297571381213603
  0
LINE
  5
E6A
330
2
100
AcDbEntity
  8
0
  6
Continuous
 62
     9
100
AcDbLine
 10
2728.439163706485
 20
717.8360287412315
 30
0.0
 11
2734.615995186966
 21
724.0128602206259
 31
0.0
  0
LINE
  5
E6B
330
2
100
AcDbEntity
  8
0
  6
Continuous
 62
     9
100
AcDbLine
 10
2744.012921394826
 20
714.6159340127669
 30
0.0
 11
2737.836089914345
 21
708.4391025333738
 31
0.0
  0
ELLIPSE
  5
E6C
330
2
100
AcDbEntity
  8
0
  6
Continuous
 62
     9
100
AcDbEllipse
 10
1711.560933211976
 20
91.5608720386449
 30
0.0
 11
-7.071067812487896
 21
7.071067811243112
 31
0.0
210
0.0
220
0.0
230
1.0
 40
0.8891264906952526
 41
0.8440212723762666
 42
2.29757138101556
  0
LINE
  5
E6D
330
2
100
AcDbEntity
  8
0
  6
Continuous
 62
     9
100
AcDbLine
 10
1711.560933211976
 20
82.16394583100509
 30
0.0
 11
1705.384101731493
 21
75.98711434943561
 31
0.0
  0
LINE
  5
E6E
330
2
100
AcDbEntity
  8
0
  6
Continuous
 62
     9
100
AcDbLine
 10
1695.987175523636
 20
85.38404055729461
 30
0.0
 11
1702.164007004116
 21
91.56087203886272
 31
0.0
  0
ELLIPSE
  5
E6F
330
2
100
AcDbEntity
  8
0
  6
Continuous
 62
     9
100
AcDbEllipse
 10
2728.439163706485
 20
91.5608720386449
 30
0.0
 11
-7.071067812487896
 21
-7.071067811243112
 31
0.0
210
0.0
220
0.0
230
1.0
 40
0.8891264906952526
 41
0.84402127257414
 42
2.29757138121353
  0
LINE
  5
E70
330
2
100
AcDbEntity
  8
0
  6
Continuous
 62
     9
100
AcDbLine
 10
2737.836089914344
 20
91.56087203886272
 30
0.0
 11
2744.012921394826
 21
85.38404055729461
 31
0.0
  0
LINE
  5
E71
330
2
100
AcDbEntity
  8
0
  6
Continuous
 62
     9
100
AcDbLine
 10
2734.615995186966
 20
75.98711434943561
 30
0.0
 11
2728.439163706485
 21
82.16394583100509
 31
0.0
  0
LINE
  5
E72
330
2
100
AcDbEntity
  8
0
  6
Continuous
 62
     9
100
AcDbLine
 10
1711.560933211976
 20
717.8360287412315
 30
0.0
 11
2728.439163706485
 21
717.8360287412315
 31
0.0
  0
LINE
  5
E73
330
2
100
AcDbEntity
  8
0
  6
Continuous
 62
     9
100
AcDbLine
 10
2737.836089914345
 20
708.4391025333738
 30
0.0
 11
2737.836089914344
 21
91.56087203886363
 31
0.0
  0
LINE
  5
E74
330
2
100
AcDbEntity
  8
0
  6
Continuous
 62
     9
100
AcDbLine
 10
1702.164007004116
 20
91.56087203886272
 30
0.0
 11
1702.164007004116
 21
708.4391025333729
 31
0.0
  0
LINE
  5
E75
330
2
100
AcDbEntity
  8
0
  6
Continuous
 62
     9
100
AcDbLine
 10
2728.439163706485
 20
82.16394583100509
 30
0.0
 11
1711.560933211976
 21
82.16394583100509
 31
0.0
  0
LINE
  5
E76
330
2
100
AcDbEntity
  8
0
  6
Continuous
 62
     9
100
AcDbLine
 10
2728.439163706485
 20
717.8360287412315
 30
0.0
 11
2728.439163706485
 21
708.4391025337945
 31
0.0
  0
LINE
  5
E77
330
2
100
AcDbEntity
  8
0
  6
Continuous
 62
     9
100
AcDbLine
 10
2737.836089914345
 20
708.4391025331537
 30
0.0
 11
2728.439163706485
 21
708.4391025331537
 31
0.0
  0
LINE
  5
E78
330
2
100
AcDbEntity
  8
0
  6
Continuous
 62
     9
100
AcDbLine
 10
2728.439163706485
 20
708.4391025337945
 30
0.0
 11
1711.560933211975
 21
708.4391025337945
 31
0.0
  0
LINE
  5
E79
330
2
100
AcDbEntity
  8
0
  6
Continuous
 62
     9
100
AcDbLine
 10
1711.560933211976
 20
717.8360287412315
 30
0.0
 11
1711.560933211976
 21
708.4391025337945
 31
0.0
  0
LINE
  5
E7A
330
2
100
AcDbEntity
  8
0
  6
Continuous
 62
     9
100
AcDbLine
 10
1702.164007004116
 20
708.4391025331537
 30
0.0
 11
1711.560933211976
 21
708.4391025331537
 31
0.0
  0
LINE
  5
E7B
330
2
100
AcDbEntity
  8
0
  6
Continuous
 62
     9
100
AcDbLine
 10
2728.439163706485
 20
91.56087203928519
 30
0.0
 11
2728.439163706485
 21
708.4391025337945
 31
0.0
  0
LINE
  5
E7C
330
2
100
AcDbEntity
  8
0
  6
Continuous
 62
     9
100
AcDbLine
 10
2728.439163706485
 20
91.5608720386449
 30
0.0
 11
2737.836089914345
 21
91.5608720386449
 31
0.0
  0
LINE
  5
E7D
330
2
100
AcDbEntity
  8
0
  6
Continuous
 62
     9
100
AcDbLine
 10
1711.560933211976
 20
708.4391025337945
 30
0.0
 11
1711.560933211976
 21
91.56087203928519
 31
0.0
  0
LINE
  5
E7E
330
2
100
AcDbEntity
  8
0
  6
Continuous
 62
     9
100
AcDbLine
 10
1711.560933211976
 20
91.5608720386449
 30
0.0
 11
1702.164007004116
 21
91.5608720386449
 31
0.0
  0
LINE
  5
E7F
330
2
100
AcDbEntity
  8
0
  6
Continuous
 62
     9
100
AcDbLine
 10
2728.439163706485
 20
91.56087203928519
 30
0.0
 11
2728.439163706485
 21
82.16394583100509
 31
0.0
  0
LINE
  5
E80
330
2
100
AcDbEntity
  8
0
  6
Continuous
 62
     9
100
AcDbLine
 10
1711.560933211976
 20
91.56087203928519
 30
0.0
 11
1711.560933211976
 21
82.16394583100509
 31
0.0
  0
LINE
  5
E81
330
2
100
AcDbEntity
  8
0
  6
Continuous
 62
     9
100
AcDbLine
 10
1711.560933211976
 20
91.56087203928519
 30
0.0
 11
2728.439163706485
 21
91.56087203928519
 31
0.0
  0
LINE
  5
E82
330
2
100
AcDbEntity
  8
0
  6
Continuous
 62
     9
100
AcDbLine
 10
1643.000048459387
 20
37.49998715572292
 30
0.0
 11
1642.000048459264
 21
37.49998715573884
 31
0.0
  0
LINE
  5
E83
330
2
100
AcDbEntity
  8
0
  6
Continuous
 62
     9
100
AcDbLine
 10
1642.000048459182
 20
32.49998715573884
 30
0.0
 11
1643.000048458989
 21
32.49998715572292
 31
0.0
  0
LINE
  5
E84
330
2
100
AcDbEntity
  8
0
  6
Continuous
 62
     9
100
AcDbLine
 10
2191.125048462398
 20
65.49998708832799
 30
0.0
 11
2191.12504846227
 21
63.5000070883284
 31
0.0
  0
LINE
  5
E85
330
2
100
AcDbEntity
  8
0
  6
Continuous
 62
     9
100
AcDbLine
 10
2191.12504846195
 20
58.4999670883908
 30
0.0
 11
2191.12504846191
 21
57.87498708832799
 31
0.0
  0
LINE
  5
E86
330
2
100
AcDbEntity
  8
0
  6
Continuous
 62
     9
100
AcDbLine
 10
2197.875048461911
 20
57.87498708789872
 30
0.0
 11
2197.875048461952
 21
58.49996708796197
 31
0.0
  0
LINE
  5
E87
330
2
100
AcDbEntity
  8
0
  6
Continuous
 62
     9
100
AcDbLine
 10
2197.87504846227
 20
63.50000708789912
 30
0.0
 11
2197.875048462396
 21
65.49998708789871
 31
0.0
  0
LINE
  5
E88
330
2
100
AcDbEntity
  8
0
  6
Continuous
 62
     9
100
AcDbLine
 10
2216.125048496593
 20
65.4999870867382
 30
0.0
 11
2216.125048496465
 21
63.50000708670859
 31
0.0
  0
LINE
  5
E89
330
2
100
AcDbEntity
  8
0
  6
Continuous
 62
     9
100
AcDbLine
 10
2216.125048496147
 20
58.49996708682965
 30
0.0
 11
2216.125048496107
 21
57.8749870867382
 31
0.0
  0
LINE
  5
E8A
330
2
100
AcDbEntity
  8
0
  6
Continuous
 62
     9
100
AcDbLine
 10
2222.875048496108
 20
57.87498708630891
 30
0.0
 11
2222.875048496147
 21
58.49996708639991
 31
0.0
  0
LINE
  5
E8B
330
2
100
AcDbEntity
  8
0
  6
Continuous
 62
     9
100
AcDbLine
 10
2222.875048496466
 20
63.50000708627977
 30
0.0
 11
2222.875048496592
 21
65.49998708630892
 31
0.0
  0
LINE
  5
E8C
330
2
100
AcDbEntity
  8
0
  6
Continuous
 62
     7
100
AcDbLine
 10
2793.250048461975
 20
21.99998715025322
 30
0.0
 11
2793.250048461958
 21
22.49998715161792
 31
0.0
  0
LINE
  5
E8D
330
2
100
AcDbEntity
  8
0
  6
Continuous
 62
     7
100
AcDbLine
 10
2794.00004846199
 20
22.49998715123684
 30
0.0
 11
2794.000048461747
 21
24.99998715123684
 31
0.0
  0
ARC
  5
E8E
330
2
100
AcDbEntity
  8
0
  6
Continuous
 62
     7
100
AcDbCircle
 10
2793.500048461746
 20
24.99998715118863
 30
0.0
 40
0.5000000000006111
100
AcDbArc
 50
0.0000000056018473
 51
90.0000000056279
  0
LINE
  5
E8F
330
2
100
AcDbEntity
  8
0
  6
Continuous
 62
     7
100
AcDbLine
 10
1641.00004846198
 20
744.7499871553591
 30
0.0
 11
1641.500048460477
 21
744.7499871553928
 31
0.0
  0
ARC
  5
E90
330
2
100
AcDbEntity
  8
0
  6
Continuous
 62
     7
100
AcDbCircle
 10
1644.000048461068
 20
744.4999871554277
 30
0.0
 40
0.4999999999997229
100
AcDbArc
 50
270.0
 51
0.0
  0
LINE
  5
E91
330
2
100
AcDbEntity
  8
0
  6
Continuous
 62
     7
100
AcDbLine
 10
1641.500048461066
 20
743.999987155425
 30
0.0
 11
1644.000048461068
 21
743.9999871554277
 31
0.0
  0
LINE
  5
E92
330
2
100
AcDbEntity
  8
0
  6
Continuous
 62
     7
100
AcDbLine
 10
1632.000048459425
 20
47.49998715590073
 30
0.0
 11
1626.300048459425
 21
47.49998715599395
 31
0.0
  0
LINE
  5
E93
330
2
100
AcDbEntity
  8
0
  6
Continuous
 62
     7
100
AcDbLine
 10
1626.300048459021
 20
22.49998715599395
 30
0.0
 11
1632.000048459022
 21
22.49998715590073
 31
0.0
  0
LINE
  5
E94
330
2
100
AcDbEntity
  8
0
  6
Continuous
 62
     7
100
AcDbLine
 10
1626.300048459425
 20
47.49998715599395
 30
0.0
 11
1626.000048459418
 21
47.19998715599786
 31
0.0
  0
LINE
  5
E95
330
2
100
AcDbEntity
  8
0
  6
Continuous
 62
     7
100
AcDbLine
 10
1626.000048459025
 20
22.79998715599777
 30
0.0
 11
1626.300048459021
 21
22.49998715599395
 31
0.0
  0
LINE
  5
E96
330
2
100
AcDbEntity
  8
0
  6
Continuous
 62
     7
100
AcDbLine
 10
1643.000048459429
 20
37.99998715572292
 30
0.0
 11
1642.00004845966
 21
37.99998715573884
 31
0.0
  0
LINE
  5
E97
330
2
100
AcDbEntity
  8
0
  6
Continuous
 62
     7
100
AcDbLine
 10
1642.00004845966
 20
37.99998715573884
 30
0.0
 11
1641.99504845927
 21
37.99998715573884
 31
0.0
  0
LINE
  5
E98
330
2
100
AcDbEntity
  8
0
  6
Continuous
 62
     7
100
AcDbLine
 10
1641.995048459175
 20
31.99998715573884
 30
0.0
 11
1642.000048459664
 21
31.99998715573884
 31
0.0
  0
LINE
  5
E99
330
2
100
AcDbEntity
  8
0
  6
Continuous
 62
     7
100
AcDbLine
 10
1642.000048459664
 20
31.99998715573884
 30
0.0
 11
1643.000048458949
 21
31.99998715572292
 31
0.0
  0
LINE
  5
E9A
330
2
100
AcDbEntity
  8
0
  6
Continuous
 62
     7
100
AcDbLine
 10
1642.005048459272
 20
37.99998715573884
 30
0.0
 11
1642.000048459657
 21
37.99998715573884
 31
0.0
  0
LINE
  5
E9B
330
2
100
AcDbEntity
  8
0
  6
Continuous
 62
     7
100
AcDbLine
 10
1642.000048459657
 20
37.99998715573884
 30
0.0
 11
1641.000048459229
 21
37.99998715575475
 31
0.0
  0
LINE
  5
E9C
330
2
100
AcDbEntity
  8
0
  6
Continuous
 62
     7
100
AcDbLine
 10
1641.000048459229
 20
31.99998715575612
 30
0.0
 11
1642.000048459664
 21
31.99998715573884
 31
0.0
  0
LINE
  5
E9D
330
2
100
AcDbEntity
  8
0
  6
Continuous
 62
     7
100
AcDbLine
 10
1642.000048459664
 20
31.99998715573884
 30
0.0
 11
1642.005048459172
 21
31.99998715573884
 31
0.0
  0
LINE
  5
E9E
330
2
100
AcDbEntity
  8
0
  6
Continuous
 62
     7
100
AcDbLine
 10
1632.000048458274
 20
22.9999871574887
 30
0.0
 11
1633.000048458274
 21
22.99998715740776
 31
0.0
  0
LINE
  5
E9F
330
2
100
AcDbEntity
  8
0
  6
Continuous
 62
     7
100
AcDbLine
 10
1633.000048460186
 20
46.99998715740867
 30
0.0
 11
1632.000048460186
 21
46.9999871574887
 31
0.0
  0
LINE
  5
EA0
330
2
100
AcDbEntity
  8
0
  6
Continuous
 62
     7
100
AcDbLine
 10
1643.000048458116
 20
20.99998715635911
 30
0.0
 11
1644.000048458114
 21
20.99998715627771
 31
0.0
  0
LINE
  5
EA1
330
2
100
AcDbEntity
  8
0
  6
Continuous
 62
     7
100
AcDbLine
 10
1644.000048460346
 20
48.99998715627771
 30
0.0
 11
1643.000048460344
 21
48.99998715635774
 31
0.0
  0
LINE
  5
EA2
330
2
100
AcDbEntity
  8
0
  6
Continuous
 62
     7
100
AcDbLine
 10
1645.000048458983
 20
19.99998715632591
 30
0.0
 11
1647.000048458985
 21
19.99998715629317
 31
0.0
  0
ARC
  5
EA3
330
2
100
AcDbEntity
  8
0
  6
Continuous
 62
     7
100
AcDbCircle
 10
1645.000048459
 20
20.99998715632501
 30
0.0
 40
0.9999999999994455
100
AcDbArc
 50
179.999999999062
 51
269.999999999062
  0
LINE
  5
EA4
330
2
100
AcDbEntity
  8
0
  6
Continuous
 62
    92
100
AcDbLine
 10
2676.457082603888
 20
32.69998720461718
 30
0.0
 11
2680.000048459199
 21
32.69998720472859
 31
0.0
  0
LINE
  5
EA5
330
2
100
AcDbEntity
  8
0
  6
Continuous
 62
    92
100
AcDbLine
 10
2680.000048459039
 20
37.69998720472859
 30
0.0
 11
2676.549330325154
 21
37.6999872046199
 31
0.0
  0
LINE
  5
EA6
330
2
100
AcDbEntity
  8
0
  6
Continuous
 62
     7
100
AcDbLine
 10
1693.500048460331
 20
43.49998710147793
 30
0.0
 11
1693.500048460364
 21
42.99998715434003
 31
0.0
  0
LINE
  5
EA7
330
2
100
AcDbEntity
  8
0
  6
Continuous
 62
     7
100
AcDbLine
 10
1708.500048460366
 20
42.99998715434185
 30
0.0
 11
1708.500048460331
 21
43.49998710053251
 31
0.0
  0
LINE
  5
EA8
330
2
100
AcDbEntity
  8
0
  6
Continuous
 62
     7
100
AcDbLine
 10
1689.000048459509
 20
47.99998715462379
 30
0.0
 11
1689.000048459509
 21
46.99998715462379
 31
0.0
  0
LINE
  5
EA9
330
2
100
AcDbEntity
  8
0
  6
Continuous
 62
     7
100
AcDbLine
 10
1713.000048459513
 20
46.99998715462697
 30
0.0
 11
1713.000048459513
 21
47.99998715462698
 31
0.0
  0
LINE
  5
EAA
330
2
100
AcDbEntity
  8
0
  6
Continuous
 62
     7
100
AcDbLine
 10
1687.000048459506
 20
56.99998715462334
 30
0.0
 11
1687.000048459507
 21
55.99998715462334
 31
0.0
  0
LINE
  5
EAB
330
2
100
AcDbEntity
  8
0
  6
Continuous
 62
     7
100
AcDbLine
 10
1711.000048459511
 20
55.99998715462561
 30
0.0
 11
1711.000048459511
 21
56.99998715462561
 31
0.0
  0
LINE
  5
EAC
330
2
100
AcDbEntity
  8
0
  6
Continuous
 62
     7
100
AcDbLine
 10
1688.500048459513
 20
26.49998715462698
 30
0.0
 11
1688.500048459513
 21
25.53588553948884
 31
0.0
  0
LINE
  5
EAD
330
2
100
AcDbEntity
  8
0
  6
Continuous
 62
     7
100
AcDbLine
 10
1713.500048459515
 20
25.53588553949294
 30
0.0
 11
1713.500048459515
 21
26.49998715463107
 31
0.0
  0
LINE
  5
EAE
330
2
100
AcDbEntity
  8
0
  6
Continuous
 62
     7
100
AcDbLine
 10
1688.500048459513
 20
25.53588553948884
 30
0.0
 11
1690.500048459513
 21
24.99998715462698
 31
0.0
  0
LINE
  5
EAF
330
2
100
AcDbEntity
  8
0
  6
Continuous
 62
     7
100
AcDbLine
 10
1711.500048459515
 20
24.99998715462971
 30
0.0
 11
1713.500048459515
 21
25.53588553949294
 31
0.0
  0
LINE
  5
EB0
330
2
100
AcDbEntity
  8
0
  6
Continuous
 62
     7
100
AcDbLine
 10
1695.500048459511
 20
26.99998715430093
 30
0.0
 11
1695.500048459511
 21
26.49998715462789
 31
0.0
  0
LINE
  5
EB1
330
2
100
AcDbEntity
  8
0
  6
Continuous
 62
     7
100
AcDbLine
 10
1706.500048459516
 20
26.4999871546288
 30
0.0
 11
1706.500048459516
 21
26.99998715430229
 31
0.0
  0
LINE
  5
EB2
330
2
100
AcDbEntity
  8
0
  6
Continuous
 62
     7
100
AcDbLine
 10
1711.500048459511
 20
62.69998715462543
 30
0.0
 11
1711.20004845951
 21
62.99998715462698
 31
0.0
  0
LINE
  5
EB3
330
2
100
AcDbEntity
  8
0
  6
Continuous
 62
     7
100
AcDbLine
 10
1686.800048459505
 20
62.99998715462334
 30
0.0
 11
1686.500048459507
 21
62.69998715462316
 31
0.0
  0
LINE
  5
EB4
330
2
100
AcDbEntity
  8
0
  6
Continuous
 62
     7
100
AcDbLine
 10
1711.500048459511
 20
56.99998715462561
 30
0.0
 11
1711.500048459511
 21
62.69998715462543
 31
0.0
  0
LINE
  5
EB5
330
2
100
AcDbEntity
  8
0
  6
Continuous
 62
     7
100
AcDbLine
 10
1686.500048459507
 20
62.69998715462316
 30
0.0
 11
1686.500048459507
 21
56.99998715462197
 31
0.0
  0
ARC
  5
EB6
330
2
100
AcDbEntity
  8
0
  6
Continuous
 62
     7
100
AcDbCircle
 10
1689.000048459509
 20
42.49998715462697
 30
0.0
 40
0.5000000000001671
100
AcDbArc
 50
89.99999999979156
 51
179.9999999998957
  0
ARC
  5
EB7
330
2
100
AcDbEntity
  8
0
  6
Continuous
 62
     7
100
AcDbCircle
 10
1713.000048459514
 20
42.49998715463107
 30
0.0
 40
0.4999999999988347
100
AcDbArc
 50
0.0
 51
90.00000000010421
  0
LINE
  5
EB8
330
2
100
AcDbEntity
  8
0
  6
Continuous
 62
     7
100
AcDbLine
 10
1688.500048459507
 20
42.49998715462697
 30
0.0
 11
1688.500048459507
 21
40.14998715462661
 31
0.0
  0
LINE
  5
EB9
330
2
100
AcDbEntity
  8
0
  6
Continuous
 62
     7
100
AcDbLine
 10
1713.500048459515
 20
40.14998715463116
 30
0.0
 11
1713.500048459515
 21
42.49998715463107
 31
0.0
  0
LINE
  5
EBA
330
2
100
AcDbEntity
  8
0
  6
Continuous
 62
     7
100
AcDbLine
 10
1688.500048459513
 20
29.84998715462689
 30
0.0
 11
1688.500048459513
 21
27.49998715462698
 31
0.0
  0
LINE
  5
EBB
330
2
100
AcDbEntity
  8
0
  6
Continuous
 62
     7
100
AcDbLine
 10
1713.500048459515
 20
27.49998715462971
 30
0.0
 11
1713.500048459515
 21
29.84998715463098
 31
0.0
  0
ARC
  5
EBC
330
2
100
AcDbEntity
  8
0
  6
Continuous
 62
     7
100
AcDbCircle
 10
1713.000048459518
 20
27.49998715462971
 30
0.0
 40
0.5000000000001671
100
AcDbArc
 50
269.9999999997916
 51
359.9999999998958
  0
ARC
  5
EBD
330
2
100
AcDbEntity
  8
0
  6
Continuous
 62
     7
100
AcDbCircle
 10
1689.000048459511
 20
27.49998715462698
 30
0.0
 40
0.5000000000006111
100
AcDbArc
 50
180.0
 51
270.0000000001042
  0
ARC
  5
EBE
330
2
100
AcDbEntity
  8
0
  6
Continuous
 62
     7
100
AcDbCircle
 10
1712.500048459516
 20
38.6499871546298
 30
0.0
 40
1.500000000000055
100
AcDbArc
 50
90.0
 51
180.0
  0
ARC
  5
EBF
330
2
100
AcDbEntity
  8
0
  6
Continuous
 62
     7
100
AcDbCircle
 10
1689.500048459509
 20
38.64998715462661
 30
0.0
 40
1.500000000000055
100
AcDbArc
 50
0.0000000000260551
 51
90.0
  0
ARC
  5
EC0
330
2
100
AcDbEntity
  8
0
  6
Continuous
 62
     7
100
AcDbCircle
 10
1712.500048459518
 20
31.34998715463007
 30
0.0
 40
1.500000000000055
100
AcDbArc
 50
180.000000000026
 51
270.0
  0
ARC
  5
EC1
330
2
100
AcDbEntity
  8
0
  6
Continuous
 62
     7
100
AcDbCircle
 10
1689.500048459509
 20
31.34998715462689
 30
0.0
 40
1.500000000000055
100
AcDbArc
 50
270.0
 51
0.0
  0
LINE
  5
EC2
330
2
100
AcDbEntity
  8
0
  6
Continuous
 62
     7
100
AcDbLine
 10
1711.000048459515
 20
31.34998715463007
 30
0.0
 11
1711.000048459515
 21
38.6499871546298
 31
0.0
  0
LINE
  5
EC3
330
2
100
AcDbEntity
  8
0
  6
Continuous
 62
     7
100
AcDbLine
 10
1691.000048459509
 20
38.64998715462661
 30
0.0
 11
1691.000048459509
 21
31.34998715462689
 31
0.0
  0
LINE
  5
EC4
330
2
100
AcDbEntity
  8
0
  6
Continuous
 62
     7
100
AcDbLine
 10
1713.500048459515
 20
43.4999871546297
 30
0.0
 11
1713.500048459515
 21
46.99998715463107
 31
0.0
  0
LINE
  5
EC5
330
2
100
AcDbEntity
  8
0
  6
Continuous
 62
     7
100
AcDbLine
 10
1688.500048459507
 20
46.99998715462697
 30
0.0
 11
1688.500048459507
 21
43.49998715462698
 31
0.0
  0
ARC
  5
EC6
330
2
100
AcDbEntity
  8
0
  6
Continuous
 62
     7
100
AcDbCircle
 10
1694.500048459508
 20
42.99998715462789
 30
0.0
 40
0.5000000000001671
100
AcDbArc
 50
359.9999999999218
 51
89.99999999979156
  0
ARC
  5
EC7
330
2
100
AcDbEntity
  8
0
  6
Continuous
 62
     7
100
AcDbCircle
 10
1707.500048459515
 20
42.99998715462971
 30
0.0
 40
0.4999999999988347
100
AcDbArc
 50
90.00000000010421
 51
180.0
  0
LINE
  5
EC8
330
2
100
AcDbEntity
  8
0
  6
Continuous
 62
     7
100
AcDbLine
 10
2135.500048460336
 20
43.49998707364784
 30
0.0
 11
2135.500048460368
 21
42.99998715440142
 31
0.0
  0
LINE
  5
EC9
330
2
100
AcDbEntity
  8
0
  6
Continuous
 62
     7
100
AcDbLine
 10
2150.500048460362
 20
42.99998715440415
 30
0.0
 11
2150.50004846033
 21
43.49998707270379
 31
0.0
  0
LINE
  5
ECA
330
2
100
AcDbEntity
  8
0
  6
Continuous
 62
     7
100
AcDbLine
 10
2131.000048459514
 20
47.9999871546861
 30
0.0
 11
2131.000048459514
 21
46.99998715468609
 31
0.0
  0
LINE
  5
ECB
330
2
100
AcDbEntity
  8
0
  6
Continuous
 62
     7
100
AcDbLine
 10
2155.000048459505
 20
46.99998715468973
 30
0.0
 11
2155.000048459505
 21
47.99998715468973
 31
0.0
  0
LINE
  5
ECC
330
2
100
AcDbEntity
  8
0
  6
Continuous
 62
     7
100
AcDbLine
 10
2129.000048459516
 20
56.99998715468473
 30
0.0
 11
2129.000048459516
 21
55.99998715468473
 31
0.0
  0
LINE
  5
ECD
330
2
100
AcDbEntity
  8
0
  6
Continuous
 62
     7
100
AcDbLine
 10
2153.000048459505
 20
55.99998715468927
 30
0.0
 11
2153.000048459505
 21
56.99998715468928
 31
0.0
  0
LINE
  5
ECE
330
2
100
AcDbEntity
  8
0
  6
Continuous
 62
     7
100
AcDbLine
 10
2130.50004845952
 20
26.49998715468928
 30
0.0
 11
2130.50004845952
 21
25.5358855395516
 31
0.0
  0
LINE
  5
ECF
330
2
100
AcDbEntity
  8
0
  6
Continuous
 62
     7
100
AcDbLine
 10
2155.500048459508
 20
25.53588553955478
 30
0.0
 11
2155.500048459508
 21
26.49998715469292
 31
0.0
  0
LINE
  5
ED0
330
2
100
AcDbEntity
  8
0
  6
Continuous
 62
     7
100
AcDbLine
 10
2130.50004845952
 20
25.5358855395516
 30
0.0
 11
2132.500048459517
 21
24.99998715468974
 31
0.0
  0
LINE
  5
ED1
330
2
100
AcDbEntity
  8
0
  6
Continuous
 62
     7
100
AcDbLine
 10
2153.500048459509
 20
24.99998715469292
 30
0.0
 11
2155.500048459508
 21
25.53588553955478
 31
0.0
  0
LINE
  5
ED2
330
2
100
AcDbEntity
  8
0
  6
Continuous
 62
     7
100
AcDbLine
 10
2137.500048459516
 20
26.99998715436186
 30
0.0
 11
2137.500048459516
 21
26.4999871546911
 31
0.0
  0
LINE
  5
ED3
330
2
100
AcDbEntity
  8
0
  6
Continuous
 62
     7
100
AcDbLine
 10
2148.500048459512
 20
26.49998715469292
 30
0.0
 11
2148.500048459512
 21
26.99998715436368
 31
0.0
  0
LINE
  5
ED4
330
2
100
AcDbEntity
  8
0
  6
Continuous
 62
     7
100
AcDbLine
 10
2153.500048459503
 20
62.6999871546891
 30
0.0
 11
2153.200048459504
 21
62.99998715468928
 31
0.0
  0
LINE
  5
ED5
330
2
100
AcDbEntity
  8
0
  6
Continuous
 62
     7
100
AcDbLine
 10
2128.800048459513
 20
62.9999871546861
 30
0.0
 11
2128.500048459516
 21
62.699987154685
 31
0.0
  0
LINE
  5
ED6
330
2
100
AcDbEntity
  8
0
  6
Continuous
 62
     7
100
AcDbLine
 10
2153.500048459505
 20
56.99998715468928
 30
0.0
 11
2153.500048459503
 21
62.6999871546891
 31
0.0
  0
LINE
  5
ED7
330
2
100
AcDbEntity
  8
0
  6
Continuous
 62
     7
100
AcDbLine
 10
2128.500048459516
 20
62.699987154685
 30
0.0
 11
2128.500048459516
 21
56.99998715468473
 31
0.0
  0
ARC
  5
ED8
330
2
100
AcDbEntity
  8
0
  6
Continuous
 62
     7
100
AcDbCircle
 10
2131.000048459514
 20
42.49998715468928
 30
0.0
 40
0.5000000000001671
100
AcDbArc
 50
89.99999999979156
 51
179.9999999999218
  0
ARC
  5
ED9
330
2
100
AcDbEntity
  8
0
  6
Continuous
 62
     7
100
AcDbCircle
 10
2155.000048459509
 20
42.49998715469291
 30
0.0
 40
0.4999999999997229
100
AcDbArc
 50
0.0
 51
90.00000000010421
  0
LINE
  5
EDA
330
2
100
AcDbEntity
  8
0
  6
Continuous
 62
     7
100
AcDbLine
 10
2130.500048459518
 20
42.49998715468928
 30
0.0
 11
2130.500048459518
 21
40.14998715468983
 31
0.0
  0
LINE
  5
EDB
330
2
100
AcDbEntity
  8
0
  6
Continuous
 62
     7
100
AcDbLine
 10
2155.500048459506
 20
40.14998715469255
 30
0.0
 11
2155.500048459506
 21
42.49998715469291
 31
0.0
  0
LINE
  5
EDC
330
2
100
AcDbEntity
  8
0
  6
Continuous
 62
     7
100
AcDbLine
 10
2130.50004845952
 20
29.84998715468919
 30
0.0
 11
2130.50004845952
 21
27.49998715468974
 31
0.0
  0
LINE
  5
EDD
330
2
100
AcDbEntity
  8
0
  6
Continuous
 62
     7
100
AcDbLine
 10
2155.500048459508
 20
27.49998715469292
 30
0.0
 11
2155.500048459508
 21
29.84998715469283
 31
0.0
  0
ARC
  5
EDE
330
2
100
AcDbEntity
  8
0
  6
Continuous
 62
     7
100
AcDbCircle
 10
2155.00004845951
 20
27.49998715469292
 30
0.0
 40
0.5000000000001671
100
AcDbArc
 50
269.9999999998958
 51
0.0
  0
ARC
  5
EDF
330
2
100
AcDbEntity
  8
0
  6
Continuous
 62
     7
100
AcDbCircle
 10
2131.000048459514
 20
27.49998715468974
 30
0.0
 40
0.4999999999988347
100
AcDbArc
 50
180.0
 51
270.0000000001042
  0
ARC
  5
EE0
330
2
100
AcDbEntity
  8
0
  6
Continuous
 62
     7
100
AcDbCircle
 10
2154.500048459508
 20
38.64998715469255
 30
0.0
 40
1.500000000000055
100
AcDbArc
 50
90.0
 51
180.0
  0
ARC
  5
EE1
330
2
100
AcDbEntity
  8
0
  6
Continuous
 62
     7
100
AcDbCircle
 10
2131.500048459516
 20
38.64998715468983
 30
0.0
 40
1.500000000000055
100
AcDbArc
 50
0.0000000000260551
 51
90.0
  0
ARC
  5
EE2
330
2
100
AcDbEntity
  8
0
  6
Continuous
 62
     7
100
AcDbCircle
 10
2154.500048459509
 20
31.34998715469283
 30
0.0
 40
1.500000000000055
100
AcDbArc
 50
180.0
 51
270.0
  0
ARC
  5
EE3
330
2
100
AcDbEntity
  8
0
  6
Continuous
 62
     7
100
AcDbCircle
 10
2131.500048459516
 20
31.34998715468964
 30
0.0
 40
1.500000000000055
100
AcDbArc
 50
270.0
 51
0.0
  0
LINE
  5
EE4
330
2
100
AcDbEntity
  8
0
  6
Continuous
 62
     7
100
AcDbLine
 10
2153.000048459508
 20
31.34998715469192
 30
0.0
 11
2153.000048459507
 21
38.64998715469255
 31
0.0
  0
LINE
  5
EE5
330
2
100
AcDbEntity
  8
0
  6
Continuous
 62
     7
100
AcDbLine
 10
2133.000048459518
 20
38.64998715468983
 30
0.0
 11
2133.000048459518
 21
31.34998715468964
 31
0.0
  0
LINE
  5
EE6
330
2
100
AcDbEntity
  8
0
  6
Continuous
 62
     7
100
AcDbLine
 10
2155.500048459508
 20
43.49998715469292
 30
0.0
 11
2155.500048459506
 21
46.99998715469291
 31
0.0
  0
LINE
  5
EE7
330
2
100
AcDbEntity
  8
0
  6
Continuous
 62
     7
100
AcDbLine
 10
2130.500048459513
 20
46.99998715468928
 30
0.0
 11
2130.500048459513
 21
43.49998715468973
 31
0.0
  0
ARC
  5
EE8
330
2
100
AcDbEntity
  8
0
  6
Continuous
 62
     7
100
AcDbCircle
 10
2136.50004845951
 20
42.99998715468973
 30
0.0
 40
0.5000000000001671
100
AcDbArc
 50
359.9999999999218
 51
89.99999999979156
  0
ARC
  5
EE9
330
2
100
AcDbEntity
  8
0
  6
Continuous
 62
     7
100
AcDbCircle
 10
2149.50004845951
 20
42.999987154692
 30
0.0
 40
0.5000000000006111
100
AcDbArc
 50
90.00000000010421
 51
180.0
  0
LINE
  5
EEA
330
2
100
AcDbEntity
  8
0
  6
Continuous
 62
     7
100
AcDbLine
 10
2244.00004847578
 20
13.99998715514493
 30
0.0
 11
2244.000048475685
 21
12.99998715514493
 31
0.0
  0
LINE
  5
EEB
330
2
100
AcDbEntity
  8
0
  6
Continuous
 62
     7
100
AcDbLine
 10
2268.000048475684
 20
12.99998715282527
 30
0.0
 11
2268.000048475781
 21
13.99998715282527
 31
0.0
  0
LINE
  5
EEC
330
2
100
AcDbEntity
  8
0
  6
Continuous
 62
     7
100
AcDbLine
 10
2265.50004847604
 20
21.99998715429092
 30
0.0
 11
2265.500048476008
 21
22.99998715429092
 31
0.0
  0
LINE
  5
EED
330
2
100
AcDbEntity
  8
0
  6
Continuous
 62
     7
100
AcDbLine
 10
2246.500048476006
 20
22.99998715367156
 30
0.0
 11
2246.50004847604
 21
21.99998715367156
 31
0.0
  0
LINE
  5
EEE
330
2
100
AcDbEntity
  8
0
  6
Continuous
 62
     7
100
AcDbLine
 10
2246.000048475342
 20
29.999987153029
 30
0.0
 11
2246.000048476008
 21
22.99998715302991
 31
0.0
  0
LINE
  5
EEF
330
2
100
AcDbEntity
  8
0
  6
Continuous
 62
     7
100
AcDbLine
 10
2266.000048476008
 20
22.99998715493257
 30
0.0
 11
2266.000048475341
 21
29.99998715493394
 31
0.0
  0
LINE
  5
EF0
330
2
100
AcDbEntity
  8
0
  6
Continuous
 62
     7
100
AcDbLine
 10
2268.000048475718
 20
11.99998715360061
 30
0.0
 11
2268.000048475751
 21
12.9999871535997
 31
0.0
  0
LINE
  5
EF1
330
2
100
AcDbEntity
  8
0
  6
Continuous
 62
     7
100
AcDbLine
 10
2244.000048475752
 20
12.99998715436868
 30
0.0
 11
2244.000048475719
 21
11.99998715437004
 31
0.0
  0
LINE
  5
EF2
330
2
100
AcDbEntity
  8
0
  6
Continuous
 62
     7
100
AcDbLine
 10
2243.500048473598
 20
6.299987155174676
 30
0.0
 11
2243.800048473568
 21
5.99998715514539
 31
0.0
  0
LINE
  5
EF3
330
2
100
AcDbEntity
  8
0
  6
Continuous
 62
     7
100
AcDbLine
 10
2268.200048473568
 20
5.999987152823905
 30
0.0
 11
2268.500048473597
 21
6.299987152794528
 31
0.0
  0
LINE
  5
EF4
330
2
100
AcDbEntity
  8
0
  6
Continuous
 62
     7
100
AcDbLine
 10
2243.500048474141
 20
11.99998715517358
 30
0.0
 11
2243.500048473598
 21
6.299987155174676
 31
0.0
  0
LINE
  5
EF5
330
2
100
AcDbEntity
  8
0
  6
Continuous
 62
     7
100
AcDbLine
 10
2268.500048473597
 20
6.299987152794528
 30
0.0
 11
2268.500048474139
 21
11.99998715279434
 31
0.0
  0
LINE
  5
EF6
330
2
100
AcDbEntity
  8
0
  6
Continuous
 62
     7
100
AcDbLine
 10
2744.000048478335
 20
13.99998715400306
 30
0.0
 11
2744.000048478332
 21
12.99998715400306
 31
0.0
  0
LINE
  5
EF7
330
2
100
AcDbEntity
  8
0
  6
Continuous
 62
     7
100
AcDbLine
 10
2768.000048478333
 20
12.99998715396714
 30
0.0
 11
2768.000048478335
 21
13.99998715396759
 31
0.0
  0
LINE
  5
EF8
330
2
100
AcDbEntity
  8
0
  6
Continuous
 62
     7
100
AcDbLine
 10
2765.500048477832
 20
21.99998715519587
 30
0.0
 11
2765.500048477706
 21
22.9999871551945
 31
0.0
  0
LINE
  5
EF9
330
2
100
AcDbEntity
  8
0
  6
Continuous
 62
     7
100
AcDbLine
 10
2746.500048477704
 20
22.99998715276752
 30
0.0
 11
2746.500048477833
 21
21.99998715276752
 31
0.0
  0
LINE
  5
EFA
330
2
100
AcDbEntity
  8
0
  6
Continuous
 62
     7
100
AcDbLine
 10
2746.000048476373
 20
29.99998715207812
 30
0.0
 11
2746.000048477706
 21
22.99998715207676
 31
0.0
  0
LINE
  5
EFB
330
2
100
AcDbEntity
  8
0
  6
Continuous
 62
     7
100
AcDbLine
 10
2766.000048477706
 20
22.99998715588481
 30
0.0
 11
2766.000048476373
 21
29.99998715588481
 31
0.0
  0
LINE
  5
EFC
330
2
100
AcDbEntity
  8
0
  6
Continuous
 62
     7
100
AcDbLine
 10
2768.000048478463
 20
11.99998715474294
 30
0.0
 11
2768.000048478401
 21
12.99998715474294
 31
0.0
  0
LINE
  5
EFD
330
2
100
AcDbEntity
  8
0
  6
Continuous
 62
     7
100
AcDbLine
 10
2744.000048478402
 20
12.99998715322681
 30
0.0
 11
2744.000048478464
 21
11.99998715322772
 31
0.0
  0
LINE
  5
EFE
330
2
100
AcDbEntity
  8
0
  6
Continuous
 62
     7
100
AcDbLine
 10
2743.500048476886
 20
6.299987153985966
 30
0.0
 11
2743.800048476887
 21
5.999987153984875
 31
0.0
  0
LINE
  5
EFF
330
2
100
AcDbEntity
  8
0
  6
Continuous
 62
     7
100
AcDbLine
 10
2768.200048476886
 20
5.999987153984875
 30
0.0
 11
2768.500048476886
 21
6.299987153985966
 31
0.0
  0
LINE
  5
F00
330
2
100
AcDbEntity
  8
0
  6
Continuous
 62
     7
100
AcDbLine
 10
2743.500048476886
 20
11.99998715398487
 30
0.0
 11
2743.500048476886
 21
6.299987153985966
 31
0.0
  0
LINE
  5
F01
330
2
100
AcDbEntity
  8
0
  6
Continuous
 62
     7
100
AcDbLine
 10
2768.500048476886
 20
6.299987153985966
 30
0.0
 11
2768.500048476886
 21
11.99998715398487
 31
0.0
  0
LINE
  5
F02
330
2
100
AcDbEntity
  8
0
  6
Continuous
 62
     7
100
AcDbLine
 10
2212.500048461095
 20
46.49998708661178
 30
0.0
 11
2212.500048461288
 21
47.99998708661178
 31
0.0
  0
LINE
  5
F03
330
2
100
AcDbEntity
  8
0
  6
Continuous
 62
     7
100
AcDbLine
 10
2201.500048461288
 20
47.99998708802422
 30
0.0
 11
2201.500048461094
 21
46.49998708802423
 31
0.0
  0
LINE
  5
F04
330
2
100
AcDbEntity
  8
0
  6
Continuous
 62
     7
100
AcDbLine
 10
2199.500048459627
 20
22.49998708715475
 30
0.0
 11
2199.500048459627
 21
21.9999871558266
 31
0.0
  0
LINE
  5
F05
330
2
100
AcDbEntity
  8
0
  6
Continuous
 62
     7
100
AcDbLine
 10
2210.500048459627
 20
21.9999871558266
 30
0.0
 11
2210.500048459627
 21
22.4999870864549
 31
0.0
  0
LINE
  5
F06
330
2
100
AcDbEntity
  8
0
  6
Continuous
 62
     7
100
AcDbLine
 10
2190.500048461951
 20
58.49998708836756
 30
0.0
 11
2191.12504846191
 21
57.87498708832799
 31
0.0
  0
LINE
  5
F07
330
2
100
AcDbEntity
  8
0
  6
Continuous
 62
     7
100
AcDbLine
 10
2191.12504846191
 20
57.87498708832799
 30
0.0
 11
2191.500048461888
 21
57.49998708830481
 31
0.0
  0
LINE
  5
F08
330
2
100
AcDbEntity
  8
0
  6
Continuous
 62
     7
100
AcDbLine
 10
2197.500048461888
 20
57.49998708792282
 30
0.0
 11
2197.875048461911
 21
57.87498708789872
 31
0.0
  0
LINE
  5
F09
330
2
100
AcDbEntity
  8
0
  6
Continuous
 62
     7
100
AcDbLine
 10
2197.875048461911
 20
57.87498708789872
 30
0.0
 11
2198.500048461951
 21
58.4999870878587
 31
0.0
  0
LINE
  5
F0A
330
2
100
AcDbEntity
  8
0
  6
Continuous
 62
     7
100
AcDbLine
 10
2190.500048462398
 20
65.49998708836756
 30
0.0
 11
2190.50004846227
 21
63.5000064508049
 31
0.0
  0
LINE
  5
F0B
330
2
100
AcDbEntity
  8
0
  6
Continuous
 62
     7
100
AcDbLine
 10
2198.500048462268
 20
63.500006450809
 30
0.0
 11
2198.500048462396
 21
65.4999870878587
 31
0.0
  0
LINE
  5
F0C
330
2
100
AcDbEntity
  8
0
  6
Continuous
 62
     7
100
AcDbLine
 10
2215.500048496147
 20
58.49998708677777
 30
0.0
 11
2216.125048496107
 21
57.8749870867382
 31
0.0
  0
LINE
  5
F0D
330
2
100
AcDbEntity
  8
0
  6
Continuous
 62
     7
100
AcDbLine
 10
2216.125048496107
 20
57.8749870867382
 30
0.0
 11
2216.500048496084
 21
57.49998708671501
 31
0.0
  0
LINE
  5
F0E
330
2
100
AcDbEntity
  8
0
  6
Continuous
 62
     7
100
AcDbLine
 10
2222.500048496082
 20
57.49998708633211
 30
0.0
 11
2222.875048496108
 21
57.87498708630891
 31
0.0
  0
LINE
  5
F0F
330
2
100
AcDbEntity
  8
0
  6
Continuous
 62
     7
100
AcDbLine
 10
2222.875048496108
 20
57.87498708630891
 30
0.0
 11
2223.500048496147
 21
58.49998708626845
 31
0.0
  0
LINE
  5
F10
330
2
100
AcDbEntity
  8
0
  6
Continuous
 62
     7
100
AcDbLine
 10
2215.500048496592
 20
65.49998708677776
 30
0.0
 11
2215.500048496465
 21
63.50000645803266
 31
0.0
  0
LINE
  5
F11
330
2
100
AcDbEntity
  8
0
  6
Continuous
 62
     7
100
AcDbLine
 10
2223.500048496465
 20
63.50000644033662
 30
0.0
 11
2223.500048496592
 21
65.49998708626844
 31
0.0
  0
ARC
  5
F12
330
2
100
AcDbEntity
  8
0
  6
Continuous
 62
     9
100
AcDbCircle
 10
32.00004832450031
 20
1537.499987197924
 30
0.0
 40
3.000000000000113
100
AcDbArc
 50
270.0000000036477
 51
180.0000000036737
  0
LINE
  5
F13
330
2
100
AcDbEntity
  8
0
  6
Continuous
 62
     9
100
AcDbLine
 10
25.00004833249841
 20
1692.499987198572
 30
0.0
 11
25.00004833104867
 21
1677.499987198292
 31
0.0
  0
LINE
  5
F14
330
2
100
AcDbEntity
  8
0
  6
Continuous
 62
     7
100
AcDbLine
 10
22.50004833249841
 20
1692.499987198815
 30
0.0
 11
22.50004833104867
 21
1677.499987198535
 31
0.0
  0
LINE
  5
F15
330
2
100
AcDbEntity
  8
0
  6
Continuous
 62
     9
100
AcDbLine
 10
25.00004833104867
 20
1677.499987198292
 30
0.0
 11
25.00004832958803
 21
1662.499987198572
 31
0.0
  0
LINE
  5
F16
330
2
100
AcDbEntity
  8
0
  6
Continuous
 62
     7
100
AcDbLine
 10
22.50004833104867
 20
1677.499987198535
 30
0.0
 11
22.50004832958802
 21
1662.499987198815
 31
0.0
  0
LINE
  5
F17
330
2
100
AcDbEntity
  8
0
  6
Continuous
 62
     7
100
AcDbLine
 10
25.5000483324493
 20
1691.999987198524
 30
0.0
 11
25.50004833104868
 21
1677.499987198253
 31
0.0
  0
LINE
  5
F18
330
2
100
AcDbEntity
  8
0
  6
Continuous
 62
     7
100
AcDbLine
 10
25.50004833104868
 20
1677.499987198253
 30
0.0
 11
25.50004832963896
 21
1662.999987198524
 31
0.0
  0
LINE
  5
F19
330
2
100
AcDbEntity
  8
0
  6
Continuous
 62
     7
100
AcDbLine
 10
25.50004833167804
 20
1667.499987198336
 30
0.0
 11
32.00004833433923
 21
1667.49998719812
 31
0.0
  0
LINE
  5
F1A
330
2
100
AcDbEntity
  8
0
  6
Continuous
 62
     7
100
AcDbLine
 10
25.50004833234925
 20
1687.499987198337
 30
0.0
 11
32.00004833500861
 21
1687.499987198119
 31
0.0
  0
CIRCLE
  5
F1B
330
2
100
AcDbEntity
  8
0
  6
Continuous
 62
     7
100
AcDbCircle
 10
52.00004833466846
 20
1677.499987197244
 30
0.0
 40
15.10000000000011
  0
LINE
  5
F1C
330
2
100
AcDbEntity
  8
0
  6
Continuous
 62
     7
100
AcDbLine
 10
32.00004833533785
 20
1697.499987197914
 30
0.0
 11
72.00004833534876
 21
1697.499987196574
 31
0.0
  0
LINE
  5
F1D
330
2
100
AcDbEntity
  8
0
  6
Continuous
 62
     7
100
AcDbLine
 10
72.00004833534876
 20
1697.499987196574
 30
0.0
 11
72.00004833399908
 21
1657.499987196574
 31
0.0
  0
LINE
  5
F1E
330
2
100
AcDbEntity
  8
0
  6
Continuous
 62
     7
100
AcDbLine
 10
72.00004833399908
 20
1657.499987196574
 30
0.0
 11
32.00004833399908
 21
1657.499987197914
 31
0.0
  0
LINE
  5
F1F
330
2
100
AcDbEntity
  8
0
  6
Continuous
 62
     7
100
AcDbLine
 10
32.00004833399908
 20
1657.499987197914
 30
0.0
 11
32.00004833533785
 21
1697.499987197914
 31
0.0
  0
LINE
  5
F20
330
2
100
AcDbEntity
  8
0
  6
Continuous
 62
     7
100
AcDbLine
 10
48.75004833492858
 20
1670.999987196928
 30
0.0
 11
55.25004833492857
 21
1670.999987196812
 31
0.0
  0
ARC
  5
F21
330
2
100
AcDbEntity
  8
0
  6
Continuous
 62
     7
100
AcDbCircle
 10
48.75004833487946
 20
1667.999987196928
 30
0.0
 40
3.000000000000113
100
AcDbArc
 50
89.99999999895779
 51
179.9999999989838
  0
ARC
  5
F22
330
2
100
AcDbEntity
  8
0
  6
Continuous
 62
     7
100
AcDbCircle
 10
48.75004833487946
 20
1667.999987196928
 30
0.0
 40
3.000000000000113
100
AcDbArc
 50
179.9999999989838
 51
269.9999999989578
  0
LINE
  5
F23
330
2
100
AcDbEntity
  8
0
  6
Continuous
 62
     7
100
AcDbLine
 10
55.25004833481762
 20
1664.999987196812
 30
0.0
 11
48.75004833481762
 21
1664.999987196928
 31
0.0
  0
ARC
  5
F24
330
2
100
AcDbEntity
  8
0
  6
Continuous
 62
     7
100
AcDbCircle
 10
55.25004833487947
 20
1667.999987196812
 30
0.0
 40
3.000000000000113
100
AcDbArc
 50
269.9999999989578
 51
359.9999999989839
  0
ARC
  5
F25
330
2
100
AcDbEntity
  8
0
  6
Continuous
 62
     7
100
AcDbCircle
 10
55.25004833487947
 20
1667.999987196812
 30
0.0
 40
3.000000000000113
100
AcDbArc
 50
359.9999999989839
 51
89.99999999895779
  0
LINE
  5
F26
330
2
100
AcDbEntity
  8
0
  6
Continuous
 62
     7
100
AcDbLine
 10
48.75004833526691
 20
1689.999987196928
 30
0.0
 11
55.25004833526691
 21
1689.999987196812
 31
0.0
  0
ARC
  5
F27
330
2
100
AcDbEntity
  8
0
  6
Continuous
 62
     7
100
AcDbCircle
 10
48.7500483352178
 20
1686.999987196928
 30
0.0
 40
3.000000000000113
100
AcDbArc
 50
89.99999999895779
 51
179.9999999989838
  0
ARC
  5
F28
330
2
100
AcDbEntity
  8
0
  6
Continuous
 62
     7
100
AcDbCircle
 10
48.7500483352178
 20
1686.999987196928
 30
0.0
 40
3.000000000000113
100
AcDbArc
 50
179.9999999989838
 51
269.9999999989578
  0
LINE
  5
F29
330
2
100
AcDbEntity
  8
0
  6
Continuous
 62
     7
100
AcDbLine
 10
55.25004833515959
 20
1683.999987196812
 30
0.0
 11
48.75004833515959
 21
1683.999987196928
 31
0.0
  0
ARC
  5
F2A
330
2
100
AcDbEntity
  8
0
  6
Continuous
 62
     7
100
AcDbCircle
 10
55.2500483352178
 20
1686.999987196812
 30
0.0
 40
3.000000000000113
100
AcDbArc
 50
269.9999999989578
 51
359.9999999989839
  0
ARC
  5
F2B
330
2
100
AcDbEntity
  8
0
  6
Continuous
 62
     7
100
AcDbCircle
 10
55.2500483352178
 20
1686.999987196812
 30
0.0
 40
2.99999999999989
100
AcDbArc
 50
359.9999999989839
 51
89.99999999895779
  0
CIRCLE
  5
F2C
330
2
100
AcDbEntity
  8
0
  6
Continuous
 62
     7
100
AcDbCircle
 10
52.00004833504863
 20
1677.49998719687
 30
0.0
 40
14.9999999999999
  0
LINE
  5
F2D
330
2
100
AcDbEntity
  8
0
  6
Continuous
 62
     9
100
AcDbLine
 10
25.00004838967834
 20
3392.499987198573
 30
0.0
 11
25.00004838822861
 21
3377.499987198292
 31
0.0
  0
LINE
  5
F2E
330
2
100
AcDbEntity
  8
0
  6
Continuous
 62
     7
100
AcDbLine
 10
22.50004838967834
 20
3392.499987198815
 30
0.0
 11
22.50004838822861
 21
3377.499987198535
 31
0.0
  0
LINE
  5
F2F
330
2
100
AcDbEntity
  8
0
  6
Continuous
 62
     9
100
AcDbLine
 10
25.00004838822861
 20
3377.499987198292
 30
0.0
 11
25.00004838676796
 21
3362.499987198573
 31
0.0
  0
LINE
  5
F30
330
2
100
AcDbEntity
  8
0
  6
Continuous
 62
     7
100
AcDbLine
 10
22.50004838822861
 20
3377.499987198535
 30
0.0
 11
22.50004838677887
 21
3362.499987198815
 31
0.0
  0
LINE
  5
F31
330
2
100
AcDbEntity
  8
0
  6
Continuous
 62
     7
100
AcDbLine
 10
25.50004838962923
 20
3391.999987198524
 30
0.0
 11
25.50004838822861
 21
3377.499987198253
 31
0.0
  0
LINE
  5
F32
330
2
100
AcDbEntity
  8
0
  6
Continuous
 62
     7
100
AcDbLine
 10
25.50004838822861
 20
3377.499987198253
 30
0.0
 11
25.50004838681707
 21
3362.999987198524
 31
0.0
  0
LINE
  5
F33
330
2
100
AcDbEntity
  8
0
  6
Continuous
 62
     7
100
AcDbLine
 10
25.50004838885798
 20
3367.499987198338
 30
0.0
 11
32.00004839151734
 21
3367.499987198119
 31
0.0
  0
LINE
  5
F34
330
2
100
AcDbEntity
  8
0
  6
Continuous
 62
     7
100
AcDbLine
 10
25.50004838953828
 20
3387.499987198338
 30
0.0
 11
32.00004839218855
 21
3387.49998719812
 31
0.0
  0
CIRCLE
  5
F35
330
2
100
AcDbEntity
  8
0
  6
Continuous
 62
     7
100
AcDbCircle
 10
52.00004839185021
 20
3377.499987197244
 30
0.0
 40
15.09999999999989
  0
LINE
  5
F36
330
2
100
AcDbEntity
  8
0
  6
Continuous
 62
     7
100
AcDbLine
 10
32.00004839251779
 20
3397.499987197914
 30
0.0
 11
72.00004839251779
 21
3397.499987196574
 31
0.0
  0
LINE
  5
F37
330
2
100
AcDbEntity
  8
0
  6
Continuous
 62
     7
100
AcDbLine
 10
72.00004839251779
 20
3397.499987196574
 30
0.0
 11
72.0000483911881
 21
3357.499987196574
 31
0.0
  0
LINE
  5
F38
330
2
100
AcDbEntity
  8
0
  6
Continuous
 62
     7
100
AcDbLine
 10
72.0000483911881
 20
3357.499987196574
 30
0.0
 11
32.0000483911881
 21
3357.499987197914
 31
0.0
  0
LINE
  5
F39
330
2
100
AcDbEntity
  8
0
  6
Continuous
 62
     7
100
AcDbLine
 10
32.0000483911881
 20
3357.499987197914
 30
0.0
 11
32.00004839251779
 21
3397.499987197914
 31
0.0
  0
LINE
  5
F3A
330
2
100
AcDbEntity
  8
0
  6
Continuous
 62
     7
100
AcDbLine
 10
48.75004839210851
 20
3370.999987196928
 30
0.0
 11
55.25004839210851
 21
3370.999987196813
 31
0.0
  0
ARC
  5
F3B
330
2
100
AcDbEntity
  8
0
  6
Continuous
 62
     7
100
AcDbCircle
 10
48.75004839205757
 20
3367.999987196928
 30
0.0
 40
3.000000000000113
100
AcDbArc
 50
89.99999999895779
 51
179.9999999989838
  0
ARC
  5
F3C
330
2
100
AcDbEntity
  8
0
  6
Continuous
 62
     7
100
AcDbCircle
 10
48.75004839205757
 20
3367.999987196928
 30
0.0
 40
2.99999999999989
100
AcDbArc
 50
179.9999999989838
 51
269.9999999989578
  0
LINE
  5
F3D
330
2
100
AcDbEntity
  8
0
  6
Continuous
 62
     7
100
AcDbLine
 10
55.25004839199937
 20
3364.999987196812
 30
0.0
 11
48.75004839200847
 21
3364.999987196928
 31
0.0
  0
ARC
  5
F3E
330
2
100
AcDbEntity
  8
0
  6
Continuous
 62
     7
100
AcDbCircle
 10
55.25004839205758
 20
3367.999987196812
 30
0.0
 40
3.000000000000113
100
AcDbArc
 50
269.9999999989578
 51
359.9999999989839
  0
ARC
  5
F3F
330
2
100
AcDbEntity
  8
0
  6
Continuous
 62
     7
100
AcDbCircle
 10
55.25004839205758
 20
3367.999987196812
 30
0.0
 40
2.99999999999989
100
AcDbArc
 50
359.9999999989839
 51
89.99999999895779
  0
LINE
  5
F40
330
2
100
AcDbEntity
  8
0
  6
Continuous
 62
     7
100
AcDbLine
 10
48.75004839244866
 20
3389.999987196928
 30
0.0
 11
55.25004839244866
 21
3389.999987196812
 31
0.0
  0
ARC
  5
F41
330
2
100
AcDbEntity
  8
0
  6
Continuous
 62
     7
100
AcDbCircle
 10
48.75004839239955
 20
3386.999987196928
 30
0.0
 40
3.000000000000113
100
AcDbArc
 50
89.99999999895779
 51
179.9999999989838
  0
ARC
  5
F42
330
2
100
AcDbEntity
  8
0
  6
Continuous
 62
     7
100
AcDbCircle
 10
48.75004839239955
 20
3386.999987196928
 30
0.0
 40
2.99999999999989
100
AcDbArc
 50
179.9999999989838
 51
269.9999999989578
  0
LINE
  5
F43
330
2
100
AcDbEntity
  8
0
  6
Continuous
 62
     7
100
AcDbLine
 10
55.2500483923377
 20
3383.999987196812
 30
0.0
 11
48.75004839233771
 21
3383.999987196928
 31
0.0
  0
ARC
  5
F44
330
2
100
AcDbEntity
  8
0
  6
Continuous
 62
     7
100
AcDbCircle
 10
55.25004839239954
 20
3386.999987196812
 30
0.0
 40
3.000000000000113
100
AcDbArc
 50
269.9999999989578
 51
359.9999999989839
  0
ARC
  5
F45
330
2
100
AcDbEntity
  8
0
  6
Continuous
 62
     7
100
AcDbCircle
 10
55.25004839239954
 20
3386.999987196812
 30
0.0
 40
2.99999999999989
100
AcDbArc
 50
359.9999999989839
 51
89.99999999895779
  0
CIRCLE
  5
F46
330
2
100
AcDbEntity
  8
0
  6
Continuous
 62
     7
100
AcDbCircle
 10
52.00004839222856
 20
3377.49998719687
 30
0.0
 40
14.9999999999999
  0
ARC
  5
F47
330
2
100
AcDbEntity
  8
0
  6
Continuous
 62
     7
100
AcDbCircle
 10
759.0000483959702
 20
1677.499987244775
 30
0.0
 40
15.00000000000074
100
AcDbArc
 50
126.8698976765004
 51
233.1301023308106
  0
ARC
  5
F48
330
2
100
AcDbEntity
  8
0
  6
Continuous
 62
     9
100
AcDbCircle
 10
759.0000483959702
 20
1677.499987244838
 30
0.0
 40
14.50000000000002
100
AcDbArc
 50
43.60281898524422
 51
316.3971810398379
  0
LINE
  5
F49
330
2
100
AcDbEntity
  8
0
  6
Continuous
 62
     7
100
AcDbLine
 10
767.5000483960339
 20
1667.499987247133
 30
0.0
 11
767.5000483960139
 21
1687.499987247134
 31
0.0
  0
LINE
  5
F4A
330
2
100
AcDbEntity
  8
0
  6
Continuous
 62
     7
100
AcDbLine
 10
749.0000483960084
 20
1667.499987245955
 30
0.0
 11
749.0000483959866
 21
1687.499987245955
 31
0.0
  0
LINE
  5
F4B
330
2
100
AcDbEntity
  8
0
  6
Continuous
 62
     7
100
AcDbLine
 10
767.5000483960139
 20
1687.499987247134
 30
0.0
 11
749.0000483959866
 21
1687.499987245955
 31
0.0
  0
LINE
  5
F4C
330
2
100
AcDbEntity
  8
0
  6
Continuous
 62
     7
100
AcDbLine
 10
767.5000483960339
 20
1667.499987247133
 30
0.0
 11
749.0000483960084
 21
1667.499987245955
 31
0.0
  0
LINE
  5
F4D
330
2
100
AcDbEntity
  8
0
  6
Continuous
 62
     7
100
AcDbLine
 10
790.0000483960138
 20
1687.499987247156
 30
0.0
 11
767.5000483960139
 21
1687.499987247134
 31
0.0
  0
LINE
  5
F4E
330
2
100
AcDbEntity
  8
0
  6
Continuous
 62
     7
100
AcDbLine
 10
790.0000483960393
 20
1667.499987247157
 30
0.0
 11
767.5000483960339
 21
1667.499987247133
 31
0.0
  0
LINE
  5
F4F
330
2
100
AcDbEntity
  8
0
  6
Continuous
 62
     7
100
AcDbLine
 10
797.6420678381345
 20
1697.499987247505
 30
0.0
 11
790.0000483975182
 21
1697.499987247783
 31
0.0
  0
LINE
  5
F50
330
2
100
AcDbEntity
  8
0
  6
Continuous
 62
     7
100
AcDbLine
 10
790.000048396063
 20
1657.499987247783
 30
0.0
 11
790.0000483975182
 21
1697.499987247783
 31
0.0
  0
LINE
  5
F51
330
2
100
AcDbEntity
  8
0
  6
Continuous
 62
     7
100
AcDbLine
 10
797.6420678415871
 20
1657.499987247504
 30
0.0
 11
790.000048396063
 21
1657.499987247783
 31
0.0
  0
ARC
  5
F52
330
2
100
AcDbEntity
  8
0
  6
Continuous
 62
     7
100
AcDbCircle
 10
759.0000483938838
 20
3377.499987245406
 30
0.0
 40
14.99999999999981
100
AcDbArc
 50
126.8698976432645
 51
233.1301023568657
  0
ARC
  5
F53
330
2
100
AcDbEntity
  8
0
  6
Continuous
 62
     9
100
AcDbCircle
 10
759.0000483938838
 20
3377.499987245469
 30
0.0
 40
14.50000000000006
100
AcDbArc
 50
43.60281898524422
 51
316.3971810398379
  0
LINE
  5
F54
330
2
100
AcDbEntity
  8
0
  6
Continuous
 62
     7
100
AcDbLine
 10
767.5000483939511
 20
3367.499987247764
 30
0.0
 11
767.5000483939311
 21
3387.499987247764
 31
0.0
  0
LINE
  5
F55
330
2
100
AcDbEntity
  8
0
  6
Continuous
 62
     7
100
AcDbLine
 10
749.0000483939184
 20
3367.499987246586
 30
0.0
 11
749.0000483938984
 21
3387.499987246587
 31
0.0
  0
LINE
  5
F56
330
2
100
AcDbEntity
  8
0
  6
Continuous
 62
     7
100
AcDbLine
 10
767.5000483939311
 20
3387.499987247764
 30
0.0
 11
749.0000483938984
 21
3387.499987246587
 31
0.0
  0
LINE
  5
F57
330
2
100
AcDbEntity
  8
0
  6
Continuous
 62
     7
100
AcDbLine
 10
767.5000483939511
 20
3367.499987247764
 30
0.0
 11
749.0000483939184
 21
3367.499987246586
 31
0.0
  0
LINE
  5
F58
330
2
100
AcDbEntity
  8
0
  6
Continuous
 62
     7
100
AcDbLine
 10
790.0000483939311
 20
3387.499987247788
 30
0.0
 11
767.5000483939311
 21
3387.499987247764
 31
0.0
  0
LINE
  5
F59
330
2
100
AcDbEntity
  8
0
  6
Continuous
 62
     7
100
AcDbLine
 10
790.0000483939511
 20
3367.499987247788
 30
0.0
 11
767.5000483939511
 21
3367.499987247764
 31
0.0
  0
LINE
  5
F5A
330
2
100
AcDbEntity
  8
0
  6
Continuous
 62
     7
100
AcDbLine
 10
797.6420678431186
 20
3397.499987248136
 30
0.0
 11
790.0000483954317
 21
3397.499987248413
 31
0.0
  0
LINE
  5
F5B
330
2
100
AcDbEntity
  8
0
  6
Continuous
 62
     7
100
AcDbLine
 10
790.0000483939748
 20
3357.499987248413
 30
0.0
 11
790.0000483954317
 21
3397.499987248413
 31
0.0
  0
LINE
  5
F5C
330
2
100
AcDbEntity
  8
0
  6
Continuous
 62
     7
100
AcDbLine
 10
797.6420678440427
 20
3357.499987248136
 30
0.0
 11
790.0000483939748
 21
3357.499987248413
 31
0.0
  0
LINE
  5
F5D
330
2
100
AcDbEntity
  8
0
  6
Continuous
 62
     7
100
AcDbLine
 10
784.00004839159
 20
1657.499987245519
 30
0.0
 11
784.0000483909516
 21
1667.49998724715
 31
0.0
  0
LINE
  5
F5E
330
2
100
AcDbEntity
  8
0
  6
Continuous
 62
     7
100
AcDbLine
 10
784.00004839159
 20
1657.499987245519
 30
0.0
 11
790.000048396063
 21
1657.499987245904
 31
0.0
  0
LINE
  5
F5F
330
2
100
AcDbEntity
  8
0
  6
Continuous
 62
     9
100
AcDbLine
 10
783.5309359277544
 20
1657.499987245489
 30
0.0
 11
783.5309359271141
 21
1667.49998724715
 31
0.0
  0
LINE
  5
F60
330
2
100
AcDbEntity
  8
0
  6
Continuous
 62
     7
100
AcDbLine
 10
784.00004839159
 20
1657.499987245519
 30
0.0
 11
783.5309359277544
 21
1657.499987245489
 31
0.0
  0
LINE
  5
F61
330
2
100
AcDbEntity
  8
0
  6
Continuous
 62
     7
100
AcDbLine
 10
750.0000483915901
 20
1657.49998724334
 30
0.0
 11
750.0000483910789
 21
1665.499987248441
 31
0.0
  0
LINE
  5
F62
330
2
100
AcDbEntity
  8
0
  6
Continuous
 62
     7
100
AcDbLine
 10
750.0000483895419
 20
1689.499987239952
 30
0.0
 11
750.0000483890271
 21
1697.499987243341
 31
0.0
  0
LINE
  5
F63
330
2
100
AcDbEntity
  8
0
  6
Continuous
 62
     7
100
AcDbLine
 10
750.0000483890271
 20
1697.499987243341
 30
0.0
 11
783.0802900715534
 21
1697.49998724546
 31
0.0
  0
LINE
  5
F64
330
2
100
AcDbEntity
  8
0
  6
Continuous
 62
     7
100
AcDbLine
 10
783.0802900715534
 20
1697.49998724546
 30
0.0
 11
783.0802900721955
 21
1687.499987247148
 31
0.0
  0
LINE
  5
F65
330
2
100
AcDbEntity
  8
0
  6
Continuous
 62
     7
100
AcDbLine
 10
750.0000483915901
 20
1657.49998724334
 30
0.0
 11
783.5309359277544
 21
1657.499987245489
 31
0.0
  0
LINE
  5
F66
330
2
100
AcDbEntity
  8
0
  6
Continuous
 62
     7
100
AcDbLine
 10
783.0802900715534
 20
1697.49998724546
 30
0.0
 11
784.0000483890271
 21
1697.499987245519
 31
0.0
  0
LINE
  5
F67
330
2
100
AcDbEntity
  8
0
  6
Continuous
 62
     7
100
AcDbLine
 10
798.0000483890271
 20
1697.499987246415
 30
0.0
 11
798.0000483915901
 21
1657.499987246415
 31
0.0
  0
LINE
  5
F68
330
2
100
AcDbEntity
  8
0
  6
Continuous
 62
     7
100
AcDbLine
 10
800.0000483890271
 20
1697.499987246544
 30
0.0
 11
798.0000483890271
 21
1697.499987246415
 31
0.0
  0
LINE
  5
F69
330
2
100
AcDbEntity
  8
0
  6
Continuous
 62
     7
100
AcDbLine
 10
800.0000483890271
 20
1697.499987246544
 30
0.0
 11
800.0000483915901
 21
1657.499987246544
 31
0.0
  0
LINE
  5
F6A
330
2
100
AcDbEntity
  8
0
  6
Continuous
 62
     7
100
AcDbLine
 10
800.0000483915901
 20
1657.499987246544
 30
0.0
 11
798.0000483915901
 21
1657.499987246415
 31
0.0
  0
LINE
  5
F6B
330
2
100
AcDbEntity
  8
0
  6
Continuous
 62
     7
100
AcDbLine
 10
798.0000483890271
 20
1697.499987246415
 30
0.0
 11
797.6420678381345
 21
1697.499987246393
 31
0.0
  0
LINE
  5
F6C
330
2
100
AcDbEntity
  8
0
  6
Continuous
 62
     7
100
AcDbLine
 10
798.0000483915901
 20
1657.499987246415
 30
0.0
 11
797.6420678415871
 21
1657.499987246393
 31
0.0
  0
LINE
  5
F6D
330
2
100
AcDbEntity
  8
0
  6
Continuous
 62
     7
100
AcDbLine
 10
790.0000483890271
 20
1697.499987245902
 30
0.0
 11
784.0000483890271
 21
1697.499987245519
 31
0.0
  0
LINE
  5
F6E
330
2
100
AcDbEntity
  8
0
  6
Continuous
 62
     7
100
AcDbLine
 10
784.0000483944568
 20
3357.49998724714
 30
0.0
 11
784.0000483944477
 21
3367.499987247781
 31
0.0
  0
LINE
  5
F6F
330
2
100
AcDbEntity
  8
0
  6
Continuous
 62
     7
100
AcDbLine
 10
784.0000483944568
 20
3357.49998724714
 30
0.0
 11
790.0000483939748
 21
3357.499987247147
 31
0.0
  0
LINE
  5
F70
330
2
100
AcDbEntity
  8
0
  6
Continuous
 62
     9
100
AcDbLine
 10
783.5309359306229
 20
3357.49998724714
 30
0.0
 11
783.5309359306102
 21
3367.499987247781
 31
0.0
  0
LINE
  5
F71
330
2
100
AcDbEntity
  8
0
  6
Continuous
 62
     7
100
AcDbLine
 10
784.0000483944568
 20
3357.49998724714
 30
0.0
 11
783.5309359306229
 21
3357.49998724714
 31
0.0
  0
LINE
  5
F72
330
2
100
AcDbEntity
  8
0
  6
Continuous
 62
     7
100
AcDbLine
 10
750.0000483944586
 20
3357.499987247106
 30
0.0
 11
750.0000483944513
 21
3365.49998724498
 31
0.0
  0
LINE
  5
F73
330
2
100
AcDbEntity
  8
0
  6
Continuous
 62
     7
100
AcDbLine
 10
750.0000483944222
 20
3389.499987245813
 30
0.0
 11
750.0000483944168
 21
3397.499987247105
 31
0.0
  0
LINE
  5
F74
330
2
100
AcDbEntity
  8
0
  6
Continuous
 62
     7
100
AcDbLine
 10
750.0000483944168
 20
3397.499987247105
 30
0.0
 11
783.0802900769431
 21
3397.499987247139
 31
0.0
  0
LINE
  5
F75
330
2
100
AcDbEntity
  8
0
  6
Continuous
 62
     7
100
AcDbLine
 10
783.0802900769431
 20
3397.49998724714
 30
0.0
 11
783.0802900769504
 21
3387.49998724778
 31
0.0
  0
LINE
  5
F76
330
2
100
AcDbEntity
  8
0
  6
Continuous
 62
     7
100
AcDbLine
 10
750.0000483944586
 20
3357.499987247106
 30
0.0
 11
783.5309359306229
 21
3357.49998724714
 31
0.0
  0
LINE
  5
F77
330
2
100
AcDbEntity
  8
0
  6
Continuous
 62
     7
100
AcDbLine
 10
783.0802900769431
 20
3397.49998724714
 30
0.0
 11
784.0000483944186
 21
3397.499987247141
 31
0.0
  0
LINE
  5
F78
330
2
100
AcDbEntity
  8
0
  6
Continuous
 62
     7
100
AcDbLine
 10
798.0000483944167
 20
3397.499987247155
 30
0.0
 11
797.6420678431186
 21
3397.499987247154
 31
0.0
  0
LINE
  5
F79
330
2
100
AcDbEntity
  8
0
  6
Continuous
 62
     7
100
AcDbLine
 10
798.0000483944587
 20
3357.499987247155
 30
0.0
 11
797.6420678440427
 21
3357.499987247154
 31
0.0
  0
LINE
  5
F7A
330
2
100
AcDbEntity
  8
0
  6
Continuous
 62
     7
100
AcDbLine
 10
798.0000483944167
 20
3397.499987247155
 30
0.0
 11
798.0000483944587
 21
3357.499987247155
 31
0.0
  0
LINE
  5
F7B
330
2
100
AcDbEntity
  8
0
  6
Continuous
 62
     7
100
AcDbLine
 10
800.0000483944186
 20
3397.499987247157
 30
0.0
 11
798.0000483944167
 21
3397.499987247155
 31
0.0
  0
LINE
  5
F7C
330
2
100
AcDbEntity
  8
0
  6
Continuous
 62
     7
100
AcDbLine
 10
800.0000483944186
 20
3397.499987247157
 30
0.0
 11
800.0000483944567
 21
3357.499987247158
 31
0.0
  0
LINE
  5
F7D
330
2
100
AcDbEntity
  8
0
  6
Continuous
 62
     7
100
AcDbLine
 10
800.0000483944567
 20
3357.499987247158
 30
0.0
 11
798.0000483944587
 21
3357.499987247155
 31
0.0
  0
LINE
  5
F7E
330
2
100
AcDbEntity
  8
0
  6
Continuous
 62
     7
100
AcDbLine
 10
790.0000483944186
 20
3397.499987247146
 30
0.0
 11
784.0000483944186
 21
3397.499987247141
 31
0.0
  0
LINE
  5
F7F
330
2
100
AcDbEntity
  8
0
  6
Continuous
 62
     7
100
AcDbLine
 10
29.80004844247924
 20
3458.999987161914
 30
0.0
 11
29.80004844036739
 21
3486.499987161914
 31
0.0
  0
ARC
  5
F80
330
2
100
AcDbEntity
  8
0
  6
Continuous
 62
     7
100
AcDbCircle
 10
31.30004844247924
 20
3458.999987162029
 30
0.0
 40
1.500000000000055
100
AcDbArc
 50
180.0000000044033
 51
270.0000000043773
  0
LINE
  5
F81
330
2
100
AcDbEntity
  8
0
  6
Continuous
 62
     7
100
AcDbLine
 10
38.70004844259893
 20
3457.499987162595
 30
0.0
 11
38.50004843810893
 21
3457.49998716258
 31
0.0
  0
LINE
  5
F82
330
2
100
AcDbEntity
  8
0
  6
Continuous
 62
     7
100
AcDbLine
 10
38.50004843810893
 20
3457.49998716258
 30
0.0
 11
34.99714813025821
 21
3457.499987162312
 31
0.0
  0
LINE
  5
F83
330
2
100
AcDbEntity
  8
0
  6
Continuous
 62
     7
100
AcDbLine
 10
34.99714813025821
 20
3457.499987162312
 30
0.0
 11
31.50004843810894
 21
3457.499987162044
 31
0.0
  0
LINE
  5
F84
330
2
100
AcDbEntity
  8
0
  6
Continuous
 62
     7
100
AcDbLine
 10
31.50004843810894
 20
3457.499987162044
 30
0.0
 11
31.30004844259929
 21
3457.499987162029
 31
0.0
  0
ARC
  5
F85
330
2
100
AcDbEntity
  8
0
  6
Continuous
 62
     7
100
AcDbCircle
 10
38.70004844247887
 20
3458.999987162596
 30
0.0
 40
1.500000000000055
100
AcDbArc
 50
270.0000000043773
 51
0.0000000044033126
  0
LINE
  5
F86
330
2
100
AcDbEntity
  8
0
  6
Continuous
 62
     7
100
AcDbLine
 10
40.20004844037794
 20
3486.499987162711
 30
0.0
 11
40.20004844247887
 21
3458.999987162711
 31
0.0
  0
ARC
  5
F87
330
2
100
AcDbEntity
  8
0
  6
Continuous
 62
     7
100
AcDbCircle
 10
38.70004844037794
 20
3486.499987162595
 30
0.0
 40
1.500000000000055
100
AcDbArc
 50
0.0000000044033126
 51
90.00000000437726
  0
LINE
  5
F88
330
2
100
AcDbEntity
  8
0
  6
Continuous
 62
     7
100
AcDbLine
 10
31.30004844025825
 20
3487.999987162029
 30
0.0
 11
38.70004844025971
 21
3487.999987162595
 31
0.0
  0
ARC
  5
F89
330
2
100
AcDbEntity
  8
0
  6
Continuous
 62
     7
100
AcDbCircle
 10
31.30004844037831
 20
3486.499987162029
 30
0.0
 40
1.500000000000055
100
AcDbArc
 50
90.00000000437726
 51
180.0000000044033
  0
LINE
  5
F8A
330
2
100
AcDbEntity
  8
0
  6
Continuous
 62
     7
100
AcDbLine
 10
42.50004844267823
 20
3456.499987162886
 30
0.0
 11
42.50004843929855
 21
3500.499987162887
 31
0.0
  0
ARC
  5
F8B
330
2
100
AcDbEntity
  8
0
  6
Continuous
 62
     7
100
AcDbCircle
 10
41.50004844266914
 20
3456.499987162811
 30
0.0
 40
0.9999999999998896
100
AcDbArc
 50
270.0000000043773
 51
0.0000000043512024
  0
LINE
  5
F8C
330
2
100
AcDbEntity
  8
0
  6
Continuous
 62
     7
100
AcDbLine
 10
28.50004844274918
 20
3455.499987161814
 30
0.0
 11
41.50004844274917
 21
3455.499987162811
 31
0.0
  0
LINE
  5
F8D
330
2
100
AcDbEntity
  8
0
  6
Continuous
 62
     7
100
AcDbLine
 10
27.50004843929855
 20
3500.499987161737
 30
0.0
 11
27.50004844266914
 21
3456.499987161738
 31
0.0
  0
ARC
  5
F8E
330
2
100
AcDbEntity
  8
0
  6
Continuous
 62
     7
100
AcDbCircle
 10
28.50004843929855
 20
3500.499987161814
 30
0.0
 40
0.9999999999998896
100
AcDbArc
 50
90.00000000437726
 51
180.0000000043512
  0
LINE
  5
F8F
330
2
100
AcDbEntity
  8
0
  6
Continuous
 62
     7
100
AcDbLine
 10
41.50004843922943
 20
3501.49998716281
 30
0.0
 11
28.50004843922943
 21
3501.499987161814
 31
0.0
  0
ARC
  5
F90
330
2
100
AcDbEntity
  8
0
  6
Continuous
 62
     7
100
AcDbCircle
 10
41.50004843929855
 20
3500.49998716281
 30
0.0
 40
0.9999999999994455
100
AcDbArc
 50
0.0000000043772575
 51
90.00000000437726
  0
ARC
  5
F91
330
2
100
AcDbEntity
  8
0
  6
Continuous
 62
     7
100
AcDbCircle
 10
28.50004844266914
 20
3456.499987161814
 30
0.0
 40
0.9999999999994455
100
AcDbArc
 50
180.0000000044033
 51
270.0000000043773
  0
LINE
  5
F92
330
2
100
AcDbEntity
  8
0
  6
Continuous
 62
     7
100
AcDbLine
 10
40.00004843777787
 20
3458.999987162144
 30
0.0
 11
40.00004843868009
 21
3485.999987162144
 31
0.0
  0
LINE
  5
F93
330
2
100
AcDbEntity
  8
0
  6
Continuous
 62
     7
100
AcDbLine
 10
38.50004843771785
 20
3457.499987162194
 30
0.0
 11
40.00004843777787
 21
3458.999987162144
 31
0.0
  0
LINE
  5
F94
330
2
100
AcDbEntity
  8
0
  6
Continuous
 62
     7
100
AcDbLine
 10
31.50004843771785
 20
3457.499987162429
 30
0.0
 11
34.99714813025821
 21
3457.499987162312
 31
0.0
  0
LINE
  5
F95
330
2
100
AcDbEntity
  8
0
  6
Continuous
 62
     7
100
AcDbLine
 10
34.99714813025821
 20
3457.499987162312
 30
0.0
 11
38.50004843771785
 21
3457.499987162194
 31
0.0
  0
LINE
  5
F96
330
2
100
AcDbEntity
  8
0
  6
Continuous
 62
     7
100
AcDbLine
 10
30.0000484386801
 20
3485.999987162479
 30
0.0
 11
30.00004843777788
 21
3458.99998716248
 31
0.0
  0
LINE
  5
F97
330
2
100
AcDbEntity
  8
0
  6
Continuous
 62
     7
100
AcDbLine
 10
31.5000484387383
 20
3487.49998716243
 30
0.0
 11
30.0000484386801
 21
3485.999987162479
 31
0.0
  0
LINE
  5
F98
330
2
100
AcDbEntity
  8
0
  6
Continuous
 62
     7
100
AcDbLine
 10
38.50004843872921
 20
3487.499987162195
 30
0.0
 11
31.5000484387383
 21
3487.49998716243
 31
0.0
  0
LINE
  5
F99
330
2
100
AcDbEntity
  8
0
  6
Continuous
 62
     7
100
AcDbLine
 10
40.00004843868009
 20
3485.999987162144
 30
0.0
 11
38.50004843872921
 21
3487.499987162195
 31
0.0
  0
CIRCLE
  5
F9A
330
2
100
AcDbEntity
  8
0
  6
Continuous
 62
     7
100
AcDbCircle
 10
35.00004843850911
 20
3480.999987162312
 30
0.0
 40
2.650000000000041
  0
CIRCLE
  5
F9B
330
2
100
AcDbEntity
  8
0
  6
Continuous
 62
     7
100
AcDbCircle
 10
35.00004843793795
 20
3463.999987162311
 30
0.0
 40
2.650000000000041
  0
LINE
  5
F9C
330
2
100
AcDbEntity
  8
0
  6
Continuous
 62
     7
100
AcDbLine
 10
30.00004843777788
 20
3458.99998716248
 30
0.0
 11
31.50004843771785
 21
3457.499987162429
 31
0.0
  0
LINE
  5
F9D
330
2
100
AcDbEntity
  8
0
  6
Continuous
 62
     4
100
AcDbLine
 10
0.000048394278565
 20
3527.499987246307
 30
0.0
 11
14.00004839427856
 21
3527.499987246321
 31
0.0
  0
LINE
  5
F9E
330
2
100
AcDbEntity
  8
0
  6
Continuous
 62
     4
100
AcDbLine
 10
58.50004837459891
 20
3527.499987246367
 30
0.0
 11
800.0000483942821
 21
3527.499987247136
 31
0.0
  0
LINE
  5
F9F
330
2
100
AcDbEntity
  8
0
  6
Continuous
 62
     4
100
AcDbLine
 10
800.0000483963503
 20
1527.499987247135
 30
0.0
 11
800.0000483962177
 21
1657.499987246544
 31
0.0
  0
LINE
  5
FA0
330
2
100
AcDbEntity
  8
0
  6
Continuous
 62
     4
100
AcDbLine
 10
800.000048396174
 20
1697.499987246544
 30
0.0
 11
800.0000483944567
 21
3357.499987247158
 31
0.0
  0
LINE
  5
FA1
330
2
100
AcDbEntity
  8
0
  6
Continuous
 62
     4
100
AcDbLine
 10
800.0000483944186
 20
3397.499987247157
 30
0.0
 11
800.0000483942821
 21
3527.499987247136
 31
0.0
  0
LINE
  5
FA2
330
2
100
AcDbEntity
  8
0
  6
Continuous
 62
     4
100
AcDbLine
 10
0.0000483963594888
 20
1527.499987246307
 30
0.0
 11
0.000048394278565
 21
3527.499987246307
 31
0.0
  0
ARC
  5
FA3
330
2
100
AcDbEntity
  8
0
  6
Continuous
 62
     7
100
AcDbCircle
 10
24.50004834445826
 20
1546.499987201313
 30
0.0
 40
2.000000000000142
100
AcDbArc
 50
120.0000006829348
 51
150.000000131665
  0
LINE
  5
FA4
330
2
100
AcDbEntity
  8
0
  6
Continuous
 62
     9
100
AcDbLine
 10
43.25004834441824
 20
1546.499987198742
 30
0.0
 11
43.23209913143728
 21
1546.49998719874
 31
0.0
  0
LINE
  5
FA5
330
2
100
AcDbEntity
  8
0
  6
Continuous
 62
     7
100
AcDbLine
 10
43.25004834441824
 20
1546.499987198742
 30
0.0
 11
43.25004834440005
 21
1546.829143364517
 31
0.0
  0
LINE
  5
FA6
330
2
100
AcDbEntity
  8
0
  6
Continuous
 62
     7
100
AcDbLine
 10
43.25004834441824
 20
1546.499987198742
 30
0.0
 11
43.25004834442916
 21
1546.468232998151
 31
0.0
  0
LINE
  5
FA7
330
2
100
AcDbEntity
  8
0
  6
Continuous
 62
     7
100
AcDbLine
 10
43.25004834557875
 20
1528.531741399139
 30
0.0
 11
43.25004834563879
 21
1527.499987198742
 31
0.0
  0
LINE
  5
FA8
330
2
100
AcDbEntity
  8
0
  6
Continuous
 62
     9
100
AcDbLine
 10
56.800045710228
 20
1548.49998719612
 30
0.0
 11
56.80004570962956
 21
1530.499987199515
 31
0.0
  0
LINE
  5
FA9
330
2
100
AcDbEntity
  8
0
  6
Continuous
 62
     9
100
AcDbLine
 10
57.60004575707899
 20
1548.499987196093
 30
0.0
 11
57.60004575680977
 21
1540.599984659268
 31
0.0
  0
LINE
  5
FAA
330
2
100
AcDbEntity
  8
0
  6
Continuous
 62
     9
100
AcDbLine
 10
57.60004575660969
 20
1534.399989795813
 30
0.0
 11
57.60004575646781
 21
1530.499987199567
 31
0.0
  0
LINE
  5
FAB
330
2
100
AcDbEntity
  8
0
  6
Continuous
 62
     7
100
AcDbLine
 10
56.00004770979831
 20
1535.499987196145
 30
0.0
 11
56.00004770962915
 21
1530.499987199464
 31
0.0
  0
LINE
  5
FAC
330
2
100
AcDbEntity
  8
0
  6
Continuous
 62
     7
100
AcDbLine
 10
48.00004901789908
 20
1531.999987198951
 30
0.0
 11
48.00004970962982
 21
1530.499987198951
 31
0.0
  0
LINE
  5
FAD
330
2
100
AcDbEntity
  8
0
  6
Continuous
 62
     7
100
AcDbLine
 10
48.00004907059883
 20
1531.999987198951
 30
0.0
 11
48.00004981502934
 21
1530.499987198951
 31
0.0
  0
LINE
  5
FAE
330
2
100
AcDbEntity
  8
0
  6
Continuous
 62
     9
100
AcDbLine
 10
47.20004971022899
 20
1548.499987196441
 30
0.0
 11
47.200049710038
 21
1542.9999871989
 31
0.0
  0
LINE
  5
FAF
330
2
100
AcDbEntity
  8
0
  6
Continuous
 62
     9
100
AcDbLine
 10
47.20004970967965
 20
1531.9999871989
 30
0.0
 11
47.20004970962873
 21
1530.4999871989
 31
0.0
  0
LINE
  5
FB0
330
2
100
AcDbEntity
  8
0
  6
Continuous
 62
     7
100
AcDbLine
 10
46.4000497570687
 20
1548.499987196467
 30
0.0
 11
46.40004975705051
 21
1547.768096362576
 31
0.0
  0
LINE
  5
FB1
330
2
100
AcDbEntity
  8
0
  6
Continuous
 62
     7
100
AcDbLine
 10
57.60004648317954
 20
1548.499987196093
 30
0.0
 11
57.60004648290851
 21
1540.59998538537
 31
0.0
  0
LINE
  5
FB2
330
2
100
AcDbEntity
  8
0
  6
Continuous
 62
     7
100
AcDbLine
 10
57.60004648270842
 20
1534.399989069711
 30
0.0
 11
57.60004648257927
 21
1530.499987199567
 31
0.0
  0
LINE
  5
FB3
330
2
100
AcDbEntity
  8
0
  6
Continuous
 62
     9
100
AcDbLine
 10
55.45004829535901
 20
1535.499987196162
 30
0.0
 11
55.45004829519894
 21
1530.499987199428
 31
0.0
  0
LINE
  5
FB4
330
2
100
AcDbEntity
  8
0
  6
Continuous
 62
     7
100
AcDbLine
 10
55.00004832170998
 20
1535.499987196179
 30
0.0
 11
55.00004832154991
 21
1530.4999871994
 31
0.0
  0
LINE
  5
FB5
330
2
100
AcDbEntity
  8
0
  6
Continuous
 62
     9
100
AcDbLine
 10
48.55005029535823
 20
1535.499987196393
 30
0.0
 11
48.55005029518725
 21
1530.499987198987
 31
0.0
  0
LINE
  5
FB6
330
2
100
AcDbEntity
  8
0
  6
Continuous
 62
     7
100
AcDbLine
 10
49.00005032170884
 20
1535.499987196379
 30
0.0
 11
49.00005032153785
 21
1530.499987199016
 31
0.0
  0
LINE
  5
FB7
330
2
100
AcDbEntity
  8
0
  6
Continuous
 62
     7
100
AcDbLine
 10
58.500048341617
 20
2541.499987195491
 30
0.0
 11
75.00004836128756
 21
2541.499987194632
 31
0.0
  0
LINE
  5
FB8
330
2
100
AcDbEntity
  8
0
  6
Continuous
 62
     9
100
AcDbLine
 10
75.00004836128756
 20
2541.499987194631
 30
0.0
 11
75.00004836123844
 21
2540.499987194569
 31
0.0
  0
LINE
  5
FB9
330
2
100
AcDbEntity
  8
0
  6
Continuous
 62
     9
100
AcDbLine
 10
75.00004836123844
 20
2540.499987194569
 30
0.0
 11
58.5000483415879
 21
2540.499987195428
 31
0.0
  0
ARC
  5
FBA
330
2
100
AcDbEntity
  8
0
  6
Continuous
 62
     7
100
AcDbCircle
 10
75.00004836123844
 20
2540.499987194632
 30
0.0
 40
0.9999999999998896
100
AcDbArc
 50
359.9999999970558
 51
89.99999999708183
  0
LINE
  5
FBB
330
2
100
AcDbEntity
  8
0
  6
Continuous
 62
     9
100
AcDbLine
 10
75.00004836123844
 20
2540.499987194632
 30
0.0
 11
76.00004836123844
 21
2540.499987194579
 31
0.0
  0
LINE
  5
FBC
330
2
100
AcDbEntity
  8
0
  6
Continuous
 62
     9
100
AcDbLine
 10
75.00004836029984
 20
2522.499987194571
 30
0.0
 11
75.00004836123844
 21
2540.499987194569
 31
0.0
  0
LINE
  5
FBD
330
2
100
AcDbEntity
  8
0
  6
Continuous
 62
     9
100
AcDbLine
 10
58.50004834098945
 20
2522.499987195431
 30
0.0
 11
75.00004836029984
 21
2522.499987194571
 31
0.0
  0
CIRCLE
  5
FBE
330
2
100
AcDbEntity
  8
0
  6
Continuous
 62
     7
100
AcDbCircle
 10
66.00004836076732
 20
2531.499987195039
 30
0.0
 40
7.141428428541706
  0
LINE
  5
FBF
330
2
100
AcDbEntity
  8
0
  6
Continuous
 62
     7
100
AcDbLine
 10
76.00004836123844
 20
2540.49998719458
 30
0.0
 11
76.00004836030894
 21
2522.499987194582
 31
0.0
  0
LINE
  5
FC0
330
2
100
AcDbEntity
  8
0
  6
Continuous
 62
     9
100
AcDbLine
 10
75.00004836029984
 20
2522.499987194634
 30
0.0
 11
76.00004836029985
 21
2522.499987194582
 31
0.0
  0
LINE
  5
FC1
330
2
100
AcDbEntity
  8
0
  6
Continuous
 62
     7
100
AcDbLine
 10
75.00004836024891
 20
2521.499987194634
 30
0.0
 11
58.50004834094943
 21
2521.499987195494
 31
0.0
  0
LINE
  5
FC2
330
2
100
AcDbEntity
  8
0
  6
Continuous
 62
     9
100
AcDbLine
 10
75.00004836029984
 20
2522.499987194571
 30
0.0
 11
75.00004836024891
 21
2521.499987194634
 31
0.0
  0
ARC
  5
FC3
330
2
100
AcDbEntity
  8
0
  6
Continuous
 62
     7
100
AcDbCircle
 10
75.00004836029984
 20
2522.499987194634
 30
0.0
 40
1.000000000001222
100
AcDbArc
 50
269.9999999969776
 51
359.9999999970037
  0
LINE
  5
FC4
330
2
100
AcDbEntity
  8
0
  6
Continuous
 62
     7
100
AcDbLine
 10
30.00004844416799
 20
3458.499987064697
 30
0.0
 11
30.00004844415889
 21
3458.999987156094
 31
0.0
  0
ARC
  5
FC5
330
2
100
AcDbEntity
  8
0
  6
Continuous
 62
     7
100
AcDbCircle
 10
31.50004844416799
 20
3458.49998706471
 30
0.0
 40
1.499999999999384
100
AcDbArc
 50
180.0000000005211
 51
191.4604465361209
  0
ARC
  5
FC6
330
2
100
AcDbEntity
  8
0
  6
Continuous
 62
     7
100
AcDbCircle
 10
38.90004844391842
 20
3485.999987064777
 30
0.0
 40
1.500000000000055
100
AcDbArc
 50
32.14236528722766
 51
90.00000000052109
  0
LINE
  5
FC7
330
2
100
AcDbEntity
  8
0
  6
Continuous
 62
     7
100
AcDbLine
 10
38.50004843872921
 20
3487.499987064774
 30
0.0
 11
38.90004844390933
 21
3487.499987064777
 31
0.0
  0
ARC
  5
FC8
330
2
100
AcDbEntity
  8
0
  6
Continuous
 62
     7
100
AcDbCircle
 10
31.50004844391879
 20
3485.99998706471
 30
0.0
 40
1.500000000000055
100
AcDbArc
 50
90.00000000052109
 51
180.0000000005211
  0
LINE
  5
FC9
330
2
100
AcDbEntity
  8
0
  6
Continuous
 62
     7
100
AcDbLine
 10
42.70004844418872
 20
3455.999987064811
 30
0.0
 11
42.70004844378854
 21
3499.999987064811
 31
0.0
  0
ARC
  5
FCA
330
2
100
AcDbEntity
  8
0
  6
Continuous
 62
     7
100
AcDbCircle
 10
41.70004844418872
 20
3455.999987064802
 30
0.0
 40
0.9999999999998896
100
AcDbArc
 50
270.0000000005211
 51
0.000000000495047
  0
LINE
  5
FCB
330
2
100
AcDbEntity
  8
0
  6
Continuous
 62
     7
100
AcDbLine
 10
28.70004844419964
 20
3454.999987064685
 30
0.0
 11
41.70004844419963
 21
3454.999987064802
 31
0.0
  0
ARC
  5
FCC
330
2
100
AcDbEntity
  8
0
  6
Continuous
 62
     7
100
AcDbCircle
 10
28.70004844418872
 20
3455.999987064686
 30
0.0
 40
1.000000000000794
100
AcDbArc
 50
186.1812704990171
 51
270.0000000005211
  0
ARC
  5
FCD
330
2
100
AcDbEntity
  8
0
  6
Continuous
 62
     7
100
AcDbCircle
 10
41.70004844378854
 20
3499.999987064802
 30
0.0
 40
0.9999999999994455
100
AcDbArc
 50
0.0000000005211021
 51
36.86990248367235
  0
LINE
  5
FCE
330
2
100
AcDbEntity
  8
0
  6
Continuous
 62
     9
100
AcDbLine
 10
45.50004837459892
 20
3527.499987196498
 30
0.0
 11
45.50004837024971
 21
3397.499987197462
 31
0.0
  0
LINE
  5
FCF
330
2
100
AcDbEntity
  8
0
  6
Continuous
 62
     9
100
AcDbLine
 10
45.50004836890912
 20
3357.499987197461
 30
0.0
 11
45.50004831339902
 21
1697.499987197462
 31
0.0
  0
LINE
  5
FD0
330
2
100
AcDbEntity
  8
0
  6
Continuous
 62
     9
100
AcDbLine
 10
45.50004831205842
 20
1657.499987197462
 30
0.0
 11
45.50004830841863
 21
1548.499987196497
 31
0.0
  0
LINE
  5
FD1
330
2
100
AcDbEntity
  8
0
  6
Continuous
 62
     7
100
AcDbLine
 10
45.50004830841863
 20
1548.499987196497
 30
0.0
 11
58.50004830841863
 21
1548.499987196063
 31
0.0
  0
LINE
  5
FD2
330
2
100
AcDbEntity
  8
0
  6
Continuous
 62
     7
100
AcDbLine
 10
45.50004837459892
 20
3527.499987196498
 30
0.0
 11
58.50004837459891
 21
3527.499987196062
 31
0.0
  0
LINE
  5
FD3
330
2
100
AcDbEntity
  8
0
  6
Continuous
 62
     7
100
AcDbLine
 10
58.50004837459891
 20
3527.499987196062
 30
0.0
 11
58.50004837024972
 21
3397.499987197026
 31
0.0
  0
LINE
  5
FD4
330
2
100
AcDbEntity
  8
0
  6
Continuous
 62
     7
100
AcDbLine
 10
58.50004836890912
 20
3357.499987197026
 30
0.0
 11
58.50004831339902
 21
1697.499987197026
 31
0.0
  0
LINE
  5
FD5
330
2
100
AcDbEntity
  8
0
  6
Continuous
 62
     7
100
AcDbLine
 10
58.50004831205843
 20
1657.499987197026
 30
0.0
 11
58.50004830841863
 21
1548.499987196063
 31
0.0
  0
LINE
  5
FD6
330
2
100
AcDbEntity
  8
0
  6
Continuous
 62
     7
100
AcDbLine
 10
22.00004832797822
 20
1548.499987197283
 30
0.0
 11
45.50004830841863
 21
1548.499987196497
 31
0.0
  0
LINE
  5
FD7
330
2
100
AcDbEntity
  8
0
  6
Continuous
 62
     7
100
AcDbLine
 10
22.00004839427856
 20
3527.499987197283
 30
0.0
 11
45.50004837459892
 21
3527.499987196498
 31
0.0
  0
LINE
  5
FD8
330
2
100
AcDbEntity
  8
0
  6
Continuous
 62
     7
100
AcDbLine
 10
62.70004839499961
 20
3436.999987196321
 30
0.0
 11
62.70004839461762
 21
3449.499987196452
 31
0.0
  0
LINE
  5
FD9
330
2
100
AcDbEntity
  8
0
  6
Continuous
 62
     7
100
AcDbLine
 10
62.70004839461762
 20
3449.499987196452
 30
0.0
 11
62.70004839423927
 21
3461.999987196322
 31
0.0
  0
LINE
  5
FDA
330
2
100
AcDbEntity
  8
0
  6
Continuous
 62
     7
100
AcDbLine
 10
63.00004839423855
 20
3461.699987196331
 30
0.0
 11
63.00004839461871
 21
3449.499987196458
 31
0.0
  0
LINE
  5
FDB
330
2
100
AcDbEntity
  8
0
  6
Continuous
 62
     7
100
AcDbLine
 10
63.00004839461871
 20
3449.499987196458
 30
0.0
 11
63.00004839498797
 21
3437.299987196331
 31
0.0
  0
LINE
  5
FDC
330
2
100
AcDbEntity
  8
0
  6
Continuous
 62
     7
100
AcDbLine
 10
62.70004839352987
 20
3484.999987196365
 30
0.0
 11
62.7000483931497
 21
3497.499987196389
 31
0.0
  0
LINE
  5
FDD
330
2
100
AcDbEntity
  8
0
  6
Continuous
 62
     7
100
AcDbLine
 10
62.7000483931497
 20
3497.499987196389
 30
0.0
 11
62.70004839275862
 21
3509.999987196366
 31
0.0
  0
LINE
  5
FDE
330
2
100
AcDbEntity
  8
0
  6
Continuous
 62
     7
100
AcDbLine
 10
63.00004839276699
 20
3509.699987196375
 30
0.0
 11
63.00004839313806
 21
3497.499987196397
 31
0.0
  0
LINE
  5
FDF
330
2
100
AcDbEntity
  8
0
  6
Continuous
 62
     7
100
AcDbLine
 10
63.00004839313806
 20
3497.499987196397
 30
0.0
 11
63.00004839351823
 21
3485.299987196375
 31
0.0
  0
LINE
  5
FE0
330
2
100
AcDbEntity
  8
0
  6
Continuous
 62
     4
100
AcDbLine
 10
56.00004832797822
 20
1548.499987196146
 30
0.0
 11
56.00004832753803
 21
1535.499987196145
 31
0.0
  0
LINE
  5
FE1
330
2
100
AcDbEntity
  8
0
  6
Continuous
 62
     4
100
AcDbLine
 10
56.00004832753803
 20
1535.499987196145
 30
0.0
 11
48.00004832754893
 21
1535.499987196411
 31
0.0
  0
LINE
  5
FE2
330
2
100
AcDbEntity
  8
0
  6
Continuous
 62
     4
100
AcDbLine
 10
48.00004832797822
 20
1548.499987196414
 30
0.0
 11
48.00004832754893
 21
1535.499987196411
 31
0.0
  0
LINE
  5
FE3
330
2
100
AcDbEntity
  8
0
  6
Continuous
 62
     7
100
AcDbLine
 10
12.00004839285975
 20
3484.999987165154
 30
0.0
 11
12.00004839284884
 21
3484.502300932116
 31
0.0
  0
LINE
  5
FE4
330
2
100
AcDbEntity
  8
0
  6
Continuous
 62
     7
100
AcDbLine
 10
12.00004839284884
 20
3484.502300932116
 30
0.0
 11
12.00004839259964
 21
3477.29998716522
 31
0.0
  0
LINE
  5
FE5
330
2
100
AcDbEntity
  8
0
  6
Continuous
 62
     7
100
AcDbLine
 10
12.00004839259964
 20
3477.29998716522
 30
0.0
 11
12.00004839246867
 21
3473.226604009884
 31
0.0
  0
LINE
  5
FE6
330
2
100
AcDbEntity
  8
0
  6
Continuous
 62
     7
100
AcDbLine
 10
12.00004839240864
 20
3471.692005234653
 30
0.0
 11
12.00004839227949
 21
3467.69998716522
 31
0.0
  0
LINE
  5
FE7
330
2
100
AcDbEntity
  8
0
  6
Continuous
 62
     7
100
AcDbLine
 10
12.00004839227949
 20
3467.69998716522
 30
0.0
 11
12.00004839213943
 21
3463.6319891276
 31
0.0
  0
LINE
  5
FE8
330
2
100
AcDbEntity
  8
0
  6
Continuous
 62
     7
100
AcDbLine
 10
12.00004839213943
 20
3463.6319891276
 30
0.0
 11
12.00004839205758
 21
3461.06455633778
 31
0.0
  0
LINE
  5
FE9
330
2
100
AcDbEntity
  8
0
  6
Continuous
 62
     7
100
AcDbLine
 10
12.00004839205758
 20
3461.06455633778
 30
0.0
 11
12.00004839203939
 21
3460.504607220251
 31
0.0
  0
LINE
  5
FEA
330
2
100
AcDbEntity
  8
0
  6
Continuous
 62
     7
100
AcDbLine
 10
12.00004839203939
 20
3460.504607220251
 30
0.0
 11
12.00004839201756
 21
3459.999987165154
 31
0.0
  0
LINE
  5
FEB
330
2
100
AcDbEntity
  8
0
  6
Continuous
 62
     7
100
AcDbLine
 10
13.00004839203939
 20
3460.499987165186
 30
0.0
 11
13.00004839243775
 21
3472.498314036369
 31
0.0
  0
LINE
  5
FEC
330
2
100
AcDbEntity
  8
0
  6
Continuous
 62
     7
100
AcDbLine
 10
13.00004839243775
 20
3472.498314036369
 30
0.0
 11
13.00004839283792
 21
3484.499987165186
 31
0.0
  0
LINE
  5
FED
330
2
100
AcDbEntity
  8
0
  6
Continuous
 62
     7
100
AcDbLine
 10
23.00004839275971
 20
3481.999987164851
 30
0.0
 11
23.0000483927488
 21
3481.792113889897
 31
0.0
  0
LINE
  5
FEE
330
2
100
AcDbEntity
  8
0
  6
Continuous
 62
     7
100
AcDbLine
 10
23.00004839271787
 20
3480.963947724505
 30
0.0
 11
23.0000483925287
 21
3475.187762439281
 31
0.0
  0
LINE
  5
FEF
330
2
100
AcDbEntity
  8
0
  6
Continuous
 62
     7
100
AcDbLine
 10
23.00004839212852
 20
3463.2073096566
 30
0.0
 11
23.0000483921176
 21
3462.999987164852
 31
0.0
  0
LINE
  5
FF0
330
2
100
AcDbEntity
  8
0
  6
Continuous
 62
     7
100
AcDbLine
 10
23.00004839276699
 20
3482.499987164851
 30
0.0
 11
23.00004839209941
 21
3462.499987164851
 31
0.0
  0
LINE
  5
FF1
330
2
100
AcDbEntity
  8
0
  6
Continuous
 62
     7
100
AcDbLine
 10
12.00004839284884
 20
3484.49998716521
 30
0.0
 11
12.00004839203939
 21
3460.49998716523
 31
0.0
  0
LINE
  5
FF2
330
2
100
AcDbEntity
  8
0
  6
Continuous
 62
     7
100
AcDbLine
 10
13.00004839283792
 20
3484.499987165176
 30
0.0
 11
13.00004839243775
 21
3472.498437490738
 31
0.0
  0
LINE
  5
FF3
330
2
100
AcDbEntity
  8
0
  6
Continuous
 62
     7
100
AcDbLine
 10
13.00004839243775
 20
3472.498437490738
 30
0.0
 11
13.00004839203939
 21
3460.499987165201
 31
0.0
  0
LINE
  5
FF4
330
2
100
AcDbEntity
  8
0
  6
Continuous
 62
     7
100
AcDbLine
 10
12.00004839285975
 20
3484.99998716522
 30
0.0
 11
12.00004839243774
 21
3472.363330368927
 31
0.0
  0
LINE
  5
FF5
330
2
100
AcDbEntity
  8
0
  6
Continuous
 62
     7
100
AcDbLine
 10
6.300048392859025
 20
3484.999987165411
 30
0.0
 11
6.30004839243702
 21
3472.363330369118
 31
0.0
  0
LINE
  5
FF6
330
2
100
AcDbEntity
  8
0
  6
Continuous
 62
     7
100
AcDbLine
 10
6.30004839243702
 20
3472.363330369118
 30
0.0
 11
6.300048392018652
 21
3459.999987165411
 31
0.0
  0
LINE
  5
FF7
330
2
100
AcDbEntity
  8
0
  6
Continuous
 62
     7
100
AcDbLine
 10
12.00004839243774
 20
3472.363330368927
 30
0.0
 11
12.00004839201756
 21
3459.99998716522
 31
0.0
  0
LINE
  5
FF8
330
2
100
AcDbEntity
  8
0
  6
Continuous
 62
     7
100
AcDbLine
 10
6.000048392028475
 20
3460.299987165421
 30
0.0
 11
6.000048392437747
 21
3472.366610132239
 31
0.0
  0
LINE
  5
FF9
330
2
100
AcDbEntity
  8
0
  6
Continuous
 62
     7
100
AcDbLine
 10
6.000048392437747
 20
3472.366610132239
 30
0.0
 11
6.000048392848839
 21
3484.69998716542
 31
0.0
  0
ARC
  5
FFA
330
2
100
AcDbEntity
  8
0
  6
Continuous
 62
     7
100
AcDbCircle
 10
32.50004843906754
 20
3484.999987162813
 30
0.0
 40
2.500000000000068
100
AcDbArc
 50
126.869897644437
 51
143.1301023517172
  0
ARC
  5
FFB
330
2
100
AcDbEntity
  8
0
  6
Continuous
 62
     7
100
AcDbCircle
 10
37.50004843906754
 20
3484.999987162645
 30
0.0
 40
2.499999999999813
100
AcDbArc
 50
36.86989754791852
 51
53.13010244820448
  0
ARC
  5
FFC
330
2
100
AcDbEntity
  8
0
  6
Continuous
 62
     7
100
AcDbCircle
 10
32.50004843822899
 20
3459.999987162813
 30
0.0
 40
2.500000000000923
100
AcDbArc
 50
216.8698977398717
 51
233.1301022562774
  0
ARC
  5
FFD
330
2
100
AcDbEntity
  8
0
  6
Continuous
 62
     7
100
AcDbCircle
 10
37.50004843822899
 20
3459.999987162645
 30
0.0
 40
2.500000000000646
100
AcDbArc
 50
306.8698976435095
 51
323.130102352676
  0
LINE
  5
FFE
330
2
100
AcDbEntity
  8
0
  6
Continuous
 62
     7
100
AcDbLine
 10
48.00004832613012
 20
1531.999987198951
 30
0.0
 11
48.00004832589912
 21
1535.499987196411
 31
0.0
  0
CIRCLE
  5
FFF
330
2
100
AcDbEntity
  8
0
  6
Continuous
 62
     7
100
AcDbCircle
 10
32.00004832457853
 20
1537.499987196902
 30
0.0
 40
2.0
  0
LINE
  5
1000
330
2
100
AcDbEntity
  8
0
  6
Continuous
 62
     7
100
AcDbLine
 10
30.50004832452942
 20
1538.36601260059
 30
0.0
 11
32.00004832446757
 21
1539.232038004471
 31
0.0
  0
LINE
  5
1001
330
2
100
AcDbEntity
  8
0
  6
Continuous
 62
     7
100
AcDbLine
 10
30.50004832463856
 20
1536.633961793021
 30
0.0
 11
30.50004832452942
 21
1538.36601260059
 31
0.0
  0
LINE
  5
1002
330
2
100
AcDbEntity
  8
0
  6
Continuous
 62
     7
100
AcDbLine
 10
32.0000483247004
 20
1535.767936389333
 30
0.0
 11
30.50004832463856
 21
1536.633961793021
 31
0.0
  0
LINE
  5
1003
330
2
100
AcDbEntity
  8
0
  6
Continuous
 62
     7
100
AcDbLine
 10
33.50004832463856
 20
1536.633961793213
 30
0.0
 11
32.0000483247004
 21
1535.767936389333
 31
0.0
  0
LINE
  5
1004
330
2
100
AcDbEntity
  8
0
  6
Continuous
 62
     7
100
AcDbLine
 10
33.50004832452942
 20
1538.366012600782
 30
0.0
 11
33.50004832463856
 21
1536.633961793213
 31
0.0
  0
LINE
  5
1005
330
2
100
AcDbEntity
  8
0
  6
Continuous
 62
     7
100
AcDbLine
 10
32.00004832446757
 20
1539.232038004471
 30
0.0
 11
33.50004832452942
 21
1538.366012600782
 31
0.0
  0
LINE
  5
1006
330
2
100
AcDbEntity
  8
0
  6
Continuous
 62
     9
100
AcDbLine
 10
12.00004832398736
 20
1546.499987196634
 30
0.0
 11
14.00004832398735
 21
1546.499987196761
 31
0.0
  0
LINE
  5
1007
330
2
100
AcDbEntity
  8
0
  6
Continuous
 62
     7
100
AcDbLine
 10
12.00004832398736
 20
1547.499987196634
 30
0.0
 11
14.00004832398735
 21
1547.499987196761
 31
0.0
  0
LINE
  5
1008
330
2
100
AcDbEntity
  8
0
  6
Continuous
 62
     9
100
AcDbLine
 10
12.00004832506784
 20
1529.499987196633
 30
0.0
 11
14.00004832506783
 21
1529.499987196761
 31
0.0
  0
LINE
  5
1009
330
2
100
AcDbEntity
  8
0
  6
Continuous
 62
     7
100
AcDbLine
 10
12.0000483251988
 20
1528.499987196634
 30
0.0
 11
14.0000483251988
 21
1528.499987196761
 31
0.0
  0
LINE
  5
100A
330
2
100
AcDbEntity
  8
0
  6
Continuous
 62
     7
100
AcDbLine
 10
65.5000483249878
 20
1541.499987227425
 30
0.0
 11
65.50004832496779
 21
1533.499987227425
 31
0.0
  0
LINE
  5
100B
330
2
100
AcDbEntity
  8
0
  6
Continuous
 62
     7
100
AcDbLine
 10
57.50004832496779
 20
1534.499987227444
 30
0.0
 11
57.5000483249878
 21
1540.499987227444
 31
0.0
  0
LINE
  5
100C
330
2
100
AcDbEntity
  8
0
  6
Continuous
 62
     7
100
AcDbLine
 10
43.50004832395825
 20
1545.999987198658
 30
0.0
 11
43.50004832398735
 21
1545.499987198661
 31
0.0
  0
LINE
  5
100D
330
2
100
AcDbEntity
  8
0
  6
Continuous
 62
     7
100
AcDbLine
 10
43.50004832398735
 20
1545.499987198661
 30
0.0
 11
43.50004832501872
 21
1529.499987198672
 31
0.0
  0
LINE
  5
100E
330
2
100
AcDbEntity
  8
0
  6
Continuous
 62
     7
100
AcDbLine
 10
43.50004832501872
 20
1529.499987198672
 30
0.0
 11
43.50004832513877
 21
1527.499987198665
 31
0.0
  0
ARC
  5
100F
330
2
100
AcDbEntity
  8
0
  6
Continuous
 62
     7
100
AcDbCircle
 10
42.00004832395825
 20
1545.999987198562
 30
0.0
 40
1.500000000000055
100
AcDbArc
 50
0.0000000036737697
 51
90.00000000364773
  0
LINE
  5
1010
330
2
100
AcDbEntity
  8
0
  6
Continuous
 62
     7
100
AcDbLine
 10
42.00004832385821
 20
1547.499987198562
 30
0.0
 11
41.5000483238582
 21
1547.499987198529
 31
0.0
  0
LINE
  5
1011
330
2
100
AcDbEntity
  8
0
  6
Continuous
 62
     7
100
AcDbLine
 10
41.5000483238582
 20
1547.499987198529
 30
0.0
 11
23.50004832385821
 21
1547.499987197376
 31
0.0
  0
LINE
  5
1012
330
2
100
AcDbEntity
  8
0
  6
Continuous
 62
     7
100
AcDbLine
 10
23.50004832385821
 20
1547.499987197376
 30
0.0
 11
23.50004832379818
 21
1548.499987197233
 31
0.0
  0
ARC
  5
1013
330
2
100
AcDbEntity
  8
0
  6
Continuous
 62
     7
100
AcDbCircle
 10
43.50004832388731
 20
1546.999987198658
 30
0.0
 40
3.000000000000371
100
AcDbArc
 50
0.0000000036737697
 51
29.99999995191497
  0
LINE
  5
1014
330
2
100
AcDbEntity
  8
0
  6
Continuous
 62
     7
100
AcDbLine
 10
46.5000483249496
 20
1530.499987198856
 30
0.0
 11
46.50004832388731
 21
1546.99998719885
 31
0.0
  0
LINE
  5
1015
330
2
100
AcDbEntity
  8
0
  6
Continuous
 62
     7
100
AcDbLine
 10
58.5000483249496
 20
1530.499987199624
 30
0.0
 11
46.5000483249496
 21
1530.499987198856
 31
0.0
  0
LINE
  5
1016
330
2
100
AcDbEntity
  8
0
  6
Continuous
 62
     7
100
AcDbLine
 10
58.50004832398735
 20
1545.499987199619
 30
0.0
 11
58.5000483249496
 21
1530.499987199624
 31
0.0
  0
LINE
  5
1017
330
2
100
AcDbEntity
  8
0
  6
Continuous
 62
     7
100
AcDbLine
 10
60.50004832398736
 20
1545.499987199747
 30
0.0
 11
58.50004832398735
 21
1545.499987199619
 31
0.0
  0
ARC
  5
1018
330
2
100
AcDbEntity
  8
0
  6
Continuous
 62
     7
100
AcDbCircle
 10
60.50004832417835
 20
1542.499987199749
 30
0.0
 40
3.000000000000113
100
AcDbArc
 50
0.0000000036737697
 51
90.00000000364773
  0
LINE
  5
1019
330
2
100
AcDbEntity
  8
0
  6
Continuous
 62
     7
100
AcDbLine
 10
63.50004832513878
 20
1527.499987199945
 30
0.0
 11
63.50004832417835
 21
1542.49998719994
 31
0.0
  0
LINE
  5
101A
330
2
100
AcDbEntity
  8
0
  6
Continuous
 62
     7
100
AcDbLine
 10
22.50004832513878
 20
1527.499987197315
 30
0.0
 11
22.50004832385821
 21
1547.499987197315
 31
0.0
  0
LINE
  5
101B
330
2
100
AcDbEntity
  8
0
  6
Continuous
 62
     7
100
AcDbLine
 10
41.5000483238582
 20
1547.499987198533
 30
0.0
 11
23.50004832385821
 21
1547.499987197379
 31
0.0
  0
LINE
  5
101C
330
2
100
AcDbEntity
  8
0
  6
Continuous
 62
     7
100
AcDbLine
 10
23.50004832385821
 20
1547.499987197379
 30
0.0
 11
22.50004832385821
 21
1547.499987197315
 31
0.0
  0
ARC
  5
101D
330
2
100
AcDbEntity
  8
0
  6
Continuous
 62
     7
100
AcDbCircle
 10
32.00004832450031
 20
1537.499987197924
 30
0.0
 40
3.000000000000113
100
AcDbArc
 50
180.0000000036737
 51
270.0000000036477
  0
ARC
  5
101E
330
2
100
AcDbEntity
  8
0
  6
Continuous
 62
     7
100
AcDbCircle
 10
32.00004832450031
 20
1537.499987197924
 30
0.0
 40
3.000000000000113
100
AcDbArc
 50
270.0000000036477
 51
180.0000000036737
  0
LINE
  5
101F
330
2
100
AcDbEntity
  8
0
  6
Continuous
 62
     7
100
AcDbLine
 10
43.50004832501872
 20
1529.499987198661
 30
0.0
 11
43.50004832398735
 21
1545.499987198661
 31
0.0
  0
ARC
  5
1020
330
2
100
AcDbEntity
  8
0
  6
Continuous
 62
     7
100
AcDbCircle
 10
41.50004832501872
 20
1529.499987198533
 30
0.0
 40
2.0
100
AcDbArc
 50
270.0000000036477
 51
0.0000000036737697
  0
ARC
  5
1021
330
2
100
AcDbEntity
  8
0
  6
Continuous
 62
     7
100
AcDbCircle
 10
41.50004832398735
 20
1545.499987198533
 30
0.0
 40
1.99999999999889
100
AcDbArc
 50
0.0000000036737697
 51
90.00000000364773
  0
CIRCLE
  5
1022
330
2
100
AcDbEntity
  8
0
  6
Continuous
 62
     7
100
AcDbCircle
 10
32.00004832453851
 20
1537.499987197924
 30
0.0
 40
2.499999999999945
  0
LINE
  5
1023
330
2
100
AcDbEntity
  8
0
  6
Continuous
 62
     7
100
AcDbLine
 10
12.00004832513878
 20
1527.499987196642
 30
0.0
 11
12.00004832385821
 21
1547.499987196643
 31
0.0
  0
LINE
  5
1024
330
2
100
AcDbEntity
  8
0
  6
Continuous
 62
     7
100
AcDbLine
 10
8.500048325138777
 20
1527.499987196418
 30
0.0
 11
8.500048323858209
 21
1547.499987196418
 31
0.0
  0
LINE
  5
1025
330
2
100
AcDbEntity
  8
0
  6
Continuous
 62
     7
100
AcDbLine
 10
12.00004832385821
 20
1547.499987196643
 30
0.0
 11
8.500048323858209
 21
1547.499987196418
 31
0.0
  0
LINE
  5
1026
330
2
100
AcDbEntity
  8
0
  6
Continuous
 62
     7
100
AcDbLine
 10
22.50004832608829
 20
1547.499987197315
 30
0.0
 11
22.00004832794911
 21
1547.499987197283
 31
0.0
  0
LINE
  5
1027
330
2
100
AcDbEntity
  8
0
  6
Continuous
 62
     4
100
AcDbLine
 10
22.00004832727973
 20
1527.499987197282
 30
0.0
 11
22.00004839427856
 21
3527.499987197283
 31
0.0
  0
LINE
  5
1028
330
2
100
AcDbEntity
  8
0
  6
Continuous
 62
     4
100
AcDbLine
 10
14.00004832727973
 20
1527.499987197551
 30
0.0
 11
21.99978823225865
 21
1527.499987197282
 31
0.0
  0
LINE
  5
1029
330
2
100
AcDbEntity
  8
0
  6
Continuous
 62
     4
100
AcDbLine
 10
21.99978823225865
 20
1527.499987197282
 30
0.0
 11
22.00004832727973
 21
1527.499987197282
 31
0.0
  0
LINE
  5
102A
330
2
100
AcDbEntity
  8
0
  6
Continuous
 62
     4
100
AcDbLine
 10
14.00004839427856
 20
3527.499987197551
 30
0.0
 11
22.00004839427856
 21
3527.499987197283
 31
0.0
  0
LINE
  5
102B
330
2
100
AcDbEntity
  8
0
  6
Continuous
 62
     4
100
AcDbLine
 10
14.00004832727973
 20
1527.499987197551
 30
0.0
 11
14.00004839427856
 21
3527.499987197551
 31
0.0
  0
LINE
  5
102C
330
2
100
AcDbEntity
  8
0
  6
Continuous
 62
     7
100
AcDbLine
 10
800.0000485224299
 20
1527.499987247133
 30
0.0
 11
22.00004832727973
 21
1527.499987197282
 31
0.0
  0
LINE
  5
102D
330
2
100
AcDbEntity
  8
0
  6
Continuous
 62
     7
100
AcDbLine
 10
22.00004832727973
 20
1527.499987197282
 30
0.0
 11
21.99978823225865
 21
1527.499987197282
 31
0.0
  0
LINE
  5
102E
330
2
100
AcDbEntity
  8
0
  6
Continuous
 62
     7
100
AcDbLine
 10
21.99978823225865
 20
1527.499987197282
 30
0.0
 11
14.00004832727973
 21
1527.499987196771
 31
0.0
  0
LINE
  5
102F
330
2
100
AcDbEntity
  8
0
  6
Continuous
 62
     7
100
AcDbLine
 10
14.00004832727973
 20
1527.499987196771
 30
0.0
 11
0.0000485224300064
 21
1527.499987195874
 31
0.0
  0
LINE
  5
1030
330
2
100
AcDbEntity
  8
0
  6
Continuous
 62
     7
100
AcDbLine
 10
800.000048525635
 20
1477.499987247133
 30
0.0
 11
0.0000485256387037
 21
1477.499987195874
 31
0.0
  0
LINE
  5
1031
330
2
100
AcDbEntity
  8
0
  6
Continuous
 62
     7
100
AcDbLine
 10
0.0000485256387037
 20
1477.499987195874
 30
0.0
 11
0.0000485224300064
 21
1527.499987195874
 31
0.0
  0
LINE
  5
1032
330
2
100
AcDbEntity
  8
0
  6
Continuous
 62
     7
100
AcDbLine
 10
800.000048525635
 20
1477.499987247133
 30
0.0
 11
800.0000485224299
 21
1527.499987247133
 31
0.0
  0
LINE
  5
1033
330
2
100
AcDbEntity
  8
0
  6
Continuous
 62
     9
100
AcDbLine
 10
65.5000483249878
 20
1540.874987227424
 30
0.0
 11
63.50004832428931
 21
1540.87498722743
 31
0.0
  0
LINE
  5
1034
330
2
100
AcDbEntity
  8
0
  6
Continuous
 62
     9
100
AcDbLine
 10
58.50004832428931
 20
1540.874987227442
 30
0.0
 11
57.8750483249878
 21
1540.874987227443
 31
0.0
  0
LINE
  5
1035
330
2
100
AcDbEntity
  8
0
  6
Continuous
 62
     9
100
AcDbLine
 10
57.87504832496779
 20
1534.124987227443
 30
0.0
 11
58.50004832471859
 21
1534.124987227442
 31
0.0
  0
LINE
  5
1036
330
2
100
AcDbEntity
  8
0
  6
Continuous
 62
     9
100
AcDbLine
 10
63.50004832471859
 20
1534.12498722743
 30
0.0
 11
65.50004832496779
 21
1534.124987227424
 31
0.0
  0
LINE
  5
1037
330
2
100
AcDbEntity
  8
0
  6
Continuous
 62
     7
100
AcDbLine
 10
22.50004833288767
 20
1691.749987198815
 30
0.0
 11
22.00004833242929
 21
1691.749987198864
 31
0.0
  0
LINE
  5
1038
330
2
100
AcDbEntity
  8
0
  6
Continuous
 62
     7
100
AcDbLine
 10
22.00004832966806
 20
1663.249987198863
 30
0.0
 11
22.50004833011917
 21
1663.249987198815
 31
0.0
  0
LINE
  5
1039
330
2
100
AcDbEntity
  8
0
  6
Continuous
 62
     7
100
AcDbLine
 10
25.00004833249841
 20
1692.499987198572
 30
0.0
 11
22.50004833249841
 21
1692.499987198815
 31
0.0
  0
LINE
  5
103A
330
2
100
AcDbEntity
  8
0
  6
Continuous
 62
     7
100
AcDbLine
 10
22.50004832958802
 20
1662.499987198815
 30
0.0
 11
25.00004832958803
 21
1662.499987198572
 31
0.0
  0
ARC
  5
103B
330
2
100
AcDbEntity
  8
0
  6
Continuous
 62
     7
100
AcDbCircle
 10
25.0000483324493
 20
1691.999987198572
 30
0.0
 40
0.4999999999988347
100
AcDbArc
 50
359.9999999944503
 51
89.99999999447631
  0
ARC
  5
103C
330
2
100
AcDbEntity
  8
0
  6
Continuous
 62
     7
100
AcDbCircle
 10
25.00004832963896
 20
1662.999987198572
 30
0.0
 40
0.4999999999999451
100
AcDbArc
 50
269.9999999944763
 51
359.9999999945024
  0
LINE
  5
103D
330
2
100
AcDbEntity
  8
0
  6
Continuous
 62
     7
100
AcDbLine
 10
22.50004839006761
 20
3391.749987198815
 30
0.0
 11
22.0000483896074
 21
3391.749987198863
 31
0.0
  0
LINE
  5
103E
330
2
100
AcDbEntity
  8
0
  6
Continuous
 62
     7
100
AcDbLine
 10
22.00004838684981
 20
3363.249987198864
 30
0.0
 11
22.5000483872991
 21
3363.249987198815
 31
0.0
  0
LINE
  5
103F
330
2
100
AcDbEntity
  8
0
  6
Continuous
 62
     7
100
AcDbLine
 10
25.00004838967834
 20
3392.499987198573
 30
0.0
 11
22.50004838967834
 21
3392.499987198815
 31
0.0
  0
LINE
  5
1040
330
2
100
AcDbEntity
  8
0
  6
Continuous
 62
     7
100
AcDbLine
 10
22.50004838677887
 20
3362.499987198815
 30
0.0
 11
25.00004838676796
 21
3362.499987198573
 31
0.0
  0
ARC
  5
1041
330
2
100
AcDbEntity
  8
0
  6
Continuous
 62
     7
100
AcDbCircle
 10
25.00004838962923
 20
3391.999987198572
 30
0.0
 40
0.4999999999988347
100
AcDbArc
 50
359.9999999944503
 51
89.99999999447631
  0
ARC
  5
1042
330
2
100
AcDbEntity
  8
0
  6
Continuous
 62
     7
100
AcDbCircle
 10
25.00004838681707
 20
3362.999987198572
 30
0.0
 40
0.4999999999999451
100
AcDbArc
 50
269.9999999944763
 51
359.9999999945024
  0
LINE
  5
1043
330
2
100
AcDbEntity
  8
0
  6
Continuous
 62
     7
100
AcDbLine
 10
784.0000483890271
 20
1697.499987245519
 30
0.0
 11
784.0000483896674
 21
1687.49998724715
 31
0.0
  0
LINE
  5
1044
330
2
100
AcDbEntity
  8
0
  6
Continuous
 62
     7
100
AcDbLine
 10
784.0000483944186
 20
3397.499987247141
 30
0.0
 11
784.0000483944259
 21
3387.499987247781
 31
0.0
  0
LINE
  5
1045
330
2
100
AcDbEntity
  8
0
  6
Continuous
 62
     7
100
AcDbLine
 10
58.12228808351756
 20
1530.4999871996
 30
0.0
 11
58.12228808362852
 21
1533.877747468786
 31
0.0
  0
LINE
  5
1046
330
2
100
AcDbEntity
  8
0
  6
Continuous
 62
     7
100
AcDbLine
 10
58.12228808386862
 20
1541.122226986325
 30
0.0
 11
58.12228808411783
 21
1548.499987196075
 31
0.0
  0
LINE
  5
1047
330
2
100
AcDbEntity
  8
0
  6
Continuous
 62
     7
100
AcDbLine
 10
58.50004837156666
 20
3436.999987196198
 30
0.0
 11
62.70004839499961
 21
3436.999987196327
 31
0.0
  0
LINE
  5
1048
330
2
100
AcDbEntity
  8
0
  6
Continuous
 62
     7
100
AcDbLine
 10
62.70004839423927
 20
3461.999987196317
 30
0.0
 11
58.50004837240885
 21
3461.999987196187
 31
0.0
  0
LINE
  5
1049
330
2
100
AcDbEntity
  8
0
  6
Continuous
 62
     7
100
AcDbLine
 10
62.70004839499961
 20
3436.999987196327
 30
0.0
 11
63.00004839498797
 21
3437.299987196337
 31
0.0
  0
LINE
  5
104A
330
2
100
AcDbEntity
  8
0
  6
Continuous
 62
     7
100
AcDbLine
 10
63.00004839423855
 20
3461.699987196325
 30
0.0
 11
62.70004839423927
 21
3461.999987196317
 31
0.0
  0
LINE
  5
104B
330
2
100
AcDbEntity
  8
0
  6
Continuous
 62
     7
100
AcDbLine
 10
58.50004837317829
 20
3484.999987196242
 30
0.0
 11
62.70004839352987
 21
3484.999987196371
 31
0.0
  0
LINE
  5
104C
330
2
100
AcDbEntity
  8
0
  6
Continuous
 62
     7
100
AcDbLine
 10
62.70004839275862
 20
3509.99998719636
 30
0.0
 11
58.50004837400956
 21
3509.999987196231
 31
0.0
  0
LINE
  5
104D
330
2
100
AcDbEntity
  8
0
  6
Continuous
 62
     7
100
AcDbLine
 10
62.70004839352987
 20
3484.999987196371
 30
0.0
 11
63.00004839351823
 21
3485.29998719638
 31
0.0
  0
LINE
  5
104E
330
2
100
AcDbEntity
  8
0
  6
Continuous
 62
     7
100
AcDbLine
 10
63.00004839276699
 20
3509.699987196369
 30
0.0
 11
62.70004839275862
 21
3509.99998719636
 31
0.0
  0
LINE
  5
104F
330
2
100
AcDbEntity
  8
0
  6
Continuous
 62
     7
100
AcDbLine
 10
14.00004839283792
 20
3484.499987165153
 30
0.0
 11
13.00004839283792
 21
3484.499987165186
 31
0.0
  0
LINE
  5
1050
330
2
100
AcDbEntity
  8
0
  6
Continuous
 62
     7
100
AcDbLine
 10
13.00004839203939
 20
3460.499987165186
 30
0.0
 11
14.00004839203939
 21
3460.499987165153
 31
0.0
  0
LINE
  5
1051
330
2
100
AcDbEntity
  8
0
  6
Continuous
 62
     7
100
AcDbLine
 10
22.00004839211761
 20
3462.999987164884
 30
0.0
 11
23.0000483921176
 21
3462.999987164852
 31
0.0
  0
LINE
  5
1052
330
2
100
AcDbEntity
  8
0
  6
Continuous
 62
     7
100
AcDbLine
 10
23.00004839275971
 20
3481.999987164851
 30
0.0
 11
22.00004839275971
 21
3481.999987164885
 31
0.0
  0
LINE
  5
1053
330
2
100
AcDbEntity
  8
0
  6
Continuous
 62
     7
100
AcDbLine
 10
30.00004839276698
 20
3482.499987164617
 30
0.0
 11
29.80004844067844
 21
3482.499987164624
 31
0.0
  0
LINE
  5
1054
330
2
100
AcDbEntity
  8
0
  6
Continuous
 62
     7
100
AcDbLine
 10
27.50004828549936
 20
3482.499987164701
 30
0.0
 11
23.00004839276699
 21
3482.499987164851
 31
0.0
  0
LINE
  5
1055
330
2
100
AcDbEntity
  8
0
  6
Continuous
 62
     7
100
AcDbLine
 10
23.00004839209941
 20
3462.499987164851
 30
0.0
 11
27.50004850320875
 21
3462.4999871647
 31
0.0
  0
LINE
  5
1056
330
2
100
AcDbEntity
  8
0
  6
Continuous
 62
     7
100
AcDbLine
 10
29.80004844220821
 20
3462.499987164623
 30
0.0
 11
30.00004839209942
 21
3462.499987164617
 31
0.0
  0
LINE
  5
1057
330
2
100
AcDbEntity
  8
0
  6
Continuous
 62
     7
100
AcDbLine
 10
12.00004839203939
 20
3460.499987165225
 30
0.0
 11
13.00004839203939
 21
3460.499987165191
 31
0.0
  0
LINE
  5
1058
330
2
100
AcDbEntity
  8
0
  6
Continuous
 62
     7
100
AcDbLine
 10
13.00004839283792
 20
3484.49998716518
 30
0.0
 11
12.00004839284884
 21
3484.499987165214
 31
0.0
  0
LINE
  5
1059
330
2
100
AcDbEntity
  8
0
  6
Continuous
 62
     7
100
AcDbLine
 10
12.00004839285975
 20
3484.99998716522
 30
0.0
 11
6.300048392859025
 21
3484.999987165411
 31
0.0
  0
LINE
  5
105A
330
2
100
AcDbEntity
  8
0
  6
Continuous
 62
     7
100
AcDbLine
 10
6.300048392018652
 20
3459.999987165411
 30
0.0
 11
12.00004839201756
 21
3459.99998716522
 31
0.0
  0
LINE
  5
105B
330
2
100
AcDbEntity
  8
0
  6
Continuous
 62
     7
100
AcDbLine
 10
6.300048392859025
 20
3484.999987165411
 30
0.0
 11
6.000048392848839
 21
3484.69998716542
 31
0.0
  0
LINE
  5
105C
330
2
100
AcDbEntity
  8
0
  6
Continuous
 62
     7
100
AcDbLine
 10
6.000048392028475
 20
3460.299987165421
 30
0.0
 11
6.300048392018652
 21
3459.999987165411
 31
0.0
  0
LINE
  5
105D
330
2
100
AcDbEntity
  8
0
  6
Continuous
 62
     7
100
AcDbLine
 10
46.50004832613013
 20
1531.999987198855
 30
0.0
 11
48.00004832613012
 21
1531.999987198951
 31
0.0
  0
LINE
  5
105E
330
2
100
AcDbEntity
  8
0
  6
Continuous
 62
     7
100
AcDbLine
 10
48.00004832541708
 20
1542.999987198951
 30
0.0
 11
46.50004832541708
 21
1542.999987198855
 31
0.0
  0
LINE
  5
105F
330
2
100
AcDbEntity
  8
0
  6
Continuous
 62
     7
100
AcDbLine
 10
22.50004832414925
 20
1542.999987197349
 30
0.0
 11
22.00004832779996
 21
1542.999987197284
 31
0.0
  0
LINE
  5
1060
330
2
100
AcDbEntity
  8
0
  6
Continuous
 62
     7
100
AcDbLine
 10
22.00004832742889
 20
1531.999987197285
 30
0.0
 11
22.50004832485865
 21
1531.999987197349
 31
0.0
  0
LINE
  5
1061
330
2
100
AcDbEntity
  8
0
  6
Continuous
 62
     7
100
AcDbLine
 10
65.5000483249878
 20
1541.499987227425
 30
0.0
 11
63.50004832424929
 21
1541.499987227429
 31
0.0
  0
LINE
  5
1062
330
2
100
AcDbEntity
  8
0
  6
Continuous
 62
     7
100
AcDbLine
 10
63.5000483247586
 20
1533.499987227429
 30
0.0
 11
65.50004832496779
 21
1533.499987227425
 31
0.0
  0
LINE
  5
1063
330
2
100
AcDbEntity
  8
0
  6
Continuous
 62
     7
100
AcDbLine
 10
58.5000483249878
 20
1541.499987227442
 30
0.0
 11
57.8750483249878
 21
1540.874987227443
 31
0.0
  0
LINE
  5
1064
330
2
100
AcDbEntity
  8
0
  6
Continuous
 62
     7
100
AcDbLine
 10
57.8750483249878
 20
1540.874987227443
 30
0.0
 11
57.5000483249878
 21
1540.499987227444
 31
0.0
  0
LINE
  5
1065
330
2
100
AcDbEntity
  8
0
  6
Continuous
 62
     7
100
AcDbLine
 10
57.50004832496779
 20
1534.499987227444
 30
0.0
 11
57.87504832496779
 21
1534.124987227443
 31
0.0
  0
LINE
  5
1066
330
2
100
AcDbEntity
  8
0
  6
Continuous
 62
     7
100
AcDbLine
 10
57.87504832496779
 20
1534.124987227443
 30
0.0
 11
58.50004832496779
 21
1533.499987227442
 31
0.0
  0
ARC
  5
1067
330
2
100
AcDbEntity
  8
0
  6
Continuous
 62
     7
100
AcDbCircle
 10
3821.000050020074
 20
1677.499987242999
 30
0.0
 40
12.85000000000007
100
AcDbArc
 50
314.4582209814551
 51
45.54177901123052
  0
ARC
  5
1068
330
2
100
AcDbEntity
  8
0
  6
Continuous
 62
     7
100
AcDbCircle
 10
3821.000050020101
 20
1677.499987242961
 30
0.0
 40
13.00000000000022
100
AcDbArc
 50
313.8130523531978
 51
46.1869476394492
  0
ARC
  5
1069
330
2
100
AcDbEntity
  8
0
  6
Continuous
 62
     7
100
AcDbCircle
 10
3821.000050020101
 20
1677.499987242961
 30
0.0
 40
14.99999999999979
100
AcDbArc
 50
306.8698905256459
 51
53.13010946704303
  0
ARC
  5
106A
330
2
100
AcDbEntity
  8
0
  6
Continuous
 62
     7
100
AcDbCircle
 10
3821.00005002216
 20
3377.49998724363
 30
0.0
 40
12.85000000000042
100
AcDbArc
 50
314.4582209461715
 51
45.54177905368109
  0
ARC
  5
106B
330
2
100
AcDbEntity
  8
0
  6
Continuous
 62
     7
100
AcDbCircle
 10
3821.000050022185
 20
3377.499987243592
 30
0.0
 40
13.0000000000002
100
AcDbArc
 50
313.8130523188301
 51
46.18694768102255
  0
ARC
  5
106C
330
2
100
AcDbEntity
  8
0
  6
Continuous
 62
     7
100
AcDbCircle
 10
3821.000050022185
 20
3377.499987243592
 30
0.0
 40
14.99999999999966
100
AcDbArc
 50
306.8698904995908
 51
53.13010950037792
  0
LINE
  5
106D
330
2
100
AcDbEntity
  8
0
  6
Continuous
 62
     7
100
AcDbLine
 10
3800.500048530976
 20
1697.499987245236
 30
0.0
 11
3801.00004853098
 21
1697.499987245204
 31
0.0
  0
LINE
  5
106E
330
2
100
AcDbEntity
  8
0
  6
Continuous
 62
     9
100
AcDbLine
 10
3801.00004853098
 20
1697.499987245204
 30
0.0
 11
3801.000048530948
 21
1696.999987245204
 31
0.0
  0
LINE
  5
106F
330
2
100
AcDbEntity
  8
0
  6
Continuous
 62
     9
100
AcDbLine
 10
3801.000048530951
 20
1696.999987245204
 30
0.0
 11
3800.000048530945
 21
1696.999987245268
 31
0.0
  0
ARC
  5
1070
330
2
100
AcDbEntity
  8
0
  6
Continuous
 62
     7
100
AcDbCircle
 10
3800.500048530944
 20
1696.999987245236
 30
0.0
 40
0.4999999999999451
100
AcDbArc
 50
89.99999999635228
 51
179.9999999963262
  0
LINE
  5
1071
330
2
100
AcDbEntity
  8
0
  6
Continuous
 62
     9
100
AcDbLine
 10
3800.000048528445
 20
1657.999987245268
 30
0.0
 11
3801.000048528453
 21
1657.999987245204
 31
0.0
  0
LINE
  5
1072
330
2
100
AcDbEntity
  8
0
  6
Continuous
 62
     9
100
AcDbLine
 10
3801.000048528447
 20
1657.999987245204
 30
0.0
 11
3801.000048528415
 21
1657.499987245204
 31
0.0
  0
LINE
  5
1073
330
2
100
AcDbEntity
  8
0
  6
Continuous
 62
     7
100
AcDbLine
 10
3801.000048528415
 20
1657.499987245204
 30
0.0
 11
3800.500048528414
 21
1657.499987245236
 31
0.0
  0
ARC
  5
1074
330
2
100
AcDbEntity
  8
0
  6
Continuous
 62
     7
100
AcDbCircle
 10
3800.500048528446
 20
1657.999987245236
 30
0.0
 40
0.5000000000006111
100
AcDbArc
 50
179.9999999963262
 51
269.9999999963523
  0
LINE
  5
1075
330
2
100
AcDbEntity
  8
0
  6
Continuous
 62
     7
100
AcDbLine
 10
3800.000048530945
 20
1696.999987245268
 30
0.0
 11
3800.000048528445
 21
1657.999987245268
 31
0.0
  0
LINE
  5
1076
330
2
100
AcDbEntity
  8
0
  6
Continuous
 62
     9
100
AcDbLine
 10
3801.000048530951
 20
1696.999987245204
 30
0.0
 11
3801.000048528453
 21
1657.999987245204
 31
0.0
  0
LINE
  5
1077
330
2
100
AcDbEntity
  8
0
  6
Continuous
 62
     9
100
AcDbLine
 10
3829.000048530951
 20
1696.99998724341
 30
0.0
 11
3801.000048530951
 21
1696.999987245204
 31
0.0
  0
LINE
  5
1078
330
2
100
AcDbEntity
  8
0
  6
Continuous
 62
     7
100
AcDbLine
 10
3801.00004853098
 20
1697.499987245204
 30
0.0
 11
3829.00004853098
 21
1697.49998724341
 31
0.0
  0
LINE
  5
1079
330
2
100
AcDbEntity
  8
0
  6
Continuous
 62
     9
100
AcDbLine
 10
3829.000048530948
 20
1696.99998724341
 30
0.0
 11
3829.00004853098
 21
1697.49998724341
 31
0.0
  0
LINE
  5
107A
330
2
100
AcDbEntity
  8
0
  6
Continuous
 62
     9
100
AcDbLine
 10
3801.000048528453
 20
1657.999987245204
 30
0.0
 11
3829.000048528453
 21
1657.99998724341
 31
0.0
  0
LINE
  5
107B
330
2
100
AcDbEntity
  8
0
  6
Continuous
 62
     9
100
AcDbLine
 10
3829.000048530951
 20
1696.99998724341
 30
0.0
 11
3829.000048528453
 21
1657.99998724341
 31
0.0
  0
LINE
  5
107C
330
2
100
AcDbEntity
  8
0
  6
Continuous
 62
     7
100
AcDbLine
 10
3829.000048528418
 20
1657.49998724341
 30
0.0
 11
3801.000048528415
 21
1657.499987245204
 31
0.0
  0
LINE
  5
107D
330
2
100
AcDbEntity
  8
0
  6
Continuous
 62
     9
100
AcDbLine
 10
3829.000048528418
 20
1657.49998724341
 30
0.0
 11
3829.00004852845
 21
1657.99998724341
 31
0.0
  0
LINE
  5
107E
330
2
100
AcDbEntity
  8
0
  6
Continuous
 62
     9
100
AcDbLine
 10
3830.000048530944
 20
1696.999987243346
 30
0.0
 11
3829.000048530951
 21
1696.99998724341
 31
0.0
  0
LINE
  5
107F
330
2
100
AcDbEntity
  8
0
  6
Continuous
 62
     7
100
AcDbLine
 10
3829.00004853098
 20
1697.49998724341
 30
0.0
 11
3829.500048530976
 21
1697.499987243378
 31
0.0
  0
ARC
  5
1080
330
2
100
AcDbEntity
  8
0
  6
Continuous
 62
     7
100
AcDbCircle
 10
3829.500048530944
 20
1696.999987243378
 30
0.0
 40
0.5000000000006111
100
AcDbArc
 50
359.9999999963262
 51
89.99999999635228
  0
LINE
  5
1081
330
2
100
AcDbEntity
  8
0
  6
Continuous
 62
     9
100
AcDbLine
 10
3829.000048528453
 20
1657.99998724341
 30
0.0
 11
3830.000048528446
 21
1657.999987243346
 31
0.0
  0
LINE
  5
1082
330
2
100
AcDbEntity
  8
0
  6
Continuous
 62
     7
100
AcDbLine
 10
3830.000048530944
 20
1696.999987243346
 30
0.0
 11
3830.000048528446
 21
1657.999987243346
 31
0.0
  0
LINE
  5
1083
330
2
100
AcDbEntity
  8
0
  6
Continuous
 62
     7
100
AcDbLine
 10
3829.500048528414
 20
1657.499987243378
 30
0.0
 11
3829.000048528418
 21
1657.49998724341
 31
0.0
  0
ARC
  5
1084
330
2
100
AcDbEntity
  8
0
  6
Continuous
 62
     7
100
AcDbCircle
 10
3829.500048528446
 20
1657.999987243378
 30
0.0
 40
0.4999999999999451
100
AcDbArc
 50
269.9999999963523
 51
359.9999999963262
  0
LINE
  5
1085
330
2
100
AcDbEntity
  8
0
  6
Continuous
 62
     7
100
AcDbLine
 10
3800.500048525587
 20
3397.499987247141
 30
0.0
 11
3801.000048525592
 21
3397.499987247141
 31
0.0
  0
LINE
  5
1086
330
2
100
AcDbEntity
  8
0
  6
Continuous
 62
     9
100
AcDbLine
 10
3801.000048525592
 20
3397.499987247141
 30
0.0
 11
3801.000048525592
 21
3396.999987247141
 31
0.0
  0
LINE
  5
1087
330
2
100
AcDbEntity
  8
0
  6
Continuous
 62
     9
100
AcDbLine
 10
3801.000048525595
 20
3396.999987247141
 30
0.0
 11
3800.000048525586
 21
3396.999987247142
 31
0.0
  0
ARC
  5
1088
330
2
100
AcDbEntity
  8
0
  6
Continuous
 62
     7
100
AcDbCircle
 10
3800.500048525587
 20
3396.999987247141
 30
0.0
 40
0.4999999999999451
100
AcDbArc
 50
89.99999999989578
 51
179.9999999998697
  0
LINE
  5
1089
330
2
100
AcDbEntity
  8
0
  6
Continuous
 62
     7
100
AcDbLine
 10
3800.000048525586
 20
3396.999987247142
 30
0.0
 11
3800.000048525546
 21
3357.999987247142
 31
0.0
  0
LINE
  5
108A
330
2
100
AcDbEntity
  8
0
  6
Continuous
 62
     9
100
AcDbLine
 10
3801.000048525595
 20
3396.999987247141
 30
0.0
 11
3801.000048525554
 21
3357.999987247141
 31
0.0
  0
LINE
  5
108B
330
2
100
AcDbEntity
  8
0
  6
Continuous
 62
     9
100
AcDbLine
 10
3800.000048525546
 20
3357.999987247142
 30
0.0
 11
3801.000048525554
 21
3357.999987247141
 31
0.0
  0
LINE
  5
108C
330
2
100
AcDbEntity
  8
0
  6
Continuous
 62
     9
100
AcDbLine
 10
3801.000048525549
 20
3357.999987247141
 30
0.0
 11
3801.000048525549
 21
3357.499987247141
 31
0.0
  0
LINE
  5
108D
330
2
100
AcDbEntity
  8
0
  6
Continuous
 62
     7
100
AcDbLine
 10
3801.000048525549
 20
3357.49998724714
 30
0.0
 11
3800.500048525545
 21
3357.499987247141
 31
0.0
  0
ARC
  5
108E
330
2
100
AcDbEntity
  8
0
  6
Continuous
 62
     7
100
AcDbCircle
 10
3800.500048525546
 20
3357.999987247141
 30
0.0
 40
0.5000000000006111
100
AcDbArc
 50
179.9999999999479
 51
269.9999999998958
  0
LINE
  5
108F
330
2
100
AcDbEntity
  8
0
  6
Continuous
 62
     9
100
AcDbLine
 10
3801.000048525554
 20
3357.999987247141
 30
0.0
 11
3829.000048525553
 21
3357.999987247112
 31
0.0
  0
LINE
  5
1090
330
2
100
AcDbEntity
  8
0
  6
Continuous
 62
     9
100
AcDbLine
 10
3829.000048525593
 20
3396.999987247112
 30
0.0
 11
3829.000048525553
 21
3357.999987247112
 31
0.0
  0
LINE
  5
1091
330
2
100
AcDbEntity
  8
0
  6
Continuous
 62
     9
100
AcDbLine
 10
3829.000048525593
 20
3396.999987247112
 30
0.0
 11
3801.000048525595
 21
3396.999987247141
 31
0.0
  0
LINE
  5
1092
330
2
100
AcDbEntity
  8
0
  6
Continuous
 62
     7
100
AcDbLine
 10
3801.000048525592
 20
3397.499987247141
 30
0.0
 11
3829.000048525592
 21
3397.499987247112
 31
0.0
  0
LINE
  5
1093
330
2
100
AcDbEntity
  8
0
  6
Continuous
 62
     9
100
AcDbLine
 10
3829.000048525589
 20
3396.999987247112
 30
0.0
 11
3829.000048525592
 21
3397.499987247112
 31
0.0
  0
LINE
  5
1094
330
2
100
AcDbEntity
  8
0
  6
Continuous
 62
     7
100
AcDbLine
 10
3829.000048525549
 20
3357.499987247112
 30
0.0
 11
3801.000048525549
 21
3357.49998724714
 31
0.0
  0
LINE
  5
1095
330
2
100
AcDbEntity
  8
0
  6
Continuous
 62
     9
100
AcDbLine
 10
3829.000048525549
 20
3357.499987247112
 30
0.0
 11
3829.00004852555
 21
3357.999987247112
 31
0.0
  0
LINE
  5
1096
330
2
100
AcDbEntity
  8
0
  6
Continuous
 62
     9
100
AcDbLine
 10
3829.000048525553
 20
3357.999987247112
 30
0.0
 11
3830.000048525546
 21
3357.999987247111
 31
0.0
  0
LINE
  5
1097
330
2
100
AcDbEntity
  8
0
  6
Continuous
 62
     7
100
AcDbLine
 10
3830.000048525587
 20
3396.999987247111
 30
0.0
 11
3830.000048525546
 21
3357.999987247111
 31
0.0
  0
LINE
  5
1098
330
2
100
AcDbEntity
  8
0
  6
Continuous
 62
     9
100
AcDbLine
 10
3830.000048525587
 20
3396.999987247111
 30
0.0
 11
3829.000048525593
 21
3396.999987247112
 31
0.0
  0
LINE
  5
1099
330
2
100
AcDbEntity
  8
0
  6
Continuous
 62
     7
100
AcDbLine
 10
3829.000048525592
 20
3397.499987247112
 30
0.0
 11
3829.500048525586
 21
3397.499987247112
 31
0.0
  0
ARC
  5
109A
330
2
100
AcDbEntity
  8
0
  6
Continuous
 62
     7
100
AcDbCircle
 10
3829.500048525586
 20
3396.999987247112
 30
0.0
 40
0.4999999999997229
100
AcDbArc
 50
359.9999999999479
 51
89.99999999989578
  0
LINE
  5
109B
330
2
100
AcDbEntity
  8
0
  6
Continuous
 62
     7
100
AcDbLine
 10
3829.500048525545
 20
3357.499987247111
 30
0.0
 11
3829.000048525549
 21
3357.499987247112
 31
0.0
  0
ARC
  5
109C
330
2
100
AcDbEntity
  8
0
  6
Continuous
 62
     7
100
AcDbCircle
 10
3829.500048525547
 20
3357.999987247112
 30
0.0
 40
0.4999999999999451
100
AcDbArc
 50
269.9999999998958
 51
359.9999999998958
  0
CIRCLE
  5
109D
330
2
100
AcDbEntity
  8
0
  6
Continuous
 62
     7
100
AcDbCircle
 10
4545.00004852547
 20
3472.499987246323
 30
0.0
 40
12.50000000000023
  0
CIRCLE
  5
109E
330
2
100
AcDbEntity
  8
0
  6
Continuous
 62
     7
100
AcDbCircle
 10
4545.000048525467
 20
3472.499987246322
 30
0.0
 40
12.20000000000004
  0
CIRCLE
  5
109F
330
2
100
AcDbEntity
  8
0
  6
Continuous
 62
     7
100
AcDbCircle
 10
4545.000041440746
 20
3466.999987246327
 30
0.0
 40
1.250000000000194
  0
CIRCLE
  5
10A0
330
2
100
AcDbEntity
  8
0
  6
Continuous
 62
     7
100
AcDbCircle
 10
4545.000055610183
 20
3477.999987246318
 30
0.0
 40
1.250000000000194
  0
LINE
  5
10A1
330
2
100
AcDbEntity
  8
0
  6
Continuous
 62
     4
100
AcDbLine
 10
4580.000048523567
 20
1527.499987246307
 30
0.0
 11
4580.000048525636
 21
3527.499987246307
 31
0.0
  0
LINE
  5
10A2
330
2
100
AcDbEntity
  8
0
  6
Continuous
 62
     4
100
AcDbLine
 10
3780.000048523567
 20
1527.499987247135
 30
0.0
 11
3780.000048525636
 21
3527.499987247136
 31
0.0
  0
LINE
  5
10A3
330
2
100
AcDbEntity
  8
0
  6
Continuous
 62
     4
100
AcDbLine
 10
3780.000048525636
 20
3527.499987247136
 30
0.0
 11
4580.000048525636
 21
3527.499987246307
 31
0.0
  0
ARC
  5
10A4
330
2
100
AcDbEntity
  8
0
  6
Continuous
 62
     4
100
AcDbCircle
 10
3821.000048525482
 20
3377.499987247093
 30
0.0
 40
15.00000000000039
100
AcDbArc
 50
306.8698976461462
 51
53.13010235372347
  0
ARC
  5
10A5
330
2
100
AcDbEntity
  8
0
  6
Continuous
 62
     4
100
AcDbCircle
 10
3821.000048523723
 20
1677.499987247093
 30
0.0
 40
15.00000000000021
100
AcDbArc
 50
306.8698976707371
 51
53.13010232195187
  0
LINE
  5
10A6
330
2
100
AcDbEntity
  8
0
  6
Continuous
 62
     7
100
AcDbLine
 10
3780.000048394283
 20
1477.499987247133
 30
0.0
 11
3780.000048397486
 21
1527.499987247133
 31
0.0
  0
LINE
  5
10A7
330
2
100
AcDbEntity
  8
0
  6
Continuous
 62
     7
100
AcDbLine
 10
4580.000048397486
 20
1527.499987195874
 30
0.0
 11
3780.000048397486
 21
1527.499987247133
 31
0.0
  0
LINE
  5
10A8
330
2
100
AcDbEntity
  8
0
  6
Continuous
 62
     7
100
AcDbLine
 10
4580.000048394284
 20
1477.499987195874
 30
0.0
 11
3780.000048394283
 21
1477.499987247133
 31
0.0
  0
LINE
  5
10A9
330
2
100
AcDbEntity
  8
0
  6
Continuous
 62
     7
100
AcDbLine
 10
4580.000048394284
 20
1477.499987195874
 30
0.0
 11
4580.000048397486
 21
1527.499987195874
 31
0.0
  0
LINE
  5
10AA
330
2
100
AcDbEntity
  8
0
  6
Continuous
 62
     7
100
AcDbLine
 10
1642.000048459211
 20
3475.49999225637
 30
0.0
 11
1642.000048459231
 21
3469.49998223637
 31
0.0
  0
LINE
  5
10AB
330
2
100
AcDbEntity
  8
0
  6
Continuous
 62
     9
100
AcDbLine
 10
1642.000048459214
 20
3474.99998724637
 30
0.0
 11
1642.000048459229
 21
3469.99998724637
 31
0.0
  0
LINE
  5
10AC
330
2
100
AcDbEntity
  8
0
  6
Continuous
 62
     7
100
AcDbLine
 10
2773.084479637725
 20
1665.253924029388
 30
0.0
 11
2773.460557169196
 21
1665.905309421578
 31
0.0
  0
ARC
  5
10AD
330
2
100
AcDbEntity
  8
0
  6
Continuous
 62
     7
100
AcDbCircle
 10
2779.000046966433
 20
1677.499987200037
 30
0.0
 40
13.59999999999988
100
AcDbArc
 50
235.7832695248425
 51
244.2167304824885
  0
LINE
  5
10AE
330
2
100
AcDbEntity
  8
0
  6
Continuous
 62
     7
100
AcDbLine
 10
2771.728506361563
 20
1666.905309421467
 30
0.0
 11
2771.352428830091
 21
1666.253924029278
 31
0.0
  0
ARC
  5
10AF
330
2
100
AcDbEntity
  8
0
  6
Continuous
 62
     7
100
AcDbCircle
 10
2779.000046966433
 20
1677.499987200037
 30
0.0
 40
12.84999999999994
100
AcDbArc
 50
124.4633283521834
 51
235.5366716551447
  0
LINE
  5
10B0
330
2
100
AcDbEntity
  8
0
  6
Continuous
 62
     7
100
AcDbLine
 10
2771.728506360211
 20
1688.094664977679
 30
0.0
 11
2771.352428828659
 21
1688.74605036982
 31
0.0
  0
ARC
  5
10B1
330
2
100
AcDbEntity
  8
0
  6
Continuous
 62
     7
100
AcDbCircle
 10
2779.000046966433
 20
1677.499987200037
 30
0.0
 40
13.60000000000006
100
AcDbArc
 50
115.7832695248063
 51
124.2167304824709
  0
LINE
  5
10B2
330
2
100
AcDbEntity
  8
0
  6
Continuous
 62
     7
100
AcDbLine
 10
2773.084479636163
 20
1689.746050369931
 30
0.0
 11
2773.460557167717
 21
1689.09466497779
 31
0.0
  0
ARC
  5
10B3
330
2
100
AcDbEntity
  8
0
  6
Continuous
 62
     7
100
AcDbCircle
 10
2779.000046966433
 20
1677.499987200037
 30
0.0
 40
12.85000000000002
100
AcDbArc
 50
4.463328352164945
 51
115.5366716551073
  0
LINE
  5
10B4
330
2
100
AcDbEntity
  8
0
  6
Continuous
 62
     7
100
AcDbLine
 10
2791.811077369894
 20
1678.499987200854
 30
0.0
 11
2792.563232432917
 21
1678.499987200902
 31
0.0
  0
ARC
  5
10B5
330
2
100
AcDbEntity
  8
0
  6
Continuous
 62
     7
100
AcDbCircle
 10
2779.000046966433
 20
1677.499987200037
 30
0.0
 40
13.60000000000026
100
AcDbArc
 50
355.7832695247928
 51
4.216730482495268
  0
LINE
  5
10B6
330
2
100
AcDbEntity
  8
0
  6
Continuous
 62
     7
100
AcDbLine
 10
2792.563232433046
 20
1676.499987200902
 30
0.0
 11
2791.81107737002
 21
1676.499987200854
 31
0.0
  0
ARC
  5
10B7
330
2
100
AcDbEntity
  8
0
  6
Continuous
 62
     7
100
AcDbCircle
 10
2779.000046966433
 20
1677.499987200037
 30
0.0
 40
12.85000000000021
100
AcDbArc
 50
244.4633283521763
 51
355.5366716551489
  0
CIRCLE
  5
10B8
330
2
100
AcDbEntity
  8
0
  6
Continuous
 62
     7
100
AcDbCircle
 10
2779.000046966784
 20
1671.999987200037
 30
0.0
 40
1.249999999999751
  0
CIRCLE
  5
10B9
330
2
100
AcDbEntity
  8
0
  6
Continuous
 62
     7
100
AcDbCircle
 10
2779.000046966082
 20
1682.999987200037
 30
0.0
 40
1.249999999999751
  0
ARC
  5
10BA
330
2
100
AcDbEntity
  8
0
  6
Continuous
 62
     7
100
AcDbCircle
 10
2779.000046966436
 20
1677.499987200066
 30
0.0
 40
13.00000000000013
100
AcDbArc
 50
127.9191486695131
 51
232.0153978082346
  0
ARC
  5
10BB
330
2
100
AcDbEntity
  8
0
  6
Continuous
 62
     7
100
AcDbCircle
 10
2772.994111967679
 20
1667.111111188164
 30
0.0
 40
2.000000000000051
100
AcDbArc
 50
175.9117530112114
 51
304.0227934664492
  0
ARC
  5
10BC
330
2
100
AcDbEntity
  8
0
  6
Continuous
 62
     7
100
AcDbCircle
 10
2779.000046966436
 20
1677.499987200066
 30
0.0
 40
13.00000000000002
100
AcDbArc
 50
247.919148669468
 51
352.015397808179
  0
ARC
  5
10BD
330
2
100
AcDbEntity
  8
0
  6
Continuous
 62
     7
100
AcDbCircle
 10
2791.000045008887
 20
1677.493132923611
 30
0.0
 40
1.999999999999968
100
AcDbArc
 50
295.9117530111758
 51
359.967273238839
  0
ARC
  5
10BE
330
2
100
AcDbEntity
  8
0
  6
Continuous
 62
     7
100
AcDbCircle
 10
2791.000045008887
 20
1677.493132923611
 30
0.0
 40
2.000000000000241
100
AcDbArc
 50
359.967273238839
 51
64.02279346645531
  0
ARC
  5
10BF
330
2
100
AcDbEntity
  8
0
  6
Continuous
 62
     7
100
AcDbCircle
 10
2779.000046966436
 20
1677.499987200066
 30
0.0
 40
12.99999999999975
100
AcDbArc
 50
7.919148669522109
 51
112.0153978082316
  0
ARC
  5
10C0
330
2
100
AcDbEntity
  8
0
  6
Continuous
 62
     7
100
AcDbCircle
 10
2773.005983922748
 20
1687.895717488422
 30
0.0
 40
1.99999999999998
100
AcDbArc
 50
55.91175301125026
 51
184.0227934664691
  0
ARC
  5
10C1
330
2
100
AcDbEntity
  8
0
  6
Continuous
 62
     7
100
AcDbCircle
 10
2779.000046966436
 20
1677.499987200066
 30
0.0
 40
15.00000000000003
100
AcDbArc
 50
89.99999429799684
 51
269.9672732388389
  0
ARC
  5
10C2
330
2
100
AcDbEntity
  8
0
  6
Continuous
 62
     7
100
AcDbCircle
 10
2779.000046966436
 20
1677.499987200066
 30
0.0
 40
14.99999999999998
100
AcDbArc
 50
269.9672732388389
 51
89.99999429799684
  0
LINE
  5
10C3
330
2
100
AcDbEntity
  8
0
  6
Continuous
 62
     7
100
AcDbLine
 10
2773.084479637974
 20
3365.253924029389
 30
0.0
 11
2773.460557169445
 21
3365.905309421577
 31
0.0
  0
ARC
  5
10C4
330
2
100
AcDbEntity
  8
0
  6
Continuous
 62
     7
100
AcDbCircle
 10
2779.000046966681
 20
3377.499987200037
 30
0.0
 40
13.59999999999988
100
AcDbArc
 50
235.7832695248425
 51
244.2167304824885
  0
LINE
  5
10C5
330
2
100
AcDbEntity
  8
0
  6
Continuous
 62
     7
100
AcDbLine
 10
2771.728506361812
 20
3366.905309421467
 30
0.0
 11
2771.352428830342
 21
3366.253924029278
 31
0.0
  0
ARC
  5
10C6
330
2
100
AcDbEntity
  8
0
  6
Continuous
 62
     7
100
AcDbCircle
 10
2779.000046966681
 20
3377.499987200037
 30
0.0
 40
12.84999999999994
100
AcDbArc
 50
124.4633283521834
 51
235.5366716551447
  0
LINE
  5
10C7
330
2
100
AcDbEntity
  8
0
  6
Continuous
 62
     7
100
AcDbLine
 10
2771.728506360461
 20
3388.09466497768
 30
0.0
 11
2771.352428828907
 21
3388.74605036982
 31
0.0
  0
ARC
  5
10C8
330
2
100
AcDbEntity
  8
0
  6
Continuous
 62
     7
100
AcDbCircle
 10
2779.000046966681
 20
3377.499987200037
 30
0.0
 40
13.60000000000006
100
AcDbArc
 50
115.7832695248063
 51
124.2167304824709
  0
LINE
  5
10C9
330
2
100
AcDbEntity
  8
0
  6
Continuous
 62
     7
100
AcDbLine
 10
2773.084479636411
 20
3389.746050369931
 30
0.0
 11
2773.460557167965
 21
3389.09466497779
 31
0.0
  0
ARC
  5
10CA
330
2
100
AcDbEntity
  8
0
  6
Continuous
 62
     7
100
AcDbCircle
 10
2779.000046966681
 20
3377.499987200037
 30
0.0
 40
12.85000000000002
100
AcDbArc
 50
4.463328352164945
 51
115.5366716551073
  0
LINE
  5
10CB
330
2
100
AcDbEntity
  8
0
  6
Continuous
 62
     7
100
AcDbLine
 10
2791.811077370143
 20
3378.499987200854
 30
0.0
 11
2792.563232433169
 21
3378.499987200902
 31
0.0
  0
ARC
  5
10CC
330
2
100
AcDbEntity
  8
0
  6
Continuous
 62
     7
100
AcDbCircle
 10
2779.000046966681
 20
3377.499987200037
 30
0.0
 40
13.60000000000026
100
AcDbArc
 50
355.7832695247928
 51
4.216730482495268
  0
LINE
  5
10CD
330
2
100
AcDbEntity
  8
0
  6
Continuous
 62
     7
100
AcDbLine
 10
2792.563232433295
 20
3376.499987200901
 30
0.0
 11
2791.811077370271
 21
3376.499987200854
 31
0.0
  0
ARC
  5
10CE
330
2
100
AcDbEntity
  8
0
  6
Continuous
 62
     7
100
AcDbCircle
 10
2779.000046966681
 20
3377.499987200037
 30
0.0
 40
12.85000000000019
100
AcDbArc
 50
244.4633283521763
 51
355.5366716551489
  0
CIRCLE
  5
10CF
330
2
100
AcDbEntity
  8
0
  6
Continuous
 62
     7
100
AcDbCircle
 10
2779.000046967034
 20
3371.999987200037
 30
0.0
 40
1.249999999999751
  0
CIRCLE
  5
10D0
330
2
100
AcDbEntity
  8
0
  6
Continuous
 62
     7
100
AcDbCircle
 10
2779.000046966332
 20
3382.999987200037
 30
0.0
 40
1.249999999999751
  0
ARC
  5
10D1
330
2
100
AcDbEntity
  8
0
  6
Continuous
 62
     7
100
AcDbCircle
 10
2779.000046966688
 20
3377.499987200066
 30
0.0
 40
13.00000000000013
100
AcDbArc
 50
127.9191486695131
 51
232.0153978082346
  0
ARC
  5
10D2
330
2
100
AcDbEntity
  8
0
  6
Continuous
 62
     7
100
AcDbCircle
 10
2772.994111967926
 20
3367.111111188164
 30
0.0
 40
2.000000000000055
100
AcDbArc
 50
175.9117530112114
 51
304.0227934664492
  0
ARC
  5
10D3
330
2
100
AcDbEntity
  8
0
  6
Continuous
 62
     7
100
AcDbCircle
 10
2779.000046966688
 20
3377.499987200066
 30
0.0
 40
13.00000000000005
100
AcDbArc
 50
247.919148669468
 51
352.015397808179
  0
ARC
  5
10D4
330
2
100
AcDbEntity
  8
0
  6
Continuous
 62
     7
100
AcDbCircle
 10
2791.000045009136
 20
3377.493132923611
 30
0.0
 40
1.999999999999968
100
AcDbArc
 50
295.9117530111758
 51
359.967273238839
  0
ARC
  5
10D5
330
2
100
AcDbEntity
  8
0
  6
Continuous
 62
     7
100
AcDbCircle
 10
2791.000045009136
 20
3377.493132923611
 30
0.0
 40
2.000000000000241
100
AcDbArc
 50
359.967273238839
 51
64.02279346645531
  0
ARC
  5
10D6
330
2
100
AcDbEntity
  8
0
  6
Continuous
 62
     7
100
AcDbCircle
 10
2779.000046966688
 20
3377.499987200066
 30
0.0
 40
12.99999999999975
100
AcDbArc
 50
7.919148669522109
 51
112.0153978082316
  0
ARC
  5
10D7
330
2
100
AcDbEntity
  8
0
  6
Continuous
 62
     7
100
AcDbCircle
 10
2773.005983922996
 20
3387.895717488422
 30
0.0
 40
1.99999999999998
100
AcDbArc
 50
55.91175301125026
 51
184.0227934664691
  0
ARC
  5
10D8
330
2
100
AcDbEntity
  8
0
  6
Continuous
 62
     7
100
AcDbCircle
 10
2779.000046966688
 20
3377.499987200066
 30
0.0
 40
15.00000000000003
100
AcDbArc
 50
89.99999429893481
 51
269.9672732388389
  0
ARC
  5
10D9
330
2
100
AcDbEntity
  8
0
  6
Continuous
 62
     7
100
AcDbCircle
 10
2779.000046966688
 20
3377.499987200066
 30
0.0
 40
14.99999999999998
100
AcDbArc
 50
269.9672732388389
 51
89.99999429893481
  0
LINE
  5
10DA
330
2
100
AcDbEntity
  8
0
  6
Continuous
 62
     7
100
AcDbLine
 10
1641.500048460308
 20
1692.49998724446
 30
0.0
 11
1641.500048464091
 21
1662.49998724446
 31
0.0
  0
LINE
  5
10DB
330
2
100
AcDbEntity
  8
0
  6
Continuous
 62
     7
100
AcDbLine
 10
1641.500048459155
 20
3392.49998724509
 30
0.0
 11
1641.500048462936
 21
3362.499987245091
 31
0.0
  0
LINE
  5
10DC
330
2
100
AcDbEntity
  8
0
  6
Continuous
 62
     9
100
AcDbLine
 10
1628.000048757236
 20
1696.99998724341
 30
0.0
 11
1627.000048757229
 21
1696.99998724341
 31
0.0
  0
ARC
  5
10DD
330
2
100
AcDbEntity
  8
0
  6
Continuous
 62
     7
100
AcDbCircle
 10
1627.500048757229
 20
1696.99998724341
 30
0.0
 40
0.5000000000006111
100
AcDbArc
 50
90.0
 51
180.0
  0
LINE
  5
10DE
330
2
100
AcDbEntity
  8
0
  6
Continuous
 62
     7
100
AcDbLine
 10
1627.500048757229
 20
1697.49998724341
 30
0.0
 11
1628.000048757234
 21
1697.49998724341
 31
0.0
  0
LINE
  5
10DF
330
2
100
AcDbEntity
  8
0
  6
Continuous
 62
     9
100
AcDbLine
 10
1628.000048757234
 20
1696.999987243346
 30
0.0
 11
1628.000048757234
 21
1697.499987243378
 31
0.0
  0
LINE
  5
10E0
330
2
100
AcDbEntity
  8
0
  6
Continuous
 62
     9
100
AcDbLine
 10
1632.000048757236
 20
1696.999987243346
 30
0.0
 11
1628.000048757236
 21
1696.999987243346
 31
0.0
  0
LINE
  5
10E1
330
2
100
AcDbEntity
  8
0
  6
Continuous
 62
     7
100
AcDbLine
 10
1628.000048757234
 20
1697.499987243378
 30
0.0
 11
1632.000048757232
 21
1697.499987243378
 31
0.0
  0
LINE
  5
10E2
330
2
100
AcDbEntity
  8
0
  6
Continuous
 62
     7
100
AcDbLine
 10
1632.000048757232
 20
1697.499987243378
 30
0.0
 11
1632.000048757232
 21
1696.999987243346
 31
0.0
  0
LINE
  5
10E3
330
2
100
AcDbEntity
  8
0
  6
Continuous
 62
     9
100
AcDbLine
 10
1627.000048757231
 20
1657.99998724341
 30
0.0
 11
1628.000048757236
 21
1657.99998724341
 31
0.0
  0
LINE
  5
10E4
330
2
100
AcDbEntity
  8
0
  6
Continuous
 62
     7
100
AcDbLine
 10
1627.000048757231
 20
1696.99998724341
 30
0.0
 11
1627.000048757231
 21
1657.99998724341
 31
0.0
  0
LINE
  5
10E5
330
2
100
AcDbEntity
  8
0
  6
Continuous
 62
     9
100
AcDbLine
 10
1628.000048757236
 20
1696.999987243346
 30
0.0
 11
1628.000048757236
 21
1657.999987243346
 31
0.0
  0
LINE
  5
10E6
330
2
100
AcDbEntity
  8
0
  6
Continuous
 62
     9
100
AcDbLine
 10
1628.000048757236
 20
1657.999987243346
 30
0.0
 11
1632.000048757236
 21
1657.999987243346
 31
0.0
  0
LINE
  5
10E7
330
2
100
AcDbEntity
  8
0
  6
Continuous
 62
     7
100
AcDbLine
 10
1632.000048757236
 20
1696.999987243346
 30
0.0
 11
1632.000048757236
 21
1657.999987243346
 31
0.0
  0
LINE
  5
10E8
330
2
100
AcDbEntity
  8
0
  6
Continuous
 62
     7
100
AcDbLine
 10
1628.000048757234
 20
1657.49998724341
 30
0.0
 11
1627.500048757229
 21
1657.49998724341
 31
0.0
  0
ARC
  5
10E9
330
2
100
AcDbEntity
  8
0
  6
Continuous
 62
     7
100
AcDbCircle
 10
1627.500048757229
 20
1657.99998724341
 30
0.0
 40
0.4999999999999451
100
AcDbArc
 50
180.0
 51
270.0
  0
LINE
  5
10EA
330
2
100
AcDbEntity
  8
0
  6
Continuous
 62
     9
100
AcDbLine
 10
1628.000048757234
 20
1657.499987243378
 30
0.0
 11
1628.000048757234
 21
1657.999987243346
 31
0.0
  0
LINE
  5
10EB
330
2
100
AcDbEntity
  8
0
  6
Continuous
 62
     7
100
AcDbLine
 10
1632.000048757232
 20
1657.499987243378
 30
0.0
 11
1628.000048757234
 21
1657.499987243378
 31
0.0
  0
LINE
  5
10EC
330
2
100
AcDbEntity
  8
0
  6
Continuous
 62
     7
100
AcDbLine
 10
1632.000048757232
 20
1657.999987243346
 30
0.0
 11
1632.000048757232
 21
1657.499987243378
 31
0.0
  0
LINE
  5
10ED
330
2
100
AcDbEntity
  8
0
  6
Continuous
 62
     9
100
AcDbLine
 10
1632.000048459225
 20
1694.499987243404
 30
0.0
 11
1633.000048459225
 21
1694.499987243404
 31
0.0
  0
LINE
  5
10EE
330
2
100
AcDbEntity
  8
0
  6
Continuous
 62
     7
100
AcDbLine
 10
1632.000048459225
 20
1696.499987243533
 30
0.0
 11
1633.000048459225
 21
1696.499987243533
 31
0.0
  0
LINE
  5
10EF
330
2
100
AcDbEntity
  8
0
  6
Continuous
 62
     9
100
AcDbLine
 10
1632.000048459225
 20
1660.499987243405
 30
0.0
 11
1633.000048459225
 21
1660.499987243405
 31
0.0
  0
LINE
  5
10F0
330
2
100
AcDbEntity
  8
0
  6
Continuous
 62
     7
100
AcDbLine
 10
1632.000048459225
 20
1658.499987243533
 30
0.0
 11
1633.000048459225
 21
1658.499987243533
 31
0.0
  0
LINE
  5
10F1
330
2
100
AcDbEntity
  8
0
  6
Continuous
 62
     7
100
AcDbLine
 10
1642.000048459226
 20
1696.499987243531
 30
0.0
 11
1641.000048459224
 21
1696.499987243531
 31
0.0
  0
LINE
  5
10F2
330
2
100
AcDbEntity
  8
0
  6
Continuous
 62
     9
100
AcDbLine
 10
1642.000048459226
 20
1694.499987243403
 30
0.0
 11
1641.000048459224
 21
1694.499987243403
 31
0.0
  0
LINE
  5
10F3
330
2
100
AcDbEntity
  8
0
  6
Continuous
 62
     9
100
AcDbLine
 10
1642.000048459226
 20
1660.499987243406
 30
0.0
 11
1641.000048459224
 21
1660.499987243406
 31
0.0
  0
LINE
  5
10F4
330
2
100
AcDbEntity
  8
0
  6
Continuous
 62
     7
100
AcDbLine
 10
1642.000048459226
 20
1658.499987243534
 30
0.0
 11
1641.000048459224
 21
1658.499987243534
 31
0.0
  0
LINE
  5
10F5
330
2
100
AcDbEntity
  8
0
  6
Continuous
 62
     9
100
AcDbLine
 10
1628.00004875724
 20
3396.999987247112
 30
0.0
 11
1627.000048757232
 21
3396.999987247112
 31
0.0
  0
ARC
  5
10F6
330
2
100
AcDbEntity
  8
0
  6
Continuous
 62
     7
100
AcDbCircle
 10
1627.500048757229
 20
3396.999987247112
 30
0.0
 40
0.5000000000006111
100
AcDbArc
 50
90.0
 51
180.0
  0
LINE
  5
10F7
330
2
100
AcDbEntity
  8
0
  6
Continuous
 62
     7
100
AcDbLine
 10
1627.500048757229
 20
3397.499987247112
 30
0.0
 11
1628.000048757236
 21
3397.499987247112
 31
0.0
  0
LINE
  5
10F8
330
2
100
AcDbEntity
  8
0
  6
Continuous
 62
     9
100
AcDbLine
 10
1628.000048757236
 20
3396.999987247111
 30
0.0
 11
1628.000048757236
 21
3397.499987247112
 31
0.0
  0
LINE
  5
10F9
330
2
100
AcDbEntity
  8
0
  6
Continuous
 62
     9
100
AcDbLine
 10
1627.000048757231
 20
3357.999987247112
 30
0.0
 11
1628.000048757236
 21
3357.999987247112
 31
0.0
  0
LINE
  5
10FA
330
2
100
AcDbEntity
  8
0
  6
Continuous
 62
     7
100
AcDbLine
 10
1627.000048757231
 20
3396.999987247112
 30
0.0
 11
1627.000048757231
 21
3357.999987247112
 31
0.0
  0
LINE
  5
10FB
330
2
100
AcDbEntity
  8
0
  6
Continuous
 62
     9
100
AcDbLine
 10
1628.00004875724
 20
3396.999987247111
 30
0.0
 11
1628.00004875724
 21
3357.999987247111
 31
0.0
  0
LINE
  5
10FC
330
2
100
AcDbEntity
  8
0
  6
Continuous
 62
     9
100
AcDbLine
 10
1632.000048757236
 20
3396.999987247111
 30
0.0
 11
1628.00004875724
 21
3396.999987247111
 31
0.0
  0
LINE
  5
10FD
330
2
100
AcDbEntity
  8
0
  6
Continuous
 62
     7
100
AcDbLine
 10
1628.000048757236
 20
3397.499987247112
 30
0.0
 11
1632.000048757236
 21
3397.499987247112
 31
0.0
  0
LINE
  5
10FE
330
2
100
AcDbEntity
  8
0
  6
Continuous
 62
     7
100
AcDbLine
 10
1632.000048757236
 20
3397.499987247112
 30
0.0
 11
1632.000048757236
 21
3396.999987247111
 31
0.0
  0
LINE
  5
10FF
330
2
100
AcDbEntity
  8
0
  6
Continuous
 62
     9
100
AcDbLine
 10
1628.00004875724
 20
3357.999987247111
 30
0.0
 11
1632.000048757236
 21
3357.999987247111
 31
0.0
  0
LINE
  5
1100
330
2
100
AcDbEntity
  8
0
  6
Continuous
 62
     7
100
AcDbLine
 10
1632.000048757236
 20
3396.999987247111
 30
0.0
 11
1632.000048757236
 21
3357.999987247111
 31
0.0
  0
LINE
  5
1101
330
2
100
AcDbEntity
  8
0
  6
Continuous
 62
     7
100
AcDbLine
 10
1628.000048757236
 20
3357.499987247112
 30
0.0
 11
1627.500048757229
 21
3357.499987247112
 31
0.0
  0
ARC
  5
1102
330
2
100
AcDbEntity
  8
0
  6
Continuous
 62
     7
100
AcDbCircle
 10
1627.500048757229
 20
3357.999987247112
 30
0.0
 40
0.4999999999999451
100
AcDbArc
 50
180.0
 51
270.0
  0
LINE
  5
1103
330
2
100
AcDbEntity
  8
0
  6
Continuous
 62
     9
100
AcDbLine
 10
1628.000048757236
 20
3357.499987247111
 30
0.0
 11
1628.000048757236
 21
3357.999987247111
 31
0.0
  0
LINE
  5
1104
330
2
100
AcDbEntity
  8
0
  6
Continuous
 62
     7
100
AcDbLine
 10
1632.000048757236
 20
3357.499987247111
 30
0.0
 11
1628.000048757236
 21
3357.499987247111
 31
0.0
  0
LINE
  5
1105
330
2
100
AcDbEntity
  8
0
  6
Continuous
 62
     7
100
AcDbLine
 10
1632.000048757236
 20
3357.999987247111
 30
0.0
 11
1632.000048757236
 21
3357.499987247111
 31
0.0
  0
LINE
  5
1106
330
2
100
AcDbEntity
  8
0
  6
Continuous
 62
     9
100
AcDbLine
 10
1632.000048459229
 20
3394.499987247107
 30
0.0
 11
1633.000048459225
 21
3394.499987247107
 31
0.0
  0
LINE
  5
1107
330
2
100
AcDbEntity
  8
0
  6
Continuous
 62
     7
100
AcDbLine
 10
1632.000048459229
 20
3396.499987247109
 30
0.0
 11
1633.000048459225
 21
3396.499987247109
 31
0.0
  0
LINE
  5
1108
330
2
100
AcDbEntity
  8
0
  6
Continuous
 62
     9
100
AcDbLine
 10
1632.000048459229
 20
3360.499987247106
 30
0.0
 11
1633.000048459225
 21
3360.499987247106
 31
0.0
  0
LINE
  5
1109
330
2
100
AcDbEntity
  8
0
  6
Continuous
 62
     7
100
AcDbLine
 10
1632.000048459229
 20
3358.499987247109
 30
0.0
 11
1633.000048459225
 21
3358.499987247109
 31
0.0
  0
LINE
  5
110A
330
2
100
AcDbEntity
  8
0
  6
Continuous
 62
     7
100
AcDbLine
 10
1642.000048459226
 20
3396.499987247107
 30
0.0
 11
1641.000048459225
 21
3396.499987247107
 31
0.0
  0
LINE
  5
110B
330
2
100
AcDbEntity
  8
0
  6
Continuous
 62
     9
100
AcDbLine
 10
1642.000048459226
 20
3394.499987247105
 30
0.0
 11
1641.000048459225
 21
3394.499987247105
 31
0.0
  0
LINE
  5
110C
330
2
100
AcDbEntity
  8
0
  6
Continuous
 62
     9
100
AcDbLine
 10
1642.000048459226
 20
3360.499987247108
 30
0.0
 11
1641.000048459225
 21
3360.499987247108
 31
0.0
  0
LINE
  5
110D
330
2
100
AcDbEntity
  8
0
  6
Continuous
 62
     7
100
AcDbLine
 10
1642.000048459226
 20
3358.49998724711
 30
0.0
 11
1641.000048459225
 21
3358.49998724711
 31
0.0
  0
LINE
  5
110E
330
2
100
AcDbEntity
  8
0
  6
Continuous
 62
     7
100
AcDbLine
 10
1632.000048459185
 20
3484.999987246341
 30
0.0
 11
1632.00004845926
 21
3459.99998724634
 31
0.0
  0
LINE
  5
110F
330
2
100
AcDbEntity
  8
0
  6
Continuous
 62
     7
100
AcDbLine
 10
1626.300048459186
 20
3484.999987246323
 30
0.0
 11
1626.300048459261
 21
3459.999987246323
 31
0.0
  0
LINE
  5
1110
330
2
100
AcDbEntity
  8
0
  6
Continuous
 62
     7
100
AcDbLine
 10
1626.000048459258
 20
3460.299987246322
 30
0.0
 11
1626.000048459185
 21
3484.699987246323
 31
0.0
  0
LINE
  5
1111
330
2
100
AcDbEntity
  8
0
  6
Continuous
 62
     9
100
AcDbLine
 10
1642.000048459211
 20
3475.499987246367
 30
0.0
 11
1642.000048459231
 21
3469.49998724637
 31
0.0
  0
LINE
  5
1112
330
2
100
AcDbEntity
  8
0
  6
Continuous
 62
     7
100
AcDbLine
 10
1643.000048459189
 20
3486.499987246372
 30
0.0
 11
1643.000048459271
 21
3458.499987246373
 31
0.0
  0
LINE
  5
1113
330
2
100
AcDbEntity
  8
0
  6
Continuous
 62
     7
100
AcDbLine
 10
1644.000048459187
 20
3486.499987246375
 30
0.0
 11
1644.000048459271
 21
3458.499987246376
 31
0.0
  0
LINE
  5
1114
330
2
100
AcDbEntity
  8
0
  6
Continuous
 62
     7
100
AcDbLine
 10
1647.000048459186
 20
3487.499987246385
 30
0.0
 11
1647.000048459229
 21
3472.499967924426
 31
0.0
  0
LINE
  5
1115
330
2
100
AcDbEntity
  8
0
  6
Continuous
 62
     9
100
AcDbLine
 10
1645.000048459186
 20
3487.499987246379
 30
0.0
 11
1645.000048459274
 21
3457.499987246379
 31
0.0
  0
LINE
  5
1116
330
2
100
AcDbEntity
  8
0
  6
Continuous
 62
     7
100
AcDbLine
 10
1647.000048459229
 20
3472.499967924426
 30
0.0
 11
1647.000048459271
 21
3457.499987246385
 31
0.0
  0
LINE
  5
1117
330
2
100
AcDbEntity
  8
0
  6
Continuous
 62
     7
100
AcDbLine
 10
1644.000048459187
 20
3486.499987246375
 30
0.0
 11
1644.000048459271
 21
3458.499987246376
 31
0.0
  0
LINE
  5
1118
330
2
100
AcDbEntity
  8
0
  6
Continuous
 62
     4
100
AcDbLine
 10
1641.000048459229
 20
1527.499987246307
 30
0.0
 11
1641.000048459229
 21
3527.499987246307
 31
0.0
  0
LINE
  5
1119
330
2
100
AcDbEntity
  8
0
  6
Continuous
 62
     4
100
AcDbLine
 10
1633.000048459231
 20
1527.499987246307
 30
0.0
 11
1641.000048459229
 21
1527.499987246307
 31
0.0
  0
LINE
  5
111A
330
2
100
AcDbEntity
  8
0
  6
Continuous
 62
     4
100
AcDbLine
 10
1633.000048459231
 20
1527.499987246307
 30
0.0
 11
1633.000048459231
 21
3527.499987246307
 31
0.0
  0
LINE
  5
111B
330
2
100
AcDbEntity
  8
0
  6
Continuous
 62
     4
100
AcDbLine
 10
1633.000048459231
 20
3527.499987246307
 30
0.0
 11
1641.000048459229
 21
3527.499987246307
 31
0.0
  0
LINE
  5
111C
330
2
100
AcDbEntity
  8
0
  6
Continuous
 62
     7
100
AcDbLine
 10
1682.000048459671
 20
1546.499987201185
 30
0.0
 11
1682.000048459475
 21
1548.499987201313
 31
0.0
  0
LINE
  5
111D
330
2
100
AcDbEntity
  8
0
  6
Continuous
 62
     9
100
AcDbLine
 10
1682.000048459673
 20
1546.499987201185
 30
0.0
 11
1642.000048459673
 21
1546.499987197315
 31
0.0
  0
LINE
  5
111E
330
2
100
AcDbEntity
  8
0
  6
Continuous
 62
     7
100
AcDbLine
 10
1682.000048459475
 20
1548.499987201313
 30
0.0
 11
1644.000048459478
 21
1548.499987197637
 31
0.0
  0
ARC
  5
111F
330
2
100
AcDbEntity
  8
0
  6
Continuous
 62
     7
100
AcDbCircle
 10
1644.000048459671
 20
1546.499987197637
 30
0.0
 40
2.000000000063061
100
AcDbArc
 50
90.00000000552368
 51
180.0000000092235
  0
LINE
  5
1120
330
2
100
AcDbEntity
  8
0
  6
Continuous
 62
     7
100
AcDbLine
 10
1642.000048459673
 20
1546.499987197315
 30
0.0
 11
1642.00004846151
 21
1527.499987197315
 31
0.0
  0
LINE
  5
1121
330
2
100
AcDbEntity
  8
0
  6
Continuous
 62
     7
100
AcDbLine
 10
1682.000048461514
 20
1527.499987201185
 30
0.0
 11
1682.000048459673
 21
1546.499987201185
 31
0.0
  0
LINE
  5
1122
330
2
100
AcDbEntity
  8
0
  6
Continuous
 62
     7
100
AcDbLine
 10
1642.000050053144
 20
3527.49998719646
 30
0.0
 11
1642.000050053137
 21
3475.49998724637
 31
0.0
  0
LINE
  5
1123
330
2
100
AcDbEntity
  8
0
  6
Continuous
 62
     7
100
AcDbLine
 10
1642.000050053137
 20
3475.49998724637
 30
0.0
 11
1642.000049256177
 21
3474.99998724637
 31
0.0
  0
LINE
  5
1124
330
2
100
AcDbEntity
  8
0
  6
Continuous
 62
     7
100
AcDbLine
 10
1642.000049256185
 20
3469.99998724637
 30
0.0
 11
1642.000050053137
 21
3469.49998724637
 31
0.0
  0
LINE
  5
1125
330
2
100
AcDbEntity
  8
0
  6
Continuous
 62
     7
100
AcDbLine
 10
1642.000050053137
 20
3469.49998724637
 30
0.0
 11
1642.000050053137
 21
3469.449977246398
 31
0.0
  0
LINE
  5
1126
330
2
100
AcDbEntity
  8
0
  6
Continuous
 62
     7
100
AcDbLine
 10
1642.000050053137
 20
3469.449977246398
 30
0.0
 11
1642.000050052859
 21
1546.499987198661
 31
0.0
  0
LINE
  5
1127
330
2
100
AcDbEntity
  8
0
  6
Continuous
 62
     7
100
AcDbLine
 10
1647.800048367411
 20
3527.499987196546
 30
0.0
 11
1647.800048367406
 21
3487.499987155942
 31
0.0
  0
LINE
  5
1128
330
2
100
AcDbEntity
  8
0
  6
Continuous
 62
     7
100
AcDbLine
 10
1647.800048367404
 20
3457.499987155942
 30
0.0
 11
1647.800048367126
 21
1548.499987198005
 31
0.0
  0
LINE
  5
1129
330
2
100
AcDbEntity
  8
0
  6
Continuous
 62
     7
100
AcDbLine
 10
1647.800048367411
 20
3527.499987196432
 30
0.0
 11
1642.000050053144
 21
3527.499987196434
 31
0.0
  0
LINE
  5
112A
330
2
100
AcDbEntity
  8
0
  6
Continuous
 62
     9
100
AcDbLine
 10
1660.200045900372
 20
3527.499987196544
 30
0.0
 11
1660.200045900365
 21
3487.499987156016
 31
0.0
  0
LINE
  5
112B
330
2
100
AcDbEntity
  8
0
  6
Continuous
 62
     9
100
AcDbLine
 10
1660.200045900359
 20
3457.499987156016
 30
0.0
 11
1660.200045900085
 21
1548.499987199204
 31
0.0
  0
LINE
  5
112C
330
2
100
AcDbEntity
  8
0
  6
Continuous
 62
     7
100
AcDbLine
 10
1660.200045900372
 20
3527.499987196544
 30
0.0
 11
1647.800048367411
 21
3527.499987196546
 31
0.0
  0
LINE
  5
112D
330
2
100
AcDbEntity
  8
0
  6
Continuous
 62
     9
100
AcDbLine
 10
1661.000045947214
 20
3527.499987196517
 30
0.0
 11
1661.000045947207
 21
3487.499987156021
 31
0.0
  0
LINE
  5
112E
330
2
100
AcDbEntity
  8
0
  6
Continuous
 62
     9
100
AcDbLine
 10
1661.000045947207
 20
3457.499987156021
 30
0.0
 11
1661.00004594693
 21
1548.499987199282
 31
0.0
  0
LINE
  5
112F
330
2
100
AcDbEntity
  8
0
  6
Continuous
 62
     7
100
AcDbLine
 10
1661.000045947214
 20
3527.499987196517
 30
0.0
 11
1660.200045900368
 21
3527.499987196517
 31
0.0
  0
LINE
  5
1130
330
2
100
AcDbEntity
  8
0
  6
Continuous
 62
     7
100
AcDbLine
 10
1661.00004599406
 20
3527.499987196491
 30
0.0
 11
1661.000045994055
 21
3487.499987156021
 31
0.0
  0
LINE
  5
1131
330
2
100
AcDbEntity
  8
0
  6
Continuous
 62
     7
100
AcDbLine
 10
1661.000045994049
 20
3457.499987156021
 30
0.0
 11
1661.000045993775
 21
1548.499987199282
 31
0.0
  0
LINE
  5
1132
330
2
100
AcDbEntity
  8
0
  6
Continuous
 62
     7
100
AcDbLine
 10
1642.000049702867
 20
3527.49998719626
 30
0.0
 11
1642.000049702859
 21
3475.49998724637
 31
0.0
  0
LINE
  5
1133
330
2
100
AcDbEntity
  8
0
  6
Continuous
 62
     7
100
AcDbLine
 10
1642.000049702859
 20
3469.49998724637
 30
0.0
 11
1642.000049702859
 21
3469.449977246388
 31
0.0
  0
LINE
  5
1134
330
2
100
AcDbEntity
  8
0
  6
Continuous
 62
     7
100
AcDbLine
 10
1642.000049702859
 20
3469.449977246388
 30
0.0
 11
1642.000049702583
 21
1546.499987198661
 31
0.0
  0
LINE
  5
1135
330
2
100
AcDbEntity
  8
0
  6
Continuous
 62
     9
100
AcDbLine
 10
1688.000048458623
 20
2522.499987197885
 30
0.0
 11
1689.000048458662
 21
2522.499987197884
 31
0.0
  0
ARC
  5
1136
330
2
100
AcDbEntity
  8
0
  6
Continuous
 62
     7
100
AcDbCircle
 10
1688.000048458658
 20
2522.499987197885
 30
0.0
 40
0.9999999999998896
100
AcDbArc
 50
270.0
 51
0.0
  0
LINE
  5
1137
330
2
100
AcDbEntity
  8
0
  6
Continuous
 62
     9
100
AcDbLine
 10
1688.000048458658
 20
2522.499987197955
 30
0.0
 11
1688.000048458658
 21
2521.499987197885
 31
0.0
  0
LINE
  5
1138
330
2
100
AcDbEntity
  8
0
  6
Continuous
 62
     9
100
AcDbLine
 10
1670.000048458623
 20
2522.499987197957
 30
0.0
 11
1688.000048458623
 21
2522.499987197955
 31
0.0
  0
LINE
  5
1139
330
2
100
AcDbEntity
  8
0
  6
Continuous
 62
     7
100
AcDbLine
 10
1688.000048458658
 20
2521.499987197885
 30
0.0
 11
1670.000048458662
 21
2521.499987197887
 31
0.0
  0
LINE
  5
113A
330
2
100
AcDbEntity
  8
0
  6
Continuous
 62
     9
100
AcDbLine
 10
1670.000048458662
 20
2522.499987197957
 30
0.0
 11
1670.000048458662
 21
2521.499987197887
 31
0.0
  0
LINE
  5
113B
330
2
100
AcDbEntity
  8
0
  6
Continuous
 62
     9
100
AcDbLine
 10
1688.000048458623
 20
2522.499987197955
 30
0.0
 11
1688.000048458625
 21
2540.499987197953
 31
0.0
  0
LINE
  5
113C
330
2
100
AcDbEntity
  8
0
  6
Continuous
 62
     9
100
AcDbLine
 10
1688.000048458625
 20
2540.499987197882
 30
0.0
 11
1689.000048458662
 21
2540.499987197882
 31
0.0
  0
LINE
  5
113D
330
2
100
AcDbEntity
  8
0
  6
Continuous
 62
     7
100
AcDbLine
 10
1689.000048458663
 20
2540.499987197882
 30
0.0
 11
1689.000048458662
 21
2522.499987197884
 31
0.0
  0
LINE
  5
113E
330
2
100
AcDbEntity
  8
0
  6
Continuous
 62
     9
100
AcDbLine
 10
1670.000048458625
 20
2540.499987197956
 30
0.0
 11
1670.000048458623
 21
2522.499987197957
 31
0.0
  0
LINE
  5
113F
330
2
100
AcDbEntity
  8
0
  6
Continuous
 62
     9
100
AcDbLine
 10
1688.000048458625
 20
2540.499987197953
 30
0.0
 11
1670.000048458625
 21
2540.499987197956
 31
0.0
  0
ARC
  5
1140
330
2
100
AcDbEntity
  8
0
  6
Continuous
 62
     7
100
AcDbCircle
 10
1670.000048458662
 20
2522.499987197887
 30
0.0
 40
0.9999999999994455
100
AcDbArc
 50
180.0
 51
270.0
  0
LINE
  5
1141
330
2
100
AcDbEntity
  8
0
  6
Continuous
 62
     9
100
AcDbLine
 10
1669.000048458658
 20
2522.499987197887
 30
0.0
 11
1670.00004845862
 21
2522.499987197887
 31
0.0
  0
LINE
  5
1142
330
2
100
AcDbEntity
  8
0
  6
Continuous
 62
     7
100
AcDbLine
 10
1669.000048458658
 20
2522.499987197887
 30
0.0
 11
1669.000048458661
 21
2540.499987197885
 31
0.0
  0
LINE
  5
1143
330
2
100
AcDbEntity
  8
0
  6
Continuous
 62
     9
100
AcDbLine
 10
1669.000048458665
 20
2540.499987197885
 30
0.0
 11
1670.000048458625
 21
2540.499987197885
 31
0.0
  0
ARC
  5
1144
330
2
100
AcDbEntity
  8
0
  6
Continuous
 62
     7
100
AcDbCircle
 10
1688.000048458661
 20
2540.499987197882
 30
0.0
 40
0.9999999999998896
100
AcDbArc
 50
0.0
 51
90.0
  0
LINE
  5
1145
330
2
100
AcDbEntity
  8
0
  6
Continuous
 62
     9
100
AcDbLine
 10
1688.000048458661
 20
2541.499987197882
 30
0.0
 11
1688.000048458661
 21
2540.499987197953
 31
0.0
  0
LINE
  5
1146
330
2
100
AcDbEntity
  8
0
  6
Continuous
 62
     7
100
AcDbLine
 10
1670.000048458663
 20
2541.499987197884
 30
0.0
 11
1688.000048458661
 21
2541.499987197882
 31
0.0
  0
LINE
  5
1147
330
2
100
AcDbEntity
  8
0
  6
Continuous
 62
     9
100
AcDbLine
 10
1670.000048458663
 20
2541.499987197884
 30
0.0
 11
1670.000048458663
 21
2540.499987197956
 31
0.0
  0
ARC
  5
1148
330
2
100
AcDbEntity
  8
0
  6
Continuous
 62
     7
100
AcDbCircle
 10
1670.000048458663
 20
2540.499987197885
 30
0.0
 40
0.9999999999998896
100
AcDbArc
 50
90.0
 51
180.0
  0
ARC
  5
1149
330
2
100
AcDbEntity
  8
0
  6
Continuous
 62
     7
100
AcDbCircle
 10
1701.000048461348
 20
3449.499987195296
 30
0.0
 40
7.500000000000283
100
AcDbArc
 50
180.0000000005993
 51
0.0000000005992674
  0
CIRCLE
  5
114A
330
2
100
AcDbEntity
  8
0
  6
Continuous
 62
     9
100
AcDbCircle
 10
1701.000048461379
 20
3449.49998719528
 30
0.0
 40
6.999999999999673
  0
ARC
  5
114B
330
2
100
AcDbEntity
  8
0
  6
Continuous
 62
     7
100
AcDbCircle
 10
1701.000048461348
 20
3449.499987195296
 30
0.0
 40
7.500000000000283
100
AcDbArc
 50
0.0000000005992674
 51
180.0000000005993
  0
LINE
  5
114C
330
2
100
AcDbEntity
  8
0
  6
Continuous
 62
     7
100
AcDbLine
 10
1701.750048461432
 20
3444.501881569669
 30
0.0
 11
1701.750048461326
 21
3454.498092820907
 31
0.0
  0
LINE
  5
114D
330
2
100
AcDbEntity
  8
0
  6
Continuous
 62
     7
100
AcDbLine
 10
1701.75004846133
 20
3454.498092820907
 30
0.0
 11
1700.25004846133
 21
3454.498092820891
 31
0.0
  0
LINE
  5
114E
330
2
100
AcDbEntity
  8
0
  6
Continuous
 62
     7
100
AcDbLine
 10
1700.250048461432
 20
3444.501881569653
 30
0.0
 11
1700.250048461326
 21
3454.498092820891
 31
0.0
  0
LINE
  5
114F
330
2
100
AcDbEntity
  8
0
  6
Continuous
 62
     7
100
AcDbLine
 10
1700.250048461432
 20
3444.501881569653
 30
0.0
 11
1701.750048461432
 21
3444.501881569669
 31
0.0
  0
LINE
  5
1150
330
2
100
AcDbEntity
  8
0
  6
Continuous
 62
     9
100
AcDbLine
 10
1700.250048461245
 20
3450.374987195334
 30
0.0
 11
1701.750048461245
 21
3450.374987195349
 31
0.0
  0
LINE
  5
1151
330
2
100
AcDbEntity
  8
0
  6
Continuous
 62
     9
100
AcDbLine
 10
1700.250048461263
 20
3448.624987195334
 30
0.0
 11
1701.750048461263
 21
3448.624987195349
 31
0.0
  0
ARC
  5
1152
330
2
100
AcDbEntity
  8
0
  6
Continuous
 62
     7
100
AcDbCircle
 10
1701.000048460147
 20
3449.499987195878
 30
0.0
 40
9.999999999999786
100
AcDbArc
 50
126.8698980245654
 51
180.0000000005993
  0
ARC
  5
1153
330
2
100
AcDbEntity
  8
0
  6
Continuous
 62
     7
100
AcDbCircle
 10
1701.000048460147
 20
3449.499987195878
 30
0.0
 40
10.00000000000049
100
AcDbArc
 50
180.0000000005993
 51
53.13010197618501
  0
CIRCLE
  5
1154
330
2
100
AcDbEntity
  8
0
  6
Continuous
 62
     7
100
AcDbCircle
 10
1701.000048459515
 20
3497.499987195273
 30
0.0
 40
10.5000000000004
  0
CIRCLE
  5
1155
330
2
100
AcDbEntity
  8
0
  6
Continuous
 62
     7
100
AcDbCircle
 10
1701.000048459515
 20
3497.49998719529
 30
0.0
 40
12.49999999999929
  0
LINE
  5
1156
330
2
100
AcDbEntity
  8
0
  6
Continuous
 62
     7
100
AcDbLine
 10
1701.750048459567
 20
3492.501881569662
 30
0.0
 11
1701.750048459462
 21
3502.4980928209
 31
0.0
  0
LINE
  5
1157
330
2
100
AcDbEntity
  8
0
  6
Continuous
 62
     7
100
AcDbLine
 10
1701.750048459464
 20
3502.4980928209
 30
0.0
 11
1700.250048459464
 21
3502.498092820884
 31
0.0
  0
LINE
  5
1158
330
2
100
AcDbEntity
  8
0
  6
Continuous
 62
     7
100
AcDbLine
 10
1700.250048459567
 20
3492.501881569647
 30
0.0
 11
1700.250048459462
 21
3502.498092820884
 31
0.0
  0
LINE
  5
1159
330
2
100
AcDbEntity
  8
0
  6
Continuous
 62
     7
100
AcDbLine
 10
1700.250048459567
 20
3492.501881569647
 30
0.0
 11
1701.750048459567
 21
3492.501881569662
 31
0.0
  0
LINE
  5
115A
330
2
100
AcDbEntity
  8
0
  6
Continuous
 62
     9
100
AcDbLine
 10
1700.250048459504
 20
3498.374987195327
 30
0.0
 11
1701.750048459504
 21
3498.374987195343
 31
0.0
  0
LINE
  5
115B
330
2
100
AcDbEntity
  8
0
  6
Continuous
 62
     9
100
AcDbLine
 10
1700.250048459524
 20
3496.624987195327
 30
0.0
 11
1701.750048459524
 21
3496.624987195342
 31
0.0
  0
ARC
  5
115C
330
2
100
AcDbEntity
  8
0
  6
Continuous
 62
     7
100
AcDbCircle
 10
2143.000048461347
 20
3449.499987195261
 30
0.0
 40
7.500000000000283
100
AcDbArc
 50
180.0000000005993
 51
0.0000000005992674
  0
CIRCLE
  5
115D
330
2
100
AcDbEntity
  8
0
  6
Continuous
 62
     9
100
AcDbCircle
 10
2143.000048461377
 20
3449.499987195245
 30
0.0
 40
6.999999999999673
  0
ARC
  5
115E
330
2
100
AcDbEntity
  8
0
  6
Continuous
 62
     7
100
AcDbCircle
 10
2143.000048461347
 20
3449.499987195261
 30
0.0
 40
7.500000000000283
100
AcDbArc
 50
0.0000000005992674
 51
180.0000000005993
  0
LINE
  5
115F
330
2
100
AcDbEntity
  8
0
  6
Continuous
 62
     7
100
AcDbLine
 10
2143.750048461431
 20
3444.501881569638
 30
0.0
 11
2143.750048461324
 21
3454.498092820869
 31
0.0
  0
LINE
  5
1160
330
2
100
AcDbEntity
  8
0
  6
Continuous
 62
     7
100
AcDbLine
 10
2143.750048461326
 20
3454.498092820869
 30
0.0
 11
2142.250048461328
 21
3454.498092820853
 31
0.0
  0
LINE
  5
1161
330
2
100
AcDbEntity
  8
0
  6
Continuous
 62
     7
100
AcDbLine
 10
2142.250048461431
 20
3444.501881569622
 30
0.0
 11
2142.250048461328
 21
3454.498092820853
 31
0.0
  0
LINE
  5
1162
330
2
100
AcDbEntity
  8
0
  6
Continuous
 62
     7
100
AcDbLine
 10
2142.250048461431
 20
3444.501881569622
 30
0.0
 11
2143.750048461431
 21
3444.501881569638
 31
0.0
  0
LINE
  5
1163
330
2
100
AcDbEntity
  8
0
  6
Continuous
 62
     9
100
AcDbLine
 10
2142.250048461244
 20
3450.374987195299
 30
0.0
 11
2143.750048461244
 21
3450.374987195314
 31
0.0
  0
LINE
  5
1164
330
2
100
AcDbEntity
  8
0
  6
Continuous
 62
     9
100
AcDbLine
 10
2142.25004846126
 20
3448.624987195299
 30
0.0
 11
2143.75004846126
 21
3448.624987195315
 31
0.0
  0
ARC
  5
1165
330
2
100
AcDbEntity
  8
0
  6
Continuous
 62
     7
100
AcDbCircle
 10
2143.000048460145
 20
3449.499987195844
 30
0.0
 40
9.999999999999786
100
AcDbArc
 50
126.8698979990626
 51
180.0000000005993
  0
ARC
  5
1166
330
2
100
AcDbEntity
  8
0
  6
Continuous
 62
     7
100
AcDbCircle
 10
2143.000048460145
 20
3449.499987195844
 30
0.0
 40
9.999999999999744
100
AcDbArc
 50
180.0000000005993
 51
53.13010200158874
  0
CIRCLE
  5
1167
330
2
100
AcDbEntity
  8
0
  6
Continuous
 62
     7
100
AcDbCircle
 10
2143.000048459513
 20
3497.499987195209
 30
0.0
 40
10.5000000000004
  0
CIRCLE
  5
1168
330
2
100
AcDbEntity
  8
0
  6
Continuous
 62
     7
100
AcDbCircle
 10
2143.000048459513
 20
3497.499987195226
 30
0.0
 40
12.50000000000017
  0
LINE
  5
1169
330
2
100
AcDbEntity
  8
0
  6
Continuous
 62
     7
100
AcDbLine
 10
2143.750048459564
 20
3492.501881569602
 30
0.0
 11
2143.750048459461
 21
3502.498092820834
 31
0.0
  0
LINE
  5
116A
330
2
100
AcDbEntity
  8
0
  6
Continuous
 62
     7
100
AcDbLine
 10
2143.750048459462
 20
3502.498092820834
 30
0.0
 11
2142.250048459462
 21
3502.498092820818
 31
0.0
  0
LINE
  5
116B
330
2
100
AcDbEntity
  8
0
  6
Continuous
 62
     7
100
AcDbLine
 10
2142.250048459567
 20
3492.501881569586
 30
0.0
 11
2142.250048459462
 21
3502.498092820818
 31
0.0
  0
LINE
  5
116C
330
2
100
AcDbEntity
  8
0
  6
Continuous
 62
     7
100
AcDbLine
 10
2142.250048459567
 20
3492.501881569586
 30
0.0
 11
2143.750048459567
 21
3492.501881569602
 31
0.0
  0
LINE
  5
116D
330
2
100
AcDbEntity
  8
0
  6
Continuous
 62
     9
100
AcDbLine
 10
2142.250048459505
 20
3498.374987195263
 30
0.0
 11
2143.750048459505
 21
3498.374987195279
 31
0.0
  0
LINE
  5
116E
330
2
100
AcDbEntity
  8
0
  6
Continuous
 62
     9
100
AcDbLine
 10
2142.250048459523
 20
3496.624987195263
 30
0.0
 11
2143.750048459523
 21
3496.62498719528
 31
0.0
  0
LINE
  5
116F
330
2
100
AcDbEntity
  8
0
  6
Continuous
 62
     4
100
AcDbLine
 10
2192.00004845923
 20
3527.499987196419
 30
0.0
 11
1661.000046509358
 21
3527.499987196496
 31
0.0
  0
CIRCLE
  5
1170
330
2
100
AcDbEntity
  8
0
  6
Continuous
 62
     7
100
AcDbCircle
 10
2256.000048473596
 20
3472.499987165346
 30
0.0
 40
12.50000000000017
  0
CIRCLE
  5
1171
330
2
100
AcDbEntity
  8
0
  6
Continuous
 62
     7
100
AcDbCircle
 10
2256.000048473568
 20
3472.499987165356
 30
0.0
 40
12.19999999999999
  0
CIRCLE
  5
1172
330
2
100
AcDbEntity
  8
0
  6
Continuous
 62
     7
100
AcDbCircle
 10
2256.067827510688
 20
3477.999569513328
 30
0.0
 40
1.249999999999751
  0
CIRCLE
  5
1173
330
2
100
AcDbEntity
  8
0
  6
Continuous
 62
     7
100
AcDbCircle
 10
2255.932269436452
 20
3467.000404817384
 30
0.0
 40
1.249999999999751
  0
CIRCLE
  5
1174
330
2
100
AcDbEntity
  8
0
  6
Continuous
 62
     7
100
AcDbCircle
 10
2756.000048476884
 20
3472.499987165411
 30
0.0
 40
12.50000000000017
  0
CIRCLE
  5
1175
330
2
100
AcDbEntity
  8
0
  6
Continuous
 62
     7
100
AcDbCircle
 10
2756.000048476884
 20
3472.499987165421
 30
0.0
 40
12.19999999999999
  0
CIRCLE
  5
1176
330
2
100
AcDbEntity
  8
0
  6
Continuous
 62
     7
100
AcDbCircle
 10
2756.060177467253
 20
3477.999658474192
 30
0.0
 40
1.249999999999751
  0
CIRCLE
  5
1177
330
2
100
AcDbEntity
  8
0
  6
Continuous
 62
     7
100
AcDbCircle
 10
2755.939919486517
 20
3467.00031585665
 30
0.0
 40
1.249999999999751
  0
LINE
  5
1178
330
2
100
AcDbEntity
  8
0
  6
Continuous
 62
     7
100
AcDbLine
 10
2192.00004845923
 20
3457.499987159173
 30
0.0
 11
1644.000048475967
 21
3457.499987155919
 31
0.0
  0
LINE
  5
1179
330
2
100
AcDbEntity
  8
0
  6
Continuous
 62
     7
100
AcDbLine
 10
1644.000048475953
 20
3459.999987156004
 30
0.0
 11
1644.000048475967
 21
3457.49998715592
 31
0.0
  0
LINE
  5
117A
330
2
100
AcDbEntity
  8
0
  6
Continuous
 62
     9
100
AcDbLine
 10
1647.000048459133
 20
3459.999987156022
 30
0.0
 11
2192.00004845923
 21
3459.999987159257
 31
0.0
  0
LINE
  5
117B
330
2
100
AcDbEntity
  8
0
  6
Continuous
 62
     9
100
AcDbLine
 10
2192.00004845923
 20
3484.999987159258
 30
0.0
 11
2143.000048459587
 21
3484.999987158967
 31
0.0
  0
LINE
  5
117C
330
2
100
AcDbEntity
  8
0
  6
Continuous
 62
     9
100
AcDbLine
 10
2143.000048459587
 20
3484.999987158967
 30
0.0
 11
1701.000048459589
 21
3484.999987156343
 31
0.0
  0
LINE
  5
117D
330
2
100
AcDbEntity
  8
0
  6
Continuous
 62
     9
100
AcDbLine
 10
1701.000048459586
 20
3484.999987156343
 30
0.0
 11
1647.000048459056
 21
3484.999987156021
 31
0.0
  0
LINE
  5
117E
330
2
100
AcDbEntity
  8
0
  6
Continuous
 62
     7
100
AcDbLine
 10
1644.000048475789
 20
3487.49998715592
 30
0.0
 11
1644.000048475804
 21
3484.999987156004
 31
0.0
  0
LINE
  5
117F
330
2
100
AcDbEntity
  8
0
  6
Continuous
 62
     7
100
AcDbLine
 10
1644.000048475789
 20
3487.49998715592
 30
0.0
 11
1693.500048512344
 21
3487.499987156214
 31
0.0
  0
LINE
  5
1180
330
2
100
AcDbEntity
  8
0
  6
Continuous
 62
     7
100
AcDbLine
 10
1708.5000484068
 20
3487.499987156303
 30
0.0
 11
2135.500048508769
 21
3487.499987158838
 31
0.0
  0
LINE
  5
1181
330
2
100
AcDbEntity
  8
0
  6
Continuous
 62
     7
100
AcDbLine
 10
2150.500048410368
 20
3487.499987158928
 30
0.0
 11
2192.00004845923
 21
3487.499987159174
 31
0.0
  0
LINE
  5
1182
330
2
100
AcDbEntity
  8
0
  6
Continuous
 62
     9
100
AcDbLine
 10
2187.000048459166
 20
1544.999987279603
 30
0.0
 11
1682.000048459817
 21
1544.999987230753
 31
0.0
  0
LINE
  5
1183
330
2
100
AcDbEntity
  8
0
  6
Continuous
 62
     7
100
AcDbLine
 10
2187.00004845908
 20
1547.499987279763
 30
0.0
 11
1682.000048459558
 21
1547.499987230913
 31
0.0
  0
LINE
  5
1184
330
2
100
AcDbEntity
  8
0
  6
Continuous
 62
     9
100
AcDbLine
 10
2187.000048460615
 20
1529.999987279603
 30
0.0
 11
1682.000048461268
 21
1529.999987230752
 31
0.0
  0
LINE
  5
1185
330
2
100
AcDbEntity
  8
0
  6
Continuous
 62
     7
100
AcDbLine
 10
2187.000048459735
 20
1547.499987197376
 30
0.0
 11
2187.000048459735
 21
1549.999987197375
 31
0.0
  0
LINE
  5
1186
330
2
100
AcDbEntity
  8
0
  6
Continuous
 62
     7
100
AcDbLine
 10
2187.000048459735
 20
1549.999987197375
 30
0.0
 11
2192.00004845923
 21
1549.999987197375
 31
0.0
  0
LINE
  5
1187
330
2
100
AcDbEntity
  8
0
  6
Continuous
 62
     7
100
AcDbLine
 10
2227.000048458771
 20
1527.499987196418
 30
0.0
 11
2227.000048458771
 21
1547.499987196418
 31
0.0
  0
LINE
  5
1188
330
2
100
AcDbEntity
  8
0
  6
Continuous
 62
     9
100
AcDbLine
 10
2189.00004845877
 20
1547.499987196418
 30
0.0
 11
2189.00004845877
 21
1527.499987196418
 31
0.0
  0
LINE
  5
1189
330
2
100
AcDbEntity
  8
0
  6
Continuous
 62
     7
100
AcDbLine
 10
2227.000048458771
 20
1547.499987196418
 30
0.0
 11
2189.00004845877
 21
1547.499987196418
 31
0.0
  0
LINE
  5
118A
330
2
100
AcDbEntity
  8
0
  6
Continuous
 62
     7
100
AcDbLine
 10
2187.000048458898
 20
1527.499987196546
 30
0.0
 11
2187.000048458898
 21
1547.499987196547
 31
0.0
  0
LINE
  5
118B
330
2
100
AcDbEntity
  8
0
  6
Continuous
 62
     7
100
AcDbLine
 10
2187.000048458898
 20
1547.499987196547
 30
0.0
 11
2189.00004845877
 21
1547.499987196547
 31
0.0
  0
LINE
  5
118C
330
2
100
AcDbEntity
  8
0
  6
Continuous
 62
     4
100
AcDbLine
 10
2820.00004845923
 20
1527.499987197551
 30
0.0
 11
2820.00004845923
 21
3527.499987197551
 31
0.0
  0
LINE
  5
118D
330
2
100
AcDbEntity
  8
0
  6
Continuous
 62
     4
100
AcDbLine
 10
2192.00004845923
 20
1547.499987197315
 30
0.0
 11
2192.00004845923
 21
3527.499987197551
 31
0.0
  0
LINE
  5
118E
330
2
100
AcDbEntity
  8
0
  6
Continuous
 62
     4
100
AcDbLine
 10
2192.00004845923
 20
3527.499987197551
 30
0.0
 11
2820.00004845923
 21
3527.499987197551
 31
0.0
  0
ARC
  5
118F
330
2
100
AcDbEntity
  8
0
  6
Continuous
 62
     4
100
AcDbCircle
 10
2779.000048459231
 20
3377.49998719755
 30
0.0
 40
14.9999999999999
100
AcDbArc
 50
269.9672675377728
 51
90.0
  0
ARC
  5
1190
330
2
100
AcDbEntity
  8
0
  6
Continuous
 62
     4
100
AcDbCircle
 10
2779.000048459231
 20
3377.49998719755
 30
0.0
 40
14.99999999999998
100
AcDbArc
 50
90.0
 51
269.9672675377728
  0
ARC
  5
1191
330
2
100
AcDbEntity
  8
0
  6
Continuous
 62
     4
100
AcDbCircle
 10
2779.000048459231
 20
1677.499987197551
 30
0.0
 40
15.00000000000012
100
AcDbArc
 50
269.9672675368349
 51
90.0
  0
ARC
  5
1192
330
2
100
AcDbEntity
  8
0
  6
Continuous
 62
     4
100
AcDbCircle
 10
2779.000048459231
 20
1677.499987197551
 30
0.0
 40
14.9999999999999
100
AcDbArc
 50
90.0
 51
269.9672675368349
  0
LINE
  5
1193
330
2
100
AcDbEntity
  8
0
  6
Continuous
 62
     7
100
AcDbLine
 10
2820.00004845923
 20
1477.499987195874
 30
0.0
 11
1620.000048459231
 21
1477.499987195874
 31
0.0
  0
LINE
  5
1194
330
2
100
AcDbEntity
  8
0
  6
Continuous
 62
     7
100
AcDbLine
 10
2820.00004845923
 20
1527.499987195874
 30
0.0
 11
1641.000048459231
 21
1527.499987195874
 31
0.0
  0
LINE
  5
1195
330
2
100
AcDbEntity
  8
0
  6
Continuous
 62
     7
100
AcDbLine
 10
1641.000048459229
 20
1527.499987195874
 30
0.0
 11
1633.000048459231
 21
1527.499987195874
 31
0.0
  0
LINE
  5
1196
330
2
100
AcDbEntity
  8
0
  6
Continuous
 62
     7
100
AcDbLine
 10
1633.000048459231
 20
1527.499987195874
 30
0.0
 11
1620.000048459227
 21
1527.499987195874
 31
0.0
  0
LINE
  5
1197
330
2
100
AcDbEntity
  8
0
  6
Continuous
 62
     7
100
AcDbLine
 10
2820.00004845923
 20
1477.499987195874
 30
0.0
 11
2820.00004845923
 21
1527.499987195874
 31
0.0
  0
LINE
  5
1198
330
2
100
AcDbEntity
  8
0
  6
Continuous
 62
     7
100
AcDbLine
 10
1620.000048459227
 20
1477.499987195874
 30
0.0
 11
1620.000048459227
 21
1527.499987195874
 31
0.0
  0
LINE
  5
1199
330
2
100
AcDbEntity
  8
0
  6
Continuous
 62
     9
100
AcDbLine
 10
1643.000048458123
 20
3474.999987246373
 30
0.0
 11
1642.000048459214
 21
3474.99998724637
 31
0.0
  0
LINE
  5
119A
330
2
100
AcDbEntity
  8
0
  6
Continuous
 62
     9
100
AcDbLine
 10
1642.000048459229
 20
3469.99998724637
 30
0.0
 11
1643.000048458136
 21
3469.999987246374
 31
0.0
  0
LINE
  5
119B
330
2
100
AcDbEntity
  8
0
  6
Continuous
 62
     7
100
AcDbLine
 10
1632.000048459185
 20
3484.999987246341
 30
0.0
 11
1626.300048459186
 21
3484.999987246323
 31
0.0
  0
LINE
  5
119C
330
2
100
AcDbEntity
  8
0
  6
Continuous
 62
     7
100
AcDbLine
 10
1626.300048459259
 20
3459.999987246323
 30
0.0
 11
1632.000048459258
 21
3459.99998724634
 31
0.0
  0
LINE
  5
119D
330
2
100
AcDbEntity
  8
0
  6
Continuous
 62
     7
100
AcDbLine
 10
1626.300048459186
 20
3484.999987246323
 30
0.0
 11
1626.000048459187
 21
3484.699987246323
 31
0.0
  0
LINE
  5
119E
330
2
100
AcDbEntity
  8
0
  6
Continuous
 62
     7
100
AcDbLine
 10
1626.000048459258
 20
3460.299987246322
 30
0.0
 11
1626.300048459259
 21
3459.999987246323
 31
0.0
  0
LINE
  5
119F
330
2
100
AcDbEntity
  8
0
  6
Continuous
 62
     7
100
AcDbLine
 10
1643.00004845813
 20
3475.499987246373
 30
0.0
 11
1642.000049702859
 21
3475.49998724637
 31
0.0
  0
LINE
  5
11A0
330
2
100
AcDbEntity
  8
0
  6
Continuous
 62
     7
100
AcDbLine
 10
1642.000049702859
 20
3475.49998724637
 30
0.0
 11
1641.995048459213
 21
3475.49998724637
 31
0.0
  0
LINE
  5
11A1
330
2
100
AcDbEntity
  8
0
  6
Continuous
 62
     7
100
AcDbLine
 10
1641.995048459232
 20
3469.49998724637
 30
0.0
 11
1642.000049702859
 21
3469.49998724637
 31
0.0
  0
LINE
  5
11A2
330
2
100
AcDbEntity
  8
0
  6
Continuous
 62
     7
100
AcDbLine
 10
1642.000049702859
 20
3469.49998724637
 30
0.0
 11
1643.000048458149
 21
3469.499987246372
 31
0.0
  0
LINE
  5
11A3
330
2
100
AcDbEntity
  8
0
  6
Continuous
 62
     7
100
AcDbLine
 10
1642.005048459214
 20
3475.49998724637
 30
0.0
 11
1642.000049702859
 21
3475.49998724637
 31
0.0
  0
LINE
  5
11A4
330
2
100
AcDbEntity
  8
0
  6
Continuous
 62
     7
100
AcDbLine
 10
1642.000049702859
 20
3475.49998724637
 30
0.0
 11
1641.000048459229
 21
3475.499987246367
 31
0.0
  0
LINE
  5
11A5
330
2
100
AcDbEntity
  8
0
  6
Continuous
 62
     7
100
AcDbLine
 10
1641.000048459229
 20
3469.499987246367
 30
0.0
 11
1642.000049702859
 21
3469.49998724637
 31
0.0
  0
LINE
  5
11A6
330
2
100
AcDbEntity
  8
0
  6
Continuous
 62
     7
100
AcDbLine
 10
1642.000049702859
 20
3469.49998724637
 30
0.0
 11
1642.00504845923
 21
3469.49998724637
 31
0.0
  0
LINE
  5
11A7
330
2
100
AcDbEntity
  8
0
  6
Continuous
 62
     7
100
AcDbLine
 10
1632.000048459266
 20
3460.49998724634
 30
0.0
 11
1633.000048459264
 21
3460.499987246343
 31
0.0
  0
LINE
  5
11A8
330
2
100
AcDbEntity
  8
0
  6
Continuous
 62
     7
100
AcDbLine
 10
1633.000048459193
 20
3484.499987246343
 30
0.0
 11
1632.000048459194
 21
3484.49998724634
 31
0.0
  0
LINE
  5
11A9
330
2
100
AcDbEntity
  8
0
  6
Continuous
 62
     7
100
AcDbLine
 10
1643.000048459271
 20
3458.499987246373
 30
0.0
 11
1644.000048459271
 21
3458.499987246375
 31
0.0
  0
LINE
  5
11AA
330
2
100
AcDbEntity
  8
0
  6
Continuous
 62
     7
100
AcDbLine
 10
1644.000048459187
 20
3486.499987246375
 30
0.0
 11
1643.000048459189
 21
3486.499987246373
 31
0.0
  0
ENDSEC
  0
SECTION
  2
OBJECTS
  0
DICTIONARY
  5
7
330
0
100
AcDbDictionary
281
     1
  3
ACAD_COLOR
350
65C
  3
ACAD_GROUP
350
20
  3
ACAD_LAYOUT
350
B
  3
ACAD_MATERIAL
350
632
  3
ACAD_MLEADERSTYLE
350
681
  3
ACAD_MLINESTYLE
350
21
  3
ACAD_PLOTSETTINGS
350
22
  3
ACAD_PLOTSTYLENAME
350
6
  3
ACAD_SCALELIST
350
65F
  3
ACAD_TABLESTYLE
350
65D
  3
ACAD_VISUALSTYLE
350
64B
  3
ACDB_RECOMPOSE_DATA
350
6A0
  3
AcDbVariableDictionary
350
6A1
  3
ASE_INDEX_DICTIONARY
350
69B
  3
DWGPROPS
350
121B
  0
DICTIONARY
  5
68A
330
4
100
AcDbDictionary
280
     1
281
     1
  3
ADSK_XREC_LAYER_RECONCILED
360
68B
  0
DICTIONARY
  5
C3B
330
2
100
AcDbDictionary
280
     1
281
     1
  3
ACAD_SORTENTS
360
C3C
  0
DICTIONARY
  5
65C
102
{ACAD_REACTORS
330
7
102
}
330
7
100
AcDbDictionary
281
     1
  0
DICTIONARY
  5
20
102
{ACAD_REACTORS
330
7
102
}
330
7
100
AcDbDictionary
281
     1
  0
DICTIONARY
  5
B
102
{ACAD_REACTORS
330
7
102
}
330
7
100
AcDbDictionary
281
     1
  3
Layout1
350
F
  3
Model
350
A
  0
DICTIONARY
  5
632
102
{ACAD_REACTORS
330
7
102
}
330
7
100
AcDbDictionary
281
     1
  3
ByBlock
350
63B
  3
ByLayer
350
633
  3
Global
350
643
  0
DICTIONARY
  5
681
102
{ACAD_REACTORS
330
7
102
}
330
7
100
AcDbDictionary
281
     1
  3
Standard
350
682
  0
DICTIONARY
  5
21
102
{ACAD_REACTORS
330
7
102
}
330
7
100
AcDbDictionary
281
     1
  3
Standard
350
23
  0
DICTIONARY
  5
22
102
{ACAD_REACTORS
330
7
102
}
330
7
100
AcDbDictionary
281
     1
  0
ACDBDICTIONARYWDFLT
  5
6
102
{ACAD_REACTORS
330
7
102
}
330
7
100
AcDbDictionary
281
     1
  3
Normal
350
5
100
AcDbDictionaryWithDefault
340
5
  0
DICTIONARY
  5
65F
102
{ACAD_REACTORS
330
7
102
}
330
7
100
AcDbDictionary
281
     1
  3
A0
350
660
  3
A1
350
661
  3
A2
350
662
  3
A3
350
663
  3
A4
350
664
  3
A5
350
665
  3
A6
350
666
  3
A7
350
667
  3
A8
350
668
  3
A9
350
669
  3
B0
350
66A
  3
B1
350
66B
  3
B2
350
66C
  3
B3
350
66D
  3
B4
350
66E
  3
B5
350
66F
  3
B6
350
670
  3
B7
350
671
  3
B8
350
672
  3
B9
350
673
  3
C0
350
674
  3
C1
350
675
  3
C2
350
676
  3
C3
350
677
  3
C4
350
678
  3
C5
350
679
  3
C6
350
67A
  3
C7
350
67B
  3
C8
350
67C
  3
C9
350
67D
  3
D0
350
67E
  3
D1
350
67F
  3
D2
350
680
  0
DICTIONARY
  5
65D
102
{ACAD_REACTORS
330
7
102
}
330
7
100
AcDbDictionary
281
     1
  3
Standard
350
65E
  0
DICTIONARY
  5
64B
102
{ACAD_REACTORS
330
7
102
}
330
7
100
AcDbDictionary
281
     1
  3
2dWireframe
350
651
  3
3D Hidden
350
653
  3
3dWireframe
350
652
  3
Basic
350
650
  3
Brighten
350
657
  3
ColorChange
350
65B
  3
Conceptual
350
654
  3
Dim
350
656
  3
Facepattern
350
65A
  3
Flat
350
64C
  3
FlatWithEdges
350
64D
  3
Gouraud
350
64E
  3
GouraudWithEdges
350
64F
  3
Linepattern
350
659
  3
Realistic
350
655
  3
Thicken
350
658
  0
XRECORD
  5
6A0
102
{ACAD_REACTORS
330
7
102
}
330
7
100
AcDbXrecord
280
     1
 90
        1
330
65E
  0
DICTIONARY
  5
6A1
102
{ACAD_REACTORS
330
7
102
}
330
7
100
AcDbDictionary
281
     1
  3
CANNOSCALE
350
6A5
  3
CMLEADERSTYLE
350
6A3
  3
CTABLESTYLE
350
6A2
  3
DIMASSOC
350
1200
  3
INDEXCTL
350
11FF
  3
LIGHTINGUNITS
350
6A6
  3
MSLTSCALE
350
6A4
  3
SORTENTS
350
11FE
  0
DICTIONARY
  5
69B
102
{ACAD_REACTORS
330
7
102
}
330
7
100
AcDbDictionary
281
     1
  3
ASEBlockHierarchyIndexRecord
350
69D
1001
DCO15
1040
1678078617.738
  0
XRECORD
  5
121B
102
{ACAD_REACTORS
330
7
102
}
330
7
100
AcDbXrecord
280
     1
  1
DWGPROPS COOKIE
  2

  3

  4

  6

  7

  8
renzo.ceresoli
  9

300
=
301
=
302
=
303
=
304
=
305
=
306
=
307
=
308
=
309
=
 40
0.0005921296296296
 41
2455315.38146397
 42
2455315.382055371
  1

 90
        0
  0
XRECORD
  5
68B
102
{ACAD_REACTORS
330
68A
102
}
330
68A
100
AcDbXrecord
280
     1
290
     1
  0
SORTENTSTABLE
  5
C3C
102
{ACAD_REACTORS
330
C3B
102
}
330
C3B
100
AcDbSortentsTable
330
2
331
D28
  5
1013
331
1198
  5
D7D
331
F80
  5
E41
331
E31
  5
111C
331
10A9
  5
DD2
331
D42
  5
102D
331
F9A
  5
E5B
331
EAB
  5
1196
331
10CB
  5
CB0
331
D64
  5
104F
331
E53
  5
113E
331
ECD
  5
11B8
331
10ED
  5
CD2
331
FBC
  5
E7D
331
D86
  5
1071
331
E75
  5
1160
331
EEF
  5
11DA
331
C3F
  5
F2A
331
1107
  5
CEC
331
E97
  5
1182
331
DA8
  5
1093
331
F11
  5
11FC
331
C59
  5
F44
331
1129
  5
D0E
331
DC2
  5
10AD
331
101A
  5
EDB
331
1000
  5
EC1
331
FDE
  5
E9F
331
CD3
  5
FBE
331
C7B
  5
F66
331
DE4
  5
10CF
331
F2B
  5
DEC
331
103C
  5
EFD
331
CF5
  5
FE0
331
C9D
  5
F88
331
E06
  5
10F1
331
F4D
  5
E0E
331
116D
  5
D52
331
D17
  5
1002
331
CBF
  5
FAA
331
1187
  5
D6C
331
F6F
  5
E30
331
E28
  5
1113
331
1098
  5
DC1
331
D39
  5
1024
331
11A9
  5
D8E
331
F91
  5
E52
331
E42
  5
112D
331
D53
  5
103E
331
FAB
  5
E6C
331
EBC
  5
11A7
331
E64
  5
114F
331
10DC
  5
CC1
331
D75
  5
1060
331
FCD
  5
E8E
331
EDE
  5
11C9
331
10FE
  5
CE3
331
D97
  5
1082
331
E86
  5
1171
331
F00
  5
11EB
331
1118
  5
CFD
331
DD3
  5
10BE
331
C6A
  5
F55
331
113A
  5
D1F
331
102B
  5
EEC
331
CE4
  5
FCF
331
C8C
  5
F77
331
DF5
  5
10E0
331
F3C
  5
DFD
331
D06
  5
FF1
331
CAE
  5
F99
331
104D
  5
F0E
331
E17
  5
1102
331
106F
  5
D98
331
F5E
  5
E1F
331
115C
  5
D41
331
FEF
  5
EB0
331
10BA
  5
C9F
331
1080
  5
DA9
331
105E
  5
F1F
331
114B
  5
D30
331
D40
  5
102B
331
F98
  5
E59
331
EA9
  5
1194
331
10C9
  5
CAE
331
E51
  5
113C
331
D62
  5
104D
331
ECB
  5
11B6
331
10EB
  5
CD0
331
FBA
  5
E7B
331
E73
  5
115E
331
D84
  5
106F
331
EED
  5
11D8
331
C3D
  5
F28
331
1105
  5
CEA
331
FDC
  5
E9D
331
DA6
  5
1091
331
E95
  5
1180
331
F0F
  5
11FA
331
C57
  5
F42
331
1127
  5
D0C
331
DC0
  5
10AB
331
FFE
  5
EBF
331
CD1
  5
FBC
331
C79
  5
F64
331
1149
  5
D2E
331
DE2
  5
10CD
331
F29
  5
DEA
331
103A
  5
EFB
331
CF3
  5
FDE
331
C9B
  5
F86
331
E04
  5
10EF
331
F4B
  5
E0C
331
116B
  5
D50
331
105C
  5
F1D
331
D15
  5
1000
331
CBD
  5
FA8
331
F6D
  5
E2E
331
E26
  5
1111
331
1096
  5
DBF
331
1185
  5
D6A
331
D37
  5
1022
331
11A7
  5
D8C
331
F8F
  5
E50
331
E40
  5
112B
331
D51
  5
103C
331
FA9
  5
E6A
331
EBA
  5
11A5
331
E62
  5
114D
331
10DA
  5
CBF
331
D73
  5
105E
331
FCB
  5
E8C
331
EDC
  5
11C7
331
10FC
  5
CE1
331
D95
  5
1080
331
E84
  5
116F
331
EFE
  5
11E9
331
C4E
  5
F39
331
1116
  5
CFB
331
EA6
  5
1191
331
DB7
  5
10A2
331
C68
  5
F53
331
1138
  5
D1D
331
DD1
  5
10BC
331
1029
  5
EEA
331
100F
  5
ED0
331
FED
  5
EAE
331
10B8
  5
C9D
331
107E
  5
DA7
331
CE2
  5
FCD
331
C8A
  5
F75
331
115A
  5
D3F
331
DF3
  5
10DE
331
D04
  5
FEF
331
CAC
  5
F97
331
104B
  5
F0C
331
E15
  5
1100
331
106D
  5
D96
331
F5C
  5
E1D
331
D26
  5
1011
331
1196
  5
D7B
331
10A7
  5
DD0
331
F7E
  5
E3F
331
F3A
  5
DFB
331
1018
  5
ED9
331
D60
  5
104B
331
FB8
  5
E79
331
EC9
  5
11B4
331
10E9
  5
CCE
331
E71
  5
115C
331
D82
  5
106D
331
EEB
  5
11D6
331
1103
  5
CE8
331
FDA
  5
E9B
331
E93
  5
117E
331
DA4
  5
108F
331
F0D
  5
11F8
331
C55
  5
F40
331
1125
  5
D0A
331
FFC
  5
EBD
331
1016
  5
ED7
331
DBE
  5
10A9
331
CCF
  5
FBA
331
C77
  5
F62
331
DE0
  5
10CB
331
F27
  5
DE8
331
1038
  5
EF9
331
CF1
  5
FDC
331
C99
  5
F84
331
E02
  5
10ED
331
F49
  5
E0A
331
1169
  5
D4E
331
1147
  5
D2C
331
D13
  5
FFE
331
CBB
  5
FA6
331
1183
  5
D68
331
F6B
  5
E2C
331
E24
  5
110F
331
1094
  5
DBD
331
D35
  5
1020
331
11A5
  5
D8A
331
F8D
  5
E4E
331
E3E
  5
1129
331
D4F
  5
103A
331
FA7
  5
E68
331
EB8
  5
11A3
331
E60
  5
114B
331
10D8
  5
CBD
331
D71
  5
105C
331
FC9
  5
E8A
331
EDA
  5
11C5
331
10FA
  5
CDF
331
D93
  5
107E
331
E82
  5
116D
331
EFC
  5
11E7
331
C4C
  5
F37
331
1114
  5
CF9
331
EA4
  5
118F
331
DB5
  5
10A0
331
C66
  5
F51
331
1136
  5
D1B
331
DCF
  5
10BA
331
F1E
  5
DDF
331
1027
  5
EE8
331
100D
  5
ECE
331
FEB
  5
EAC
331
10B6
  5
C9B
331
107C
  5
DA5
331
105A
  5
F1B
331
CE0
  5
FCB
331
C88
  5
F73
331
DF1
  5
10DC
331
F38
  5
DF9
331
D02
  5
FED
331
CAA
  5
F95
331
1049
  5
F0A
331
E13
  5
10FE
331
106B
  5
D94
331
D24
  5
100F
331
1194
  5
D79
331
F5A
  5
E1B
331
10A5
  5
DCE
331
E4F
  5
113A
331
10C7
  5
CAC
331
F7C
  5
E3D
331
1158
  5
D3D
331
D80
  5
106B
331
FD8
  5
E99
331
EE9
  5
11D4
331
1101
  5
CE6
331
E91
  5
117C
331
DA2
  5
108D
331
F0B
  5
11F6
331
C53
  5
F3E
331
1123
  5
D08
331
FFA
  5
EBB
331
DBC
  5
10A7
331
1014
  5
ED5
331
CCD
  5
FB8
331
C75
  5
F60
331
DDE
  5
10C9
331
F25
  5
DE6
331
1145
  5
D2A
331
1036
  5
EF7
331
CEF
  5
FDA
331
C97
  5
F82
331
E00
  5
10EB
331
F47
  5
E08
331
1167
  5
D4C
331
D11
  5
FFC
331
CB9
  5
FA4
331
1181
  5
D66
331
F69
  5
E2A
331
E22
  5
110D
331
1092
  5
DBB
331
D33
  5
101E
331
11A3
  5
D88
331
F8B
  5
E4C
331
E3C
  5
1127
331
D4D
  5
1038
331
FA5
  5
E66
331
EB6
  5
11A1
331
E5E
  5
1149
331
10D6
  5
CBB
331
D6F
  5
105A
331
FC7
  5
E88
331
ED8
  5
11C3
331
10F8
  5
CDD
331
D91
  5
107C
331
E80
  5
116B
331
EFA
  5
11E5
331
C4A
  5
F35
331
1112
  5
CF7
331
EA2
  5
118D
331
DB3
  5
109E
331
C64
  5
F4F
331
1134
  5
D19
331
DCD
  5
10B8
331
F1C
  5
DDD
331
1025
  5
EE6
331
100B
  5
ECC
331
FE9
  5
EAA
331
10B4
  5
C99
331
107A
  5
DA3
331
1058
  5
F19
331
CDE
  5
FC9
331
C86
  5
F71
331
DEF
  5
10DA
331
F36
  5
DF7
331
D00
  5
FEB
331
CA8
  5
F93
331
1047
  5
F08
331
F58
  5
E19
331
1156
  5
D3B
331
E11
  5
10FC
331
1069
  5
D92
331
D22
  5
100D
331
1192
  5
D77
331
F7A
  5
E3B
331
10A3
  5
DCC
331
E4D
  5
1138
331
10C5
  5
CAA
331
D5E
  5
1049
331
FB6
  5
E77
331
EC7
  5
11B2
331
E6F
  5
115A
331
10E7
  5
CCC
331
DA0
  5
108B
331
FF8
  5
EB9
331
F09
  5
11F4
331
C51
  5
F3C
331
1121
  5
D06
331
DBA
  5
10A5
331
1012
  5
ED3
331
CCB
  5
FB6
331
C73
  5
F5E
331
DDC
  5
10C7
331
F23
  5
DE4
331
1143
  5
D28
331
1034
  5
EF5
331
CED
  5
FD8
331
C95
  5
F80
331
DFE
  5
10E9
331
F45
  5
E06
331
1165
  5
D4A
331
D0F
  5
FFA
331
CB7
  5
FA2
331
117F
  5
D64
331
F67
  5
E28
331
E20
  5
110B
331
1090
  5
DB9
331
D31
  5
101C
331
11A1
  5
D86
331
F89
  5
E4A
331
E3A
  5
1125
331
D4B
  5
1036
331
FA3
  5
E64
331
EB4
  5
119F
331
E5C
  5
1147
331
10D4
  5
CB9
331
D6D
  5
1058
331
FC5
  5
E86
331
ED6
  5
11C1
331
10F6
  5
CDB
331
D8F
  5
107A
331
E7E
  5
1169
331
EF8
  5
11E3
331
C48
  5
F33
331
1110
  5
CF5
331
EA0
  5
118B
331
DB1
  5
109C
331
C62
  5
F4D
331
1132
  5
D17
331
DCB
  5
10B6
331
F1A
  5
DDB
331
1023
  5
EE4
331
1009
  5
ECA
331
FE7
  5
EA8
331
10B2
  5
C97
331
1078
  5
DA1
331
1056
  5
F17
331
CDC
  5
FC7
331
C84
  5
F6F
331
DED
  5
10D8
331
F34
  5
DF5
331
1045
  5
F06
331
CFE
  5
FE9
331
CA6
  5
F91
331
E0F
  5
10FA
331
F56
  5
E17
331
1067
  5
D90
331
1176
  5
D5B
331
D20
  5
100B
331
F78
  5
E39
331
10A1
  5
DCA
331
E4B
  5
1136
331
10C3
  5
CA8
331
D5C
  5
1047
331
FB4
  5
E75
331
EC5
  5
11B0
331
E6D
  5
1158
331
D7E
  5
1069
331
EE7
  5
11D2
331
E8F
  5
117A
331
FD6
  5
E97
331
10E5
  5
CCA
331
1190
  5
D75
331
1154
  5
D39
331
DB8
  5
10A3
331
1010
  5
ED1
331
CC9
  5
FB4
331
C71
  5
F5C
331
1141
  5
D26
331
DDA
  5
10C5
331
F21
  5
DE2
331
1032
  5
EF3
331
CEB
  5
FD6
331
C93
  5
F7E
331
DFC
  5
10E7
331
F43
  5
E04
331
1163
  5
D48
331
1054
  5
F15
331
D0D
  5
FF8
331
CB5
  5
FA0
331
F65
  5
E26
331
E1E
  5
1109
331
108E
  5
DB7
331
117D
  5
D62
331
D2F
  5
101A
331
119F
  5
D84
331
F87
  5
E48
331
E38
  5
1123
331
D49
  5
1034
331
FA1
  5
E62
331
EB2
  5
119D
331
E5A
  5
1145
331
10D2
  5
CB7
331
D6B
  5
1056
331
FC3
  5
E84
331
ED4
  5
11BF
331
10F4
  5
CD9
331
D8D
  5
1078
331
E7C
  5
1167
331
EF6
  5
11E1
331
C46
  5
F31
331
110E
  5
CF3
331
E9E
  5
1189
331
DAF
  5
109A
331
C60
  5
F4B
331
1130
  5
D15
331
F18
  5
DD9
331
DC9
  5
10B4
331
1007
  5
EC8
331
FE5
  5
EA6
331
10B0
  5
C95
331
1076
  5
D9F
331
1021
  5
EE2
331
CDA
  5
FC5
331
C82
  5
F6D
331
DEB
  5
10D6
331
F32
  5
DF3
331
1043
  5
F04
331
CFC
  5
FE7
331
CA4
  5
F8F
331
E0D
  5
10F8
331
F54
  5
E15
331
1174
  5
D59
331
1065
  5
F26
331
D1E
  5
1009
331
CC6
  5
FB1
331
F76
  5
E37
331
E2F
  5
111A
331
109F
  5
DC8
331
118E
  5
D73
331
E49
  5
1134
331
10C1
  5
CA6
331
D5A
  5
1045
331
EC3
  5
11AE
331
10E3
  5
CC8
331
E6B
  5
1156
331
D7C
  5
1067
331
EE5
  5
11D0
331
E8D
  5
1178
331
FD4
  5
E95
331
D9E
  5
1089
331
FB2
  5
E73
331
1087
  5
DB0
331
F07
  5
11F2
331
111F
  5
D04
331
FF6
  5
EB7
331
1152
  5
D37
331
DD8
  5
10C3
331
1030
  5
EF1
331
CE9
  5
FD4
331
C91
  5
F7C
331
1161
  5
D46
331
DFA
  5
10E5
331
F41
  5
E02
331
1052
  5
F13
331
D0B
  5
FF6
331
CB3
  5
F9E
331
F63
  5
E24
331
117B
  5
D60
331
E1C
  5
1107
331
108C
  5
DB5
331
D2D
  5
1018
331
119D
  5
D82
331
F85
  5
E46
331
1074
  5
D9D
331
E36
  5
1121
331
D47
  5
1032
331
F9F
  5
E60
331
EB0
  5
119B
331
E58
  5
1143
331
10D0
  5
CB5
331
D69
  5
1054
331
FC1
  5
E82
331
ED2
  5
11BD
331
10F2
  5
CD7
331
D8B
  5
1076
331
E7A
  5
1165
331
EF4
  5
11DF
331
C44
  5
F2F
331
110C
  5
CF1
331
E9C
  5
1187
331
DAD
  5
1098
331
C5E
  5
F49
331
112E
  5
D13
331
DC7
  5
10B2
331
F16
  5
DD7
331
101F
  5
EE0
331
1005
  5
EC6
331
FE3
  5
EA4
331
10AE
  5
C93
331
CD8
  5
FC3
331
C80
  5
F6B
331
DE9
  5
10D4
331
F30
  5
DF1
331
1041
  5
F02
331
CFA
  5
FE5
331
CA2
  5
F8D
331
E0B
  5
10F6
331
F52
  5
E13
331
1063
  5
F24
331
1172
  5
D57
331
D1C
  5
1007
331
CC4
  5
FAF
331
F74
  5
E35
331
E2D
  5
1118
331
109D
  5
DC6
331
D3E
  5
1029
331
F96
  5
E57
331
E47
  5
1132
331
10BF
  5
CA4
331
1085
  5
DAE
331
D58
  5
1043
331
FB0
  5
E71
331
EC1
  5
11AC
331
E69
  5
1154
331
10E1
  5
CC6
331
EE3
  5
11CE
331
FD2
  5
E93
331
E8B
  5
1176
331
FF4
  5
EB5
331
D9C
  5
1087
331
F05
  5
11F0
331
C6F
  5
F5A
331
113F
  5
D24
331
111D
  5
D02
331
D7A
  5
1065
331
118C
  5
D71
331
1150
  5
D35
331
DF8
  5
10E3
331
1050
  5
F11
331
D09
  5
FF4
331
CB1
  5
F9C
331
1179
  5
D5E
331
F61
  5
E22
331
E1A
  5
1105
331
108A
  5
DB3
331
D2B
  5
1016
331
119B
  5
D80
331
1072
  5
D9B
331
F83
  5
E44
331
E34
  5
111F
331
D45
  5
1030
331
F9D
  5
E5E
331
EAE
  5
1199
331
E56
  5
1141
331
10CE
  5
CB3
331
10AC
  5
C91
331
D67
  5
1052
331
FBF
  5
E80
331
ED0
  5
11BB
331
10F0
  5
CD5
331
D89
  5
1074
331
E78
  5
1163
331
EF2
  5
11DD
331
C42
  5
F2D
331
110A
  5
CEF
331
E9A
  5
1185
331
DAB
  5
1096
331
C5C
  5
F47
331
112C
  5
D11
331
DC5
  5
10B0
331
F14
  5
DD5
331
101D
  5
EDE
331
1003
  5
EC4
331
FE1
  5
EA2
331
CD6
  5
FC1
331
C7E
  5
F69
331
DE7
  5
10D2
331
F2E
  5
DEF
331
103F
  5
F00
331
CF8
  5
FE3
331
CA0
  5
F8B
331
E09
  5
10F4
331
F50
  5
E11
331
1061
  5
F22
331
1170
  5
D55
331
D1A
  5
1005
331
CC2
  5
FAD
331
F72
  5
E33
331
E2B
  5
1116
331
109B
  5
DC4
331
D3C
  5
1027
331
E45
  5
1130
331
10BD
  5
CA2
331
F94
  5
E55
331
1083
  5
DAC
331
D56
  5
1041
331
FAE
  5
E6F
331
EBF
  5
11AA
331
E67
  5
1152
331
10DF
  5
CC4
331
EE1
  5
11CC
331
FD0
  5
E91
331
E89
  5
1174
331
FF2
  5
EB3
331
D9A
  5
1085
331
F03
  5
11EE
331
DD6
  5
10C1
331
C6D
  5
F58
331
113D
  5
D22
331
102E
  5
EEF
331
CE7
  5
FD2
331
C8F
  5
F7A
331
F3F
  5
E00
331
115F
  5
D44
331
111B
  5
D00
331
D78
  5
1063
331
118A
  5
D6F
331
114E
  5
D33
331
E18
  5
1103
331
1088
  5
DB1
331
1070
  5
D99
331
D29
  5
1014
331
1199
  5
D7E
331
F81
  5
E42
331
E32
  5
111D
331
10AA
  5
C8F
331
D43
  5
102E
331
F9B
  5
E5C
331
EAC
  5
1197
331
E54
  5
113F
331
10CC
  5
CB1
331
D65
  5
1050
331
FBD
  5
E7E
331
ECE
  5
11B9
331
10EE
  5
CD3
331
D87
  5
1072
331
EF0
  5
11DB
331
C40
  5
F2B
331
1108
  5
CED
331
FDF
  5
EA0
331
DA9
  5
1094
331
E98
  5
1183
331
C5A
  5
F45
331
112A
  5
D0F
331
DC3
  5
10AE
331
F12
  5
DD3
331
101B
  5
EDC
331
1001
  5
EC2
331
E76
  5
1161
331
CD4
  5
FBF
331
C7C
  5
F67
331
DE5
  5
10D0
331
F2C
  5
DED
331
103D
  5
EFE
331
CF6
  5
FE1
331
C9E
  5
F89
331
E07
  5
10F2
331
F4E
  5
E0F
331
105F
  5
F20
331
116E
  5
D53
331
D18
  5
1003
331
CC0
  5
FAB
331
F70
  5
E31
331
E29
  5
1114
331
1099
  5
DC2
331
D3A
  5
1025
331
11AA
  5
D8F
331
F92
  5
E53
331
1081
  5
DAA
331
E43
  5
112E
331
D54
  5
103F
331
FAC
  5
E6D
331
EBD
  5
11A8
331
E65
  5
1150
331
10DD
  5
CC2
331
D76
  5
1061
331
FCE
  5
E8F
331
EDF
  5
11CA
331
10FF
  5
CE4
331
D98
  5
1083
331
E87
  5
1172
331
F01
  5
11EC
331
1119
  5
CFE
331
DD4
  5
10BF
331
C6B
  5
F56
331
113B
  5
D20
331
102C
  5
EED
331
CE5
  5
FD0
331
C8D
  5
F78
331
DF6
  5
10E1
331
F3D
  5
DFE
331
D07
  5
FF2
331
CAF
  5
F9A
331
104E
  5
F0F
331
F5F
  5
E20
331
115D
  5
D42
331
FF0
  5
EB1
331
10BB
  5
CA0
331
1188
  5
D6D
331
114C
  5
D31
331
E30
  5
111B
331
10A8
  5
DD1
331
D41
  5
102C
331
F99
  5
E5A
331
EAA
  5
1195
331
10CA
  5
CAF
331
E52
  5
113D
331
D63
  5
104E
331
ECC
  5
11B7
331
10EC
  5
CD1
331
FBB
  5
E7C
331
D85
  5
1070
331
E74
  5
115F
331
EEE
  5
11D9
331
C3E
  5
F29
331
1106
  5
CEB
331
E96
  5
1181
331
DA7
  5
1092
331
F10
  5
11FB
331
C58
  5
F43
331
1128
  5
D0D
331
DC1
  5
10AC
331
1019
  5
EDA
331
FFF
  5
EC0
331
FDD
  5
E9E
331
CD2
  5
FBD
331
C7A
  5
F65
331
DE3
  5
10CE
331
F2A
  5
DEB
331
103B
  5
EFC
331
CF4
  5
FDF
331
C9C
  5
F87
331
E05
  5
10F0
331
F4C
  5
E0D
331
116C
  5
D51
331
105D
  5
F1E
331
D16
  5
1001
331
CBE
  5
FA9
331
F6E
  5
E2F
331
E27
  5
1112
331
1097
  5
DC0
331
1186
  5
D6B
331
D38
  5
1023
331
11A8
  5
D8D
331
F90
  5
E51
331
E41
  5
112C
331
D52
  5
103D
331
FAA
  5
E6B
331
EBB
  5
11A6
331
E63
  5
114E
331
10DB
  5
CC0
331
D74
  5
105F
331
FCC
  5
E8D
331
EDD
  5
11C8
331
10FD
  5
CE2
331
D96
  5
1081
331
E85
  5
1170
331
EFF
  5
11EA
331
C4F
  5
F3A
331
1117
  5
CFC
331
EA7
  5
1192
331
DD2
  5
10BD
331
C69
  5
F54
331
1139
  5
D1E
331
CE3
  5
FCE
331
C8B
  5
F76
331
115B
  5
D40
331
DF4
  5
10DF
331
F3B
  5
DFC
331
D05
  5
FF0
331
CAD
  5
F98
331
104C
  5
F0D
331
102A
  5
EEB
331
FEE
  5
EAF
331
10B9
  5
C9E
331
107F
  5
DA8
331
E16
  5
1101
331
106E
  5
D97
331
D27
  5
1012
331
1197
  5
D7C
331
F7F
  5
E40
331
F5D
  5
E1E
331
114A
  5
D2F
331
EA8
  5
1193
331
10C8
  5
CAD
331
E50
  5
113B
331
D61
  5
104C
331
FB9
  5
E7A
331
ECA
  5
11B5
331
10EA
  5
CCF
331
E72
  5
115D
331
D83
  5
106E
331
EEC
  5
11D7
331
1104
  5
CE9
331
FDB
  5
E9C
331
DA5
  5
1090
331
E94
  5
117F
331
F0E
  5
11F9
331
C56
  5
F41
331
1126
  5
D0B
331
DBF
  5
10AA
331
1017
  5
ED8
331
CD0
  5
FBB
331
C78
  5
F63
331
DE1
  5
10CC
331
F28
  5
DE9
331
1039
  5
EFA
331
CF2
  5
FDD
331
C9A
  5
F85
331
E03
  5
10EE
331
F4A
  5
E0B
331
116A
  5
D4F
331
1148
  5
D2D
331
FFD
  5
EBE
331
D14
  5
FFF
331
CBC
  5
FA7
331
1184
  5
D69
331
F6C
  5
E2D
331
E25
  5
1110
331
1095
  5
DBE
331
D36
  5
1021
331
11A6
  5
D8B
331
F8E
  5
E4F
331
E3F
  5
112A
331
D50
  5
103B
331
FA8
  5
E69
331
EB9
  5
11A4
331
E61
  5
114C
331
10D9
  5
CBE
331
D72
  5
105D
331
FCA
  5
E8B
331
EDB
  5
11C6
331
10FB
  5
CE0
331
D94
  5
107F
331
E83
  5
116E
331
EFD
  5
11E8
331
C4D
  5
F38
331
1115
  5
CFA
331
EA5
  5
1190
331
DB6
  5
10A1
331
C67
  5
F52
331
1137
  5
D1C
331
DD0
  5
10BB
331
F1F
  5
DE0
331
1028
  5
EE9
331
100E
  5
ECF
331
FEC
  5
EAD
331
10B7
  5
C9C
331
107D
  5
DA6
331
105B
  5
F1C
331
CE1
  5
FCC
331
C89
  5
F74
331
DF2
  5
10DD
331
F39
  5
DFA
331
D03
  5
FEE
331
CAB
  5
F96
331
104A
  5
F0B
331
E14
  5
10FF
331
106C
  5
D95
331
D25
  5
1010
331
1195
  5
D7A
331
F5B
  5
E1C
331
10A6
  5
DCF
331
F7D
  5
E3E
331
1159
  5
D3E
331
EC8
  5
11B3
331
10E8
  5
CCD
331
E70
  5
115B
331
D81
  5
106C
331
FD9
  5
E9A
331
C3A
  5
11FD
331
1102
  5
CE7
331
EEA
  5
11D5
331
E92
  5
117D
331
FFB
  5
EBC
331
DA3
  5
108E
331
F0C
  5
11F7
331
C54
  5
F3F
331
DBD
  5
10A8
331
1124
  5
D09
331
CCE
  5
FB9
331
C76
  5
F61
331
1146
  5
D2B
331
DDF
  5
10CA
331
F26
  5
DE7
331
1037
  5
EF8
331
CF0
  5
FDB
331
C98
  5
F83
331
E01
  5
10EC
331
F48
  5
E09
331
1168
  5
D4D
331
D12
  5
FFD
331
CBA
  5
FA5
331
1182
  5
D67
331
F6A
  5
E2B
331
E23
  5
110E
331
1093
  5
DBC
331
D34
  5
101F
331
11A4
  5
D89
331
F8C
  5
E4D
331
E3D
  5
1128
331
D4E
  5
1039
331
FA6
  5
E67
331
EB7
  5
11A2
331
E5F
  5
114A
331
10D7
  5
CBC
331
D70
  5
105B
331
FC8
  5
E89
331
ED9
  5
11C4
331
10F9
  5
CDE
331
D92
  5
107D
331
E81
  5
116C
331
EFB
  5
11E6
331
C4B
  5
F36
331
1113
  5
CF8
331
EA3
  5
118E
331
DB4
  5
109F
331
C65
  5
F50
331
1135
  5
D1A
331
DCE
  5
10B9
331
F1D
  5
DDE
331
1026
  5
EE7
331
100C
  5
ECD
331
FEA
  5
EAB
331
10B5
  5
C9A
331
107B
  5
DA4
331
1059
  5
F1A
331
CDF
  5
FCA
331
C87
  5
F72
331
DF0
  5
10DB
331
F37
  5
DF8
331
D01
  5
FEC
331
CA9
  5
F94
331
1048
  5
F09
331
E12
  5
10FD
331
106A
  5
D93
331
D23
  5
100E
331
1193
  5
D78
331
F59
  5
E1A
331
10A4
  5
DCD
331
E4E
  5
1139
331
10C6
  5
CAB
331
D5F
  5
104A
331
FB7
  5
E78
331
F7B
  5
E3C
331
1157
  5
D3C
331
1015
  5
ED6
331
EE8
  5
11D3
331
1100
  5
CE5
331
E90
  5
117B
331
DA1
  5
108C
331
FF9
  5
EBA
331
F0A
  5
11F5
331
C52
  5
F3D
331
1122
  5
D07
331
DBB
  5
10A6
331
1013
  5
ED4
331
CCC
  5
FB7
331
C74
  5
F5F
331
DDD
  5
10C8
331
F24
  5
DE5
331
1144
  5
D29
331
1035
  5
EF6
331
CEE
  5
FD9
331
C96
  5
F81
331
DFF
  5
10EA
331
F46
  5
E07
331
1166
  5
D4B
331
D10
  5
FFB
331
CB8
  5
FA3
331
1180
  5
D65
331
F68
  5
E29
331
E21
  5
110C
331
1091
  5
DBA
331
D32
  5
101D
331
11A2
  5
D87
331
F8A
  5
E4B
331
E3B
  5
1126
331
D4C
  5
1037
331
FA4
  5
E65
331
EB5
  5
11A0
331
E5D
  5
1148
331
10D5
  5
CBA
331
D6E
  5
1059
331
FC6
  5
E87
331
ED7
  5
11C2
331
10F7
  5
CDC
331
D90
  5
107B
331
E7F
  5
116A
331
EF9
  5
11E4
331
C49
  5
F34
331
1111
  5
CF6
331
EA1
  5
118C
331
DB2
  5
109D
331
C63
  5
F4E
331
1133
  5
D18
331
DCC
  5
10B7
331
F1B
  5
DDC
331
1024
  5
EE5
331
100A
  5
ECB
331
FE8
  5
EA9
331
10B3
  5
C98
331
1079
  5
DA2
331
1057
  5
F18
331
CDD
  5
FC8
331
C85
  5
F70
331
DEE
  5
10D9
331
F35
  5
DF6
331
1046
  5
F07
331
CFF
  5
FEA
331
CA7
  5
F92
331
E10
  5
10FB
331
F57
  5
E18
331
1068
  5
D91
331
1177
  5
D5C
331
D21
  5
100C
331
F79
  5
E3A
331
10A2
  5
DCB
331
E4C
  5
1137
331
10C4
  5
CA9
331
D5D
  5
1048
331
FB5
  5
E76
331
EC6
  5
11B1
331
E6E
  5
1159
331
D7F
  5
106A
331
FD7
  5
E98
331
10E6
  5
CCB
331
1191
  5
D76
331
1155
  5
D3A
331
F08
  5
11F3
331
C50
  5
F3B
331
1120
  5
D05
331
DB9
  5
10A4
331
1011
  5
ED2
331
CCA
  5
FB5
331
C72
  5
F5D
331
1142
  5
D27
331
DDB
  5
10C6
331
F22
  5
DE3
331
1033
  5
EF4
331
CEC
  5
FD7
331
C94
  5
F7F
331
DFD
  5
10E8
331
F44
  5
E05
331
1164
  5
D49
331
1055
  5
F16
331
D0E
  5
FF9
331
CB6
  5
FA1
331
F66
  5
E27
331
E1F
  5
110A
331
108F
  5
DB8
331
117E
  5
D63
331
D30
  5
101B
331
11A0
  5
D85
331
F88
  5
E49
331
E39
  5
1124
331
D4A
  5
1035
331
FA2
  5
E63
331
EB3
  5
119E
331
E5B
  5
1146
331
10D3
  5
CB8
331
D6C
  5
1057
331
FC4
  5
E85
331
ED5
  5
11C0
331
10F5
  5
CDA
331
D8E
  5
1079
331
E7D
  5
1168
331
EF7
  5
11E2
331
C47
  5
F32
331
110F
  5
CF4
331
E9F
  5
118A
331
DB0
  5
109B
331
C61
  5
F4C
331
1131
  5
D16
331
DCA
  5
10B5
331
F19
  5
DDA
331
1022
  5
EE3
331
1008
  5
EC9
331
FE6
  5
EA7
331
10B1
  5
C96
331
1077
  5
DA0
331
CDB
  5
FC6
331
C83
  5
F6E
331
DEC
  5
10D7
331
F33
  5
DF4
331
1044
  5
F05
331
CFD
  5
FE8
331
CA5
  5
F90
331
E0E
  5
10F9
331
F55
  5
E16
331
1175
  5
D5A
331
1066
  5
F27
331
D1F
  5
100A
331
CC7
  5
FB2
331
F77
  5
E38
331
10A0
  5
DC9
331
118F
  5
D74
331
E4A
  5
1135
331
10C2
  5
CA7
331
D5B
  5
1046
331
FB3
  5
E74
331
EC4
  5
11AF
331
E6C
  5
1157
331
D7D
  5
1068
331
EE6
  5
11D1
331
E8E
  5
1179
331
FD5
  5
E96
331
FF7
  5
EB8
331
D9F
  5
108A
331
10E4
  5
CC9
331
1153
  5
D38
331
CC8
  5
FB3
331
C70
  5
F5B
331
1140
  5
D25
331
DD9
  5
10C4
331
F20
  5
DE1
331
1031
  5
EF2
331
CEA
  5
FD5
331
C92
  5
F7D
331
1162
  5
D47
331
DFB
  5
10E6
331
F42
  5
E03
331
1053
  5
F14
331
D0C
  5
FF7
331
CB4
  5
F9F
331
F64
  5
E25
331
E1D
  5
1108
331
108D
  5
DB6
331
117C
  5
D61
331
D2E
  5
1019
331
119E
  5
D83
331
F86
  5
E47
331
1075
  5
D9E
331
E37
  5
1122
331
D48
  5
1033
331
FA0
  5
E61
331
EB1
  5
119C
331
E59
  5
1144
331
10D1
  5
CB6
331
D6A
  5
1055
331
FC2
  5
E83
331
ED3
  5
11BE
331
10F3
  5
CD8
331
D8C
  5
1077
331
E7B
  5
1166
331
EF5
  5
11E0
331
C45
  5
F30
331
110D
  5
CF2
331
E9D
  5
1188
331
DAE
  5
1099
331
C5F
  5
F4A
331
112F
  5
D14
331
DC8
  5
10B3
331
F17
  5
DD8
331
1020
  5
EE1
331
1006
  5
EC7
331
FE4
  5
EA5
331
10AF
  5
C94
331
CD9
  5
FC4
331
C81
  5
F6C
331
DEA
  5
10D5
331
F31
  5
DF2
331
1042
  5
F03
331
CFB
  5
FE6
331
CA3
  5
F8E
331
E0C
  5
10F7
331
F53
  5
E14
331
1064
  5
F25
331
1173
  5
D58
331
D1D
  5
1008
331
CC5
  5
FB0
331
F75
  5
E36
331
E2E
  5
1119
331
109E
  5
DC7
331
D3F
  5
102A
331
F97
  5
E58
331
E48
  5
1133
331
10C0
  5
CA5
331
1086
  5
DAF
331
D59
  5
1044
331
FB1
  5
E72
331
EC2
  5
11AD
331
E6A
  5
1155
331
10E2
  5
CC7
331
EE4
  5
11CF
331
FD3
  5
E94
331
E8C
  5
1177
331
FF5
  5
EB6
331
D9D
  5
1088
331
F06
  5
11F1
331
111E
  5
D03
331
D7B
  5
1066
331
118D
  5
D72
331
1151
  5
D36
331
CE8
  5
FD3
331
C90
  5
F7B
331
1160
  5
D45
331
DF9
  5
10E4
331
F40
  5
E01
331
1051
  5
F12
331
D0A
  5
FF5
331
CB2
  5
F9D
331
117A
  5
D5F
331
F62
  5
E23
331
E1B
  5
1106
331
108B
  5
DB4
331
D2C
  5
1017
331
119C
  5
D81
331
F84
  5
E45
331
1073
  5
D9C
331
E35
  5
1120
331
D46
  5
1031
331
F9E
  5
E5F
331
EAF
  5
119A
331
E57
  5
1142
331
10CF
  5
CB4
331
10AD
  5
C92
331
D68
  5
1053
331
FC0
  5
E81
331
ED1
  5
11BC
331
10F1
  5
CD6
331
D8A
  5
1075
331
E79
  5
1164
331
EF3
  5
11DE
331
C43
  5
F2E
331
110B
  5
CF0
331
E9B
  5
1186
331
DAC
  5
1097
331
C5D
  5
F48
331
112D
  5
D12
331
DC6
  5
10B1
331
F15
  5
DD6
331
101E
  5
EDF
331
1004
  5
EC5
331
FE2
  5
EA3
331
CD7
  5
FC2
331
C7F
  5
F6A
331
DE8
  5
10D3
331
F2F
  5
DF0
331
1040
  5
F01
331
CF9
  5
FE4
331
CA1
  5
F8C
331
E0A
  5
10F5
331
F51
  5
E12
331
1062
  5
F23
331
1171
  5
D56
331
D1B
  5
1006
331
CC3
  5
FAE
331
F73
  5
E34
331
E2C
  5
1117
331
109C
  5
DC5
331
D3D
  5
1028
331
F95
  5
E56
331
E46
  5
1131
331
10BE
  5
CA3
331
1084
  5
DAD
331
D57
  5
1042
331
FAF
  5
E70
331
EC0
  5
11AB
331
E68
  5
1153
331
10E0
  5
CC5
331
EE2
  5
11CD
331
FD1
  5
E92
331
E8A
  5
1175
331
FF3
  5
EB4
331
D9B
  5
1086
331
F04
  5
11EF
331
DD7
  5
10C2
331
C6E
  5
F59
331
113E
  5
D23
331
102F
  5
EF0
331
111C
  5
D01
331
D79
  5
1064
331
118B
  5
D70
331
114F
  5
D34
331
D08
  5
FF3
331
CB0
  5
F9B
331
1178
  5
D5D
331
F60
  5
E21
331
E19
  5
1104
331
1089
  5
DB2
331
1071
  5
D9A
331
D2A
  5
1015
331
119A
  5
D7F
331
F82
  5
E43
331
E33
  5
111E
331
D44
  5
102F
331
F9C
  5
E5D
331
EAD
  5
1198
331
E55
  5
1140
331
10CD
  5
CB2
331
10AB
  5
C90
331
D66
  5
1051
331
FBE
  5
E7F
331
ECF
  5
11BA
331
10EF
  5
CD4
331
D88
  5
1073
331
E77
  5
1162
331
EF1
  5
11DC
331
C41
  5
F2C
331
1109
  5
CEE
331
E99
  5
1184
331
DAA
  5
1095
331
C5B
  5
F46
331
112B
  5
D10
331
DC4
  5
10AF
331
F13
  5
DD4
331
101C
  5
EDD
331
1002
  5
EC3
331
FE0
  5
EA1
331
CD5
  5
FC0
331
C7D
  5
F68
331
DE6
  5
10D1
331
F2D
  5
DEE
331
103E
  5
EFF
331
CF7
  5
FE2
331
C9F
  5
F8A
331
E08
  5
10F3
331
F4F
  5
E10
331
1060
  5
F21
331
116F
  5
D54
331
D19
  5
1004
331
CC1
  5
FAC
331
F71
  5
E32
331
E2A
  5
1115
331
109A
  5
DC3
331
D3B
  5
1026
331
F93
  5
E54
331
1082
  5
DAB
331
E44
  5
112F
331
D55
  5
1040
331
FAD
  5
E6E
331
EBE
  5
11A9
331
E66
  5
1151
331
10DE
  5
CC3
331
D77
  5
1062
331
EE0
  5
11CB
331
FCF
  5
E90
331
E88
  5
1173
331
FF1
  5
EB2
331
D99
  5
1084
331
F02
  5
11ED
331
DD5
  5
10C0
331
C6C
  5
F57
331
113C
  5
D21
331
102D
  5
EEE
331
CE6
  5
FD1
331
C8E
  5
F79
331
DF7
  5
10E2
331
F3E
  5
DFF
331
104F
  5
F10
331
115E
  5
D43
331
111A
  5
CFF
331
10BC
  5
CA1
331
1189
  5
D6E
331
114D
  5
D32
  0
LAYOUT
  5
F
102
{ACAD_XDICTIONARY
360
121E
102
}
102
{ACAD_REACTORS
330
B
102
}
330
B
100
AcDbPlotSettings
  1

  2
hp deskjet 930c series
  4

  6

 40
0.0
 41
0.0
 42
0.0
 43
0.0
 44
0.0
 45
0.0
 46
0.0
 47
0.0
 48
0.0
 49
0.0
140
0.0
141
0.0
142
1.0
143
1.0
 70
   688
 72
     0
 73
     0
 74
     5
  7
monochrome.ctb
 75
    16
147
1.0
148
0.0
149
0.0
100
AcDbLayout
  1
Layout1
 70
     1
 71
     1
 10
0.0
 20
0.0
 11
420.0
 21
297.0
 12
0.0
 22
0.0
 32
0.0
 14
1.000000000000000E+20
 24
1.000000000000000E+20
 34
1.000000000000000E+20
 15
-1.000000000000000E+20
 25
-1.000000000000000E+20
 35
-1.000000000000000E+20
146
0.0
 13
0.0
 23
0.0
 33
0.0
 16
1.0
 26
0.0
 36
0.0
 17
0.0
 27
1.0
 37
0.0
 76
     0
330
C
  0
LAYOUT
  5
A
102
{ACAD_XDICTIONARY
360
121C
102
}
102
{ACAD_REACTORS
330
B
102
}
330
B
100
AcDbPlotSettings
  1

  2
HP DeskJet 1120C Printer
  4
A4
  6

 40
4.180416584014892
 41
13.49374103546142
 42
4.180404663085937
 43
3.757080078125
 44
209.9733276367187
 45
296.9259948730469
 46
0.0
 47
0.0
 48
232.1274484221087
 49
0.0
140
429.5274484221087
141
279.18
142
1.0
143
1.0
 70
 11952
 72
     1
 73
     0
 74
     4
  7
monochrome.ctb
 75
    16
147
1.0
148
-232.1274484221087
149
0.0
100
AcDbLayout
  1
Model
 70
     1
 71
     0
 10
0.0
 20
0.0
 11
12.0
 21
9.0
 12
0.0
 22
0.0
 32
0.0
 14
0.0
 24
0.0
 34
0.0
 15
0.0
 25
0.0
 35
0.0
146
0.0
 13
0.0
 23
0.0
 33
0.0
 16
1.0
 26
0.0
 36
0.0
 17
0.0
 27
1.0
 37
0.0
 76
     0
330
2
331
630
  0
MATERIAL
  5
63B
102
{ACAD_XDICTIONARY
360
63C
102
}
102
{ACAD_REACTORS
330
632
102
}
330
632
100
AcDbMaterial
  1
ByBlock
 72
     0
 43
0.0008202099737533
 43
0.0
 43
0.0
 43
0.0
 43
0.0
 43
0.0008202099737533
 43
0.0
 43
0.0
 43
0.0
 43
0.0
 43
1.0
 43
0.0
 43
0.0
 43
0.0
 43
0.0
 43
1.0
 77
     0
 47
0.0008202099737533
 47
0.0
 47
0.0
 47
0.0
 47
0.0
 47
0.0008202099737533
 47
0.0
 47
0.0
 47
0.0
 47
0.0
 47
1.0
 47
0.0
 47
0.0
 47
0.0
 47
0.0
 47
1.0
171
     0
 49
0.0008202099737533
 49
0.0
 49
0.0
 49
0.0
 49
0.0
 49
0.0008202099737533
 49
0.0
 49
0.0
 49
0.0
 49
0.0
 49
1.0
 49
0.0
 49
0.0
 49
0.0
 49
0.0
 49
1.0
175
     0
142
0.0008202099737533
142
0.0
142
0.0
142
0.0
142
0.0
142
0.0008202099737533
142
0.0
142
0.0
142
0.0
142
0.0
142
1.0
142
0.0
142
0.0
142
0.0
142
0.0
142
1.0
179
     0
144
0.0008202099737533
144
0.0
144
0.0
144
0.0
144
0.0
144
0.0008202099737533
144
0.0
144
0.0
144
0.0
144
0.0
144
1.0
144
0.0
144
0.0
144
0.0
144
0.0
144
1.0
147
0.0008202099737533
147
0.0
147
0.0
147
0.0
147
0.0
147
0.0008202099737533
147
0.0
147
0.0
147
0.0
147
0.0
147
1.0
147
0.0
147
0.0
147
0.0
147
0.0
147
1.0
  0
MATERIAL
  5
633
102
{ACAD_XDICTIONARY
360
634
102
}
102
{ACAD_REACTORS
330
632
102
}
330
632
100
AcDbMaterial
  1
ByLayer
 72
     0
 43
0.0008202099737533
 43
0.0
 43
0.0
 43
0.0
 43
0.0
 43
0.0008202099737533
 43
0.0
 43
0.0
 43
0.0
 43
0.0
 43
1.0
 43
0.0
 43
0.0
 43
0.0
 43
0.0
 43
1.0
 77
     0
 47
0.0008202099737533
 47
0.0
 47
0.0
 47
0.0
 47
0.0
 47
0.0008202099737533
 47
0.0
 47
0.0
 47
0.0
 47
0.0
 47
1.0
 47
0.0
 47
0.0
 47
0.0
 47
0.0
 47
1.0
171
     0
 49
0.0008202099737533
 49
0.0
 49
0.0
 49
0.0
 49
0.0
 49
0.0008202099737533
 49
0.0
 49
0.0
 49
0.0
 49
0.0
 49
1.0
 49
0.0
 49
0.0
 49
0.0
 49
0.0
 49
1.0
175
     0
142
0.0008202099737533
142
0.0
142
0.0
142
0.0
142
0.0
142
0.0008202099737533
142
0.0
142
0.0
142
0.0
142
0.0
142
1.0
142
0.0
142
0.0
142
0.0
142
0.0
142
1.0
179
     0
144
0.0008202099737533
144
0.0
144
0.0
144
0.0
144
0.0
144
0.0008202099737533
144
0.0
144
0.0
144
0.0
144
0.0
144
1.0
144
0.0
144
0.0
144
0.0
144
0.0
144
1.0
147
0.0008202099737533
147
0.0
147
0.0
147
0.0
147
0.0
147
0.0008202099737533
147
0.0
147
0.0
147
0.0
147
0.0
147
1.0
147
0.0
147
0.0
147
0.0
147
0.0
147
1.0
  0
MATERIAL
  5
643
102
{ACAD_XDICTIONARY
360
644
102
}
102
{ACAD_REACTORS
330
632
102
}
330
632
100
AcDbMaterial
  1
Global
 72
     0
 43
0.0008202099737533
 43
0.0
 43
0.0
 43
0.0
 43
0.0
 43
0.0008202099737533
 43
0.0
 43
0.0
 43
0.0
 43
0.0
 43
1.0
 43
0.0
 43
0.0
 43
0.0
 43
0.0
 43
1.0
 77
     0
 47
0.0008202099737533
 47
0.0
 47
0.0
 47
0.0
 47
0.0
 47
0.0008202099737533
 47
0.0
 47
0.0
 47
0.0
 47
0.0
 47
1.0
 47
0.0
 47
0.0
 47
0.0
 47
0.0
 47
1.0
171
     0
 49
0.0008202099737533
 49
0.0
 49
0.0
 49
0.0
 49
0.0
 49
0.0008202099737533
 49
0.0
 49
0.0
 49
0.0
 49
0.0
 49
1.0
 49
0.0
 49
0.0
 49
0.0
 49
0.0
 49
1.0
175
     0
142
0.0008202099737533
142
0.0
142
0.0
142
0.0
142
0.0
142
0.0008202099737533
142
0.0
142
0.0
142
0.0
142
0.0
142
1.0
142
0.0
142
0.0
142
0.0
142
0.0
142
1.0
179
     0
144
0.0008202099737533
144
0.0
144
0.0
144
0.0
144
0.0
144
0.0008202099737533
144
0.0
144
0.0
144
0.0
144
0.0
144
1.0
144
0.0
144
0.0
144
0.0
144
0.0
144
1.0
147
0.0008202099737533
147
0.0
147
0.0
147
0.0
147
0.0
147
0.0008202099737533
147
0.0
147
0.0
147
0.0
147
0.0
147
1.0
147
0.0
147
0.0
147
0.0
147
0.0
147
1.0
  0
MLEADERSTYLE
  5
682
102
{ACAD_REACTORS
330
681
102
}
330
681
100
AcDbMLeaderStyle
170
     2
171
     1
172
     0
 90
        2
 40
0.0
 41
0.0
173
     1
 91
-1056964608
340
15
 92
       -2
290
     1
 42
2.0
291
     1
 43
0.36
  3
Standard
 44
4.0
300

342
12
174
     1
178
     6
175
     1
176
     0
 93
-1056964608
 45
4.0
292
     0
297
     0
 46
4.0
 94
-1056964608
 47
1.0
 49
1.0
140
1.0
293
     1
141
0.0
294
     1
177
     0
142
1.0
295
     0
296
     0
143
0.125
1001
ACAD_MLEADERVER
1070
     2
  0
MLINESTYLE
  5
23
102
{ACAD_REACTORS
330
21
102
}
330
21
100
AcDbMlineStyle
  2
STANDARD
 70
     0
  3

 62
   256
 51
90.0
 52
90.0
 71
     2
 49
0.5
 62
   256
  6
BYLAYER
 49
-0.5
 62
   256
  6
BYLAYER
  0
ACDBPLACEHOLDER
  5
5
102
{ACAD_REACTORS
330
6
102
}
330
6
  0
SCALE
  5
660
102
{ACAD_REACTORS
330
65F
102
}
330
65F
100
AcDbScale
 70
     0
300
1:1
140
1.0
141
1.0
290
     1
  0
SCALE
  5
661
102
{ACAD_REACTORS
330
65F
102
}
330
65F
100
AcDbScale
 70
     0
300
1:2
140
1.0
141
2.0
290
     0
  0
SCALE
  5
662
102
{ACAD_REACTORS
330
65F
102
}
330
65F
100
AcDbScale
 70
     0
300
1:4
140
1.0
141
4.0
290
     0
  0
SCALE
  5
663
102
{ACAD_REACTORS
330
65F
102
}
330
65F
100
AcDbScale
 70
     0
300
1:5
140
1.0
141
5.0
290
     0
  0
SCALE
  5
664
102
{ACAD_REACTORS
330
65F
102
}
330
65F
100
AcDbScale
 70
     0
300
1:8
140
1.0
141
8.0
290
     0
  0
SCALE
  5
665
102
{ACAD_REACTORS
330
65F
102
}
330
65F
100
AcDbScale
 70
     0
300
1:10
140
1.0
141
10.0
290
     0
  0
SCALE
  5
666
102
{ACAD_REACTORS
330
65F
102
}
330
65F
100
AcDbScale
 70
     0
300
1:16
140
1.0
141
16.0
290
     0
  0
SCALE
  5
667
102
{ACAD_REACTORS
330
65F
102
}
330
65F
100
AcDbScale
 70
     0
300
1:20
140
1.0
141
20.0
290
     0
  0
SCALE
  5
668
102
{ACAD_REACTORS
330
65F
102
}
330
65F
100
AcDbScale
 70
     0
300
1:30
140
1.0
141
30.0
290
     0
  0
SCALE
  5
669
102
{ACAD_REACTORS
330
65F
102
}
330
65F
100
AcDbScale
 70
     0
300
1:40
140
1.0
141
40.0
290
     0
  0
SCALE
  5
66A
102
{ACAD_REACTORS
330
65F
102
}
330
65F
100
AcDbScale
 70
     0
300
1:50
140
1.0
141
50.0
290
     0
  0
SCALE
  5
66B
102
{ACAD_REACTORS
330
65F
102
}
330
65F
100
AcDbScale
 70
     0
300
1:100
140
1.0
141
100.0
290
     0
  0
SCALE
  5
66C
102
{ACAD_REACTORS
330
65F
102
}
330
65F
100
AcDbScale
 70
     0
300
2:1
140
2.0
141
1.0
290
     0
  0
SCALE
  5
66D
102
{ACAD_REACTORS
330
65F
102
}
330
65F
100
AcDbScale
 70
     0
300
4:1
140
4.0
141
1.0
290
     0
  0
SCALE
  5
66E
102
{ACAD_REACTORS
330
65F
102
}
330
65F
100
AcDbScale
 70
     0
300
8:1
140
8.0
141
1.0
290
     0
  0
SCALE
  5
66F
102
{ACAD_REACTORS
330
65F
102
}
330
65F
100
AcDbScale
 70
     0
300
10:1
140
10.0
141
1.0
290
     0
  0
SCALE
  5
670
102
{ACAD_REACTORS
330
65F
102
}
330
65F
100
AcDbScale
 70
     0
300
100:1
140
100.0
141
1.0
290
     0
  0
SCALE
  5
671
102
{ACAD_REACTORS
330
65F
102
}
330
65F
100
AcDbScale
 70
     0
300
1/128" = 1'-0"
140
0.0078125
141
12.0
290
     0
  0
SCALE
  5
672
102
{ACAD_REACTORS
330
65F
102
}
330
65F
100
AcDbScale
 70
     0
300
1/64" = 1'-0"
140
0.015625
141
12.0
290
     0
  0
SCALE
  5
673
102
{ACAD_REACTORS
330
65F
102
}
330
65F
100
AcDbScale
 70
     0
300
1/32" = 1'-0"
140
0.03125
141
12.0
290
     0
  0
SCALE
  5
674
102
{ACAD_REACTORS
330
65F
102
}
330
65F
100
AcDbScale
 70
     0
300
1/16" = 1'-0"
140
0.0625
141
12.0
290
     0
  0
SCALE
  5
675
102
{ACAD_REACTORS
330
65F
102
}
330
65F
100
AcDbScale
 70
     0
300
3/32" = 1'-0"
140
0.09375
141
12.0
290
     0
  0
SCALE
  5
676
102
{ACAD_REACTORS
330
65F
102
}
330
65F
100
AcDbScale
 70
     0
300
1/8" = 1'-0"
140
0.125
141
12.0
290
     0
  0
SCALE
  5
677
102
{ACAD_REACTORS
330
65F
102
}
330
65F
100
AcDbScale
 70
     0
300
3/16" = 1'-0"
140
0.1875
141
12.0
290
     0
  0
SCALE
  5
678
102
{ACAD_REACTORS
330
65F
102
}
330
65F
100
AcDbScale
 70
     0
300
1/4" = 1'-0"
140
0.25
141
12.0
290
     0
  0
SCALE
  5
679
102
{ACAD_REACTORS
330
65F
102
}
330
65F
100
AcDbScale
 70
     0
300
3/8" = 1'-0"
140
0.375
141
12.0
290
     0
  0
SCALE
  5
67A
102
{ACAD_REACTORS
330
65F
102
}
330
65F
100
AcDbScale
 70
     0
300
1/2" = 1'-0"
140
0.5
141
12.0
290
     0
  0
SCALE
  5
67B
102
{ACAD_REACTORS
330
65F
102
}
330
65F
100
AcDbScale
 70
     0
300
3/4" = 1'-0"
140
0.75
141
12.0
290
     0
  0
SCALE
  5
67C
102
{ACAD_REACTORS
330
65F
102
}
330
65F
100
AcDbScale
 70
     0
300
1" = 1'-0"
140
1.0
141
12.0
290
     0
  0
SCALE
  5
67D
102
{ACAD_REACTORS
330
65F
102
}
330
65F
100
AcDbScale
 70
     0
300
1-1/2" = 1'-0"
140
1.5
141
12.0
290
     0
  0
SCALE
  5
67E
102
{ACAD_REACTORS
330
65F
102
}
330
65F
100
AcDbScale
 70
     0
300
3" = 1'-0"
140
3.0
141
12.0
290
     0
  0
SCALE
  5
67F
102
{ACAD_REACTORS
330
65F
102
}
330
65F
100
AcDbScale
 70
     0
300
6" = 1'-0"
140
6.0
141
12.0
290
     0
  0
SCALE
  5
680
102
{ACAD_REACTORS
330
65F
102
}
330
65F
100
AcDbScale
 70
     0
300
1'-0" = 1'-0"
140
12.0
141
12.0
290
     0
  0
TABLESTYLE
  5
65E
102
{ACAD_XDICTIONARY
360
69E
102
}
102
{ACAD_REACTORS
330
65D
102
}
330
65D
100
AcDbTableStyle
  3
Standard
 70
     0
 71
     0
 40
1.5
 41
1.5
280
     0
281
     0
  7
Standard
140
4.5
170
     2
 62
     0
 63
     7
283
     0
274
    -2
284
     1
 64
     0
275
    -2
285
     1
 65
     0
276
    -2
286
     1
 66
     0
277
    -2
287
     1
 67
     0
278
    -2
288
     1
 68
     0
279
    -2
289
     1
 69
     0
  7
Standard
140
6.0
170
     5
 62
     0
 63
     7
283
     0
274
    -2
284
     1
 64
     0
275
    -2
285
     1
 65
     0
276
    -2
286
     1
 66
     0
277
    -2
287
     1
 67
     0
278
    -2
288
     1
 68
     0
279
    -2
289
     1
 69
     0
  7
Standard
140
4.5
170
     5
 62
     0
 63
     7
283
     0
274
    -2
284
     1
 64
     0
275
    -2
285
     1
 65
     0
276
    -2
286
     1
 66
     0
277
    -2
287
     1
 67
     0
278
    -2
288
     1
 68
     0
279
    -2
289
     1
 69
     0
  0
VISUALSTYLE
  5
651
102
{ACAD_REACTORS
330
64B
102
}
330
64B
100
AcDbVisualStyle
  2
2dWireframe
 70
     4
 71
     0
 72
     2
 73
     0
 90
        0
 40
-0.6
 41
-30.0
 62
     5
 63
     7
 74
     1
 91
        4
 64
     7
 65
   257
 75
     1
175
     1
 42
1.0
 92
        0
 66
   257
 43
1.0
 76
     1
 77
     6
 78
     2
 67
     7
 79
     5
170
     0
171
     0
290
     0
174
     0
 93
        1
 44
0.0
173
     0
291
     0
 45
0.0
1001
ACAD
1000
AcDbSavedByObjectVersion
1070
     0
  0
VISUALSTYLE
  5
653
102
{ACAD_REACTORS
330
64B
102
}
330
64B
100
AcDbVisualStyle
  2
3D Hidden
 70
     6
 71
     1
 72
     2
 73
     2
 90
        0
 40
-0.6
 41
-30.0
 62
     5
 63
     7
 74
     2
 91
        2
 64
     7
 65
   257
 75
     2
175
     1
 42
40.0
 92
        0
 66
   257
 43
1.0
 76
     1
 77
     6
 78
     2
 67
     7
 79
     3
170
     0
171
     0
290
     0
174
     0
 93
        1
 44
0.0
173
     0
291
     0
 45
0.0
1001
ACAD
1000
AcDbSavedByObjectVersion
1070
     0
  0
VISUALSTYLE
  5
652
102
{ACAD_REACTORS
330
64B
102
}
330
64B
100
AcDbVisualStyle
  2
3dWireframe
 70
     5
 71
     0
 72
     2
 73
     0
 90
        0
 40
-0.6
 41
-30.0
 62
     5
 63
     7
 74
     1
 91
        4
 64
     7
 65
   257
 75
     1
175
     1
 42
1.0
 92
        0
 66
   257
 43
1.0
 76
     1
 77
     6
 78
     2
 67
     7
 79
     5
170
     0
171
     0
290
     0
174
     0
 93
        1
 44
0.0
173
     0
291
     0
 45
0.0
1001
ACAD
1000
AcDbSavedByObjectVersion
1070
     0
  0
VISUALSTYLE
  5
650
102
{ACAD_REACTORS
330
64B
102
}
330
64B
100
AcDbVisualStyle
  2
Basic
 70
     7
 71
     1
 72
     0
 73
     1
 90
        0
 40
-0.6
 41
-30.0
 62
     5
 63
     7
 74
     0
 91
        4
 64
     7
 65
   257
 75
     1
175
     1
 42
1.0
 92
        8
 66
     7
 43
1.0
 76
     1
 77
     6
 78
     2
 67
     7
 79
     5
170
     0
171
     0
290
     0
174
     0
 93
        1
 44
0.0
173
     0
291
     1
 45
0.0
1001
ACAD
1000
AcDbSavedByObjectVersion
1070
     0
  0
VISUALSTYLE
  5
657
102
{ACAD_REACTORS
330
64B
102
}
330
64B
100
AcDbVisualStyle
  2
Brighten
 70
    12
 71
     2
 72
     2
 73
     0
 90
        0
 40
-0.6
 41
-30.0
 62
     5
 63
     7
 74
     1
 91
        4
 64
     7
 65
   257
 75
     1
175
     1
 42
1.0
 92
        8
 66
     7
 43
1.0
 76
     1
 77
     6
 78
     2
 67
     7
 79
     5
170
     0
171
     0
290
     0
174
     0
 93
        1
 44
50.0
173
     0
291
     1
 45
0.0
1001
ACAD
1000
AcDbSavedByObjectVersion
1070
     0
  0
VISUALSTYLE
  5
65B
102
{ACAD_REACTORS
330
64B
102
}
330
64B
100
AcDbVisualStyle
  2
ColorChange
 70
    16
 71
     2
 72
     2
 73
     3
 90
        0
 40
-0.6
 41
-30.0
 62
     5
 63
     8
 74
     1
 91
        4
 64
     7
 65
   257
 75
     1
175
     1
 42
1.0
 92
        8
 66
     8
 43
1.0
 76
     1
 77
     6
 78
     2
 67
     7
 79
     5
170
     0
171
     0
290
     0
174
     0
 93
        1
 44
0.0
173
     0
291
     1
 45
0.0
1001
ACAD
1000
AcDbSavedByObjectVersion
1070
     0
  0
VISUALSTYLE
  5
654
102
{ACAD_REACTORS
330
64B
102
}
330
64B
100
AcDbVisualStyle
  2
Conceptual
 70
     9
 71
     3
 72
     2
 73
     0
 90
        0
 40
-0.6
 41
-30.0
 62
     5
 63
     7
 74
     2
 91
        2
 64
     7
 65
   257
 75
     1
175
     1
 42
40.0
 92
        8
 66
     7
 43
1.0
 76
     1
 77
     6
 78
     2
 67
     7
 79
     3
170
     0
171
     0
290
     0
174
     0
 93
        1
 44
0.0
173
     0
291
     0
 45
0.0
1001
ACAD
1000
AcDbSavedByObjectVersion
1070
     0
  0
VISUALSTYLE
  5
656
102
{ACAD_REACTORS
330
64B
102
}
330
64B
100
AcDbVisualStyle
  2
Dim
 70
    11
 71
     2
 72
     2
 73
     0
 90
        0
 40
-0.6
 41
-30.0
 62
     5
 63
     7
 74
     1
 91
        4
 64
     7
 65
   257
 75
     1
175
     1
 42
1.0
 92
        8
 66
     7
 43
1.0
 76
     1
 77
     6
 78
     2
 67
     7
 79
     5
170
     0
171
     0
290
     0
174
     0
 93
        1
 44
-50.0
173
     0
291
     1
 45
0.0
1001
ACAD
1000
AcDbSavedByObjectVersion
1070
     0
  0
VISUALSTYLE
  5
65A
102
{ACAD_REACTORS
330
64B
102
}
330
64B
100
AcDbVisualStyle
  2
Facepattern
 70
    15
 71
     2
 72
     2
 73
     0
 90
        0
 40
-0.6
 41
-30.0
 62
     5
 63
     7
 74
     1
 91
        4
 64
     7
 65
   257
 75
     1
175
     1
 42
1.0
 92
        8
 66
     7
 43
1.0
 76
     1
 77
     6
 78
     2
 67
     7
 79
     5
170
     0
171
     0
290
     0
174
     0
 93
        1
 44
0.0
173
     0
291
     1
 45
0.0
1001
ACAD
1000
AcDbSavedByObjectVersion
1070
     0
  0
VISUALSTYLE
  5
64C
102
{ACAD_REACTORS
330
64B
102
}
330
64B
100
AcDbVisualStyle
  2
Flat
 70
     0
 71
     2
 72
     1
 73
     1
 90
        2
 40
-0.6
 41
30.0
 62
     5
 63
     7
 74
     0
 91
        4
 64
     7
 65
   257
 75
     1
175
     1
 42
1.0
 92
        8
 66
     7
 43
1.0
 76
     1
 77
     6
 78
     2
 67
     7
 79
     5
170
     0
171
     0
290
     0
174
     0
 93
       13
 44
0.0
173
     0
291
     1
 45
0.0
1001
ACAD
1000
AcDbSavedByObjectVersion
1070
     0
  0
VISUALSTYLE
  5
64D
102
{ACAD_REACTORS
330
64B
102
}
330
64B
100
AcDbVisualStyle
  2
FlatWithEdges
 70
     1
 71
     2
 72
     1
 73
     1
 90
        2
 40
-0.6
 41
30.0
 62
     5
 63
     7
 74
     1
 91
        4
 64
     7
 65
   257
 75
     1
175
     1
 42
1.0
 92
        0
 66
   257
 43
1.0
 76
     1
 77
     6
 78
     2
 67
     7
 79
     5
170
     0
171
     0
290
     0
174
     0
 93
       13
 44
0.0
173
     0
291
     1
 45
0.0
1001
ACAD
1000
AcDbSavedByObjectVersion
1070
     0
  0
VISUALSTYLE
  5
64E
102
{ACAD_REACTORS
330
64B
102
}
330
64B
100
AcDbVisualStyle
  2
Gouraud
 70
     2
 71
     2
 72
     2
 73
     1
 90
        2
 40
-0.6
 41
30.0
 62
     5
 63
     7
 74
     0
 91
        4
 64
     7
 65
   257
 75
     1
175
     1
 42
1.0
 92
        0
 66
     7
 43
1.0
 76
     1
 77
     6
 78
     2
 67
     7
 79
     5
170
     0
171
     0
290
     0
174
     0
 93
       13
 44
0.0
173
     0
291
     1
 45
0.0
1001
ACAD
1000
AcDbSavedByObjectVersion
1070
     0
  0
VISUALSTYLE
  5
64F
102
{ACAD_REACTORS
330
64B
102
}
330
64B
100
AcDbVisualStyle
  2
GouraudWithEdges
 70
     3
 71
     2
 72
     2
 73
     1
 90
        2
 40
-0.6
 41
30.0
 62
     5
 63
     7
 74
     1
 91
        4
 64
     7
 65
   257
 75
     1
175
     1
 42
1.0
 92
        0
 66
   257
 43
1.0
 76
     1
 77
     6
 78
     2
 67
     7
 79
     5
170
     0
171
     0
290
     0
174
     0
 93
       13
 44
0.0
173
     0
291
     1
 45
0.0
1001
ACAD
1000
AcDbSavedByObjectVersion
1070
     0
  0
VISUALSTYLE
  5
659
102
{ACAD_REACTORS
330
64B
102
}
330
64B
100
AcDbVisualStyle
  2
Linepattern
 70
    14
 71
     2
 72
     2
 73
     0
 90
        0
 40
-0.6
 41
-30.0
 62
     5
 63
     7
 74
     1
 91
        4
 64
     7
 65
   257
 75
     7
175
     7
 42
1.0
 92
        8
 66
     7
 43
1.0
 76
     1
 77
     6
 78
     2
 67
     7
 79
     5
170
     0
171
     0
290
     0
174
     0
 93
        1
 44
0.0
173
     0
291
     1
 45
0.0
1001
ACAD
1000
AcDbSavedByObjectVersion
1070
     0
  0
VISUALSTYLE
  5
655
102
{ACAD_REACTORS
330
64B
102
}
330
64B
100
AcDbVisualStyle
  2
Realistic
 70
     8
 71
     2
 72
     2
 73
     0
 90
        0
 40
-0.6
 41
-30.0
 62
     5
 63
     7
 74
     1
 91
        0
 64
     7
 65
   257
 75
     1
175
     1
 42
1.0
 92
        8
 66
     8
 43
1.0
 76
     1
 77
     6
 78
     2
 67
     7
 79
     5
170
     0
171
     0
290
     0
174
     0
 93
       13
 44
0.0
173
     0
291
     0
 45
0.0
1001
ACAD
1000
AcDbSavedByObjectVersion
1070
     0
  0
VISUALSTYLE
  5
658
102
{ACAD_REACTORS
330
64B
102
}
330
64B
100
AcDbVisualStyle
  2
Thicken
 70
    13
 71
     2
 72
     2
 73
     0
 90
        0
 40
-0.6
 41
-30.0
 62
     5
 63
     7
 74
     1
 91
        4
 64
     7
 65
   257
 75
     1
175
     1
 42
1.0
 92
       12
 66
     7
 43
1.0
 76
     1
 77
     6
 78
     2
 67
     7
 79
     5
170
     0
171
     0
290
     0
174
     0
 93
        1
 44
0.0
173
     0
291
     1
 45
0.0
1001
ACAD
1000
AcDbSavedByObjectVersion
1070
     0
  0
DICTIONARYVAR
  5
6A5
102
{ACAD_REACTORS
330
6A1
102
}
330
6A1
100
DictionaryVariables
280
     0
  1
1:1
  0
DICTIONARYVAR
  5
6A3
102
{ACAD_REACTORS
330
6A1
102
}
330
6A1
100
DictionaryVariables
280
     0
  1
STANDARD
  0
DICTIONARYVAR
  5
6A2
102
{ACAD_REACTORS
330
6A1
102
}
330
6A1
100
DictionaryVariables
280
     0
  1
STANDARD
  0
DICTIONARYVAR
  5
1200
102
{ACAD_REACTORS
330
6A1
102
}
330
6A1
100
DictionaryVariables
280
     0
  1
1
  0
DICTIONARYVAR
  5
11FF
102
{ACAD_REACTORS
330
6A1
102
}
330
6A1
100
DictionaryVariables
280
     0
  1
0
  0
DICTIONARYVAR
  5
6A6
102
{ACAD_REACTORS
330
6A1
102
}
330
6A1
100
DictionaryVariables
280
     0
  1
0
  0
DICTIONARYVAR
  5
6A4
102
{ACAD_REACTORS
330
6A1
102
}
330
6A1
100
DictionaryVariables
280
     0
  1
0
  0
DICTIONARYVAR
  5
11FE
102
{ACAD_REACTORS
330
6A1
102
}
330
6A1
100
DictionaryVariables
280
     0
  1
127
  0
XRECORD
  5
69D
102
{ACAD_REACTORS
330
69B
102
}
330
69B
100
AcDbXrecord
280
     1
330
39
330
F2
  0
DICTIONARY
  5
121E
330
F
100
AcDbDictionary
280
     1
281
     1
  3
ACAD_XREC_ROUNDTRIP
360
121F
  0
DICTIONARY
  5
121C
330
A
100
AcDbDictionary
280
     1
281
     1
  3
ACAD_XREC_ROUNDTRIP
360
121D
  0
DICTIONARY
  5
63C
330
63B
100
AcDbDictionary
280
     1
281
     1
  3
ACAD_XREC_ROUNDTRIP
360
1224
  3
BUMPTILE
360
63E
  3
DIFFUSETILE
360
63D
  3
OPACITYTILE
360
641
  3
REFLECTIONTILE
360
640
  3
REFRACTIONTILE
360
642
  3
SPECULARTILE
360
63F
  0
DICTIONARY
  5
634
330
633
100
AcDbDictionary
280
     1
281
     1
  3
ACAD_XREC_ROUNDTRIP
360
1223
  3
BUMPTILE
360
636
  3
DIFFUSETILE
360
635
  3
OPACITYTILE
360
639
  3
REFLECTIONTILE
360
638
  3
REFRACTIONTILE
360
63A
  3
SPECULARTILE
360
637
  0
DICTIONARY
  5
644
330
643
100
AcDbDictionary
280
     1
281
     1
  3
ACAD_XREC_ROUNDTRIP
360
1225
  3
BUMPTILE
360
646
  3
DIFFUSETILE
360
645
  3
OPACITYTILE
360
649
  3
REFLECTIONTILE
360
648
  3
REFRACTIONTILE
360
64A
  3
SPECULARTILE
360
647
  0
DICTIONARY
  5
69E
330
65E
100
AcDbDictionary
280
     1
281
     1
  3
ACAD_ROUNDTRIP_2008_TABLESTYLE_CELLSTYLEMAP
360
121A
  3
ACAD_XREC_ROUNDTRIP
360
1226
  0
XRECORD
  5
121F
102
{ACAD_REACTORS
330
121E
102
}
330
121E
100
AcDbXrecord
280
     1
102
SHADEPLOT
 70
     0
102
SHADEPLOTRESLEVEL
 70
     2
102
SHADEPLOTCUSTOMDPI
 70
   300
  0
XRECORD
  5
121D
102
{ACAD_REACTORS
330
121C
102
}
330
121C
100
AcDbXrecord
280
     1
102
SHADEPLOT
 70
     0
102
SHADEPLOTRESLEVEL
 70
     2
102
SHADEPLOTCUSTOMDPI
 70
   300
  0
XRECORD
  5
1224
102
{ACAD_REACTORS
330
63C
102
}
330
63C
100
AcDbXrecord
280
     1
102
MATERIAL
148
0.0
149
0.0
149
0.0
 93
        0
 94
      127
282
     0
 72
     0
 77
     0
171
     0
175
     0
179
     0
273
     0
  0
XRECORD
  5
63E
102
{ACAD_REACTORS
330
63C
102
}
330
63C
100
AcDbXrecord
280
     1
270
     1
271
     1
  0
XRECORD
  5
63D
102
{ACAD_REACTORS
330
63C
102
}
330
63C
100
AcDbXrecord
280
     1
270
     1
271
     1
  0
XRECORD
  5
641
102
{ACAD_REACTORS
330
63C
102
}
330
63C
100
AcDbXrecord
280
     1
270
     1
271
     1
  0
XRECORD
  5
640
102
{ACAD_REACTORS
330
63C
102
}
330
63C
100
AcDbXrecord
280
     1
270
     1
271
     1
  0
XRECORD
  5
642
102
{ACAD_REACTORS
330
63C
102
}
330
63C
100
AcDbXrecord
280
     1
270
     1
271
     1
  0
XRECORD
  5
63F
102
{ACAD_REACTORS
330
63C
102
}
330
63C
100
AcDbXrecord
280
     1
270
     1
271
     1
  0
XRECORD
  5
1223
102
{ACAD_REACTORS
330
634
102
}
330
634
100
AcDbXrecord
280
     1
102
MATERIAL
148
0.0
149
0.0
149
0.0
 93
        0
 94
      127
282
     0
 72
     0
 77
     0
171
     0
175
     0
179
     0
273
     0
  0
XRECORD
  5
636
102
{ACAD_REACTORS
330
634
102
}
330
634
100
AcDbXrecord
280
     1
270
     1
271
     1
  0
XRECORD
  5
635
102
{ACAD_REACTORS
330
634
102
}
330
634
100
AcDbXrecord
280
     1
270
     1
271
     1
  0
XRECORD
  5
639
102
{ACAD_REACTORS
330
634
102
}
330
634
100
AcDbXrecord
280
     1
270
     1
271
     1
  0
XRECORD
  5
638
102
{ACAD_REACTORS
330
634
102
}
330
634
100
AcDbXrecord
280
     1
270
     1
271
     1
  0
XRECORD
  5
63A
102
{ACAD_REACTORS
330
634
102
}
330
634
100
AcDbXrecord
280
     1
270
     1
271
     1
  0
XRECORD
  5
637
102
{ACAD_REACTORS
330
634
102
}
330
634
100
AcDbXrecord
280
     1
270
     1
271
     1
  0
XRECORD
  5
1225
102
{ACAD_REACTORS
330
644
102
}
330
644
100
AcDbXrecord
280
     1
102
MATERIAL
148
0.0
149
0.0
149
0.0
 93
        0
 94
      127
282
     0
 72
     0
 77
     0
171
     0
175
     0
179
     0
273
     0
  0
XRECORD
  5
646
102
{ACAD_REACTORS
330
644
102
}
330
644
100
AcDbXrecord
280
     1
270
     1
271
     1
  0
XRECORD
  5
645
102
{ACAD_REACTORS
330
644
102
}
330
644
100
AcDbXrecord
280
     1
270
     1
271
     1
  0
XRECORD
  5
649
102
{ACAD_REACTORS
330
644
102
}
330
644
100
AcDbXrecord
280
     1
270
     1
271
     1
  0
XRECORD
  5
648
102
{ACAD_REACTORS
330
644
102
}
330
644
100
AcDbXrecord
280
     1
270
     1
271
     1
  0
XRECORD
  5
64A
102
{ACAD_REACTORS
330
644
102
}
330
644
100
AcDbXrecord
280
     1
270
     1
271
     1
  0
XRECORD
  5
647
102
{ACAD_REACTORS
330
644
102
}
330
644
100
AcDbXrecord
280
     1
270
     1
271
     1
  0
CELLSTYLEMAP
  5
121A
102
{ACAD_REACTORS
330
69E
102
}
330
69E
100
AcDbCellStyleMap
 90
        3
300
CELLSTYLE
  1
TABLEFORMAT_BEGIN
 90
        5
170
     1
 91
        0
 92
    32768
 62
   257
 93
        1
300
CONTENTFORMAT
  1
CONTENTFORMAT_BEGIN
 90
        0
 91
        0
 92
      512
 93
        0
300

 40
0.0
140
1.0
 94
        5
 62
     0
340
12
144
6.0
309
CONTENTFORMAT_END
171
     1
301
MARGIN
  1
CELLMARGIN_BEGIN
 40
1.5
 40
1.5
 40
1.5
 40
1.5
 40
4.5
 40
4.5
309
CELLMARGIN_END
 94
        6
 95
        1
302
GRIDFORMAT
  1
GRIDFORMAT_BEGIN
 90
        0
 91
        1
 62
     0
 92
       -2
340
0
 93
        0
 40
1.125
309
GRIDFORMAT_END
 95
        2
302
GRIDFORMAT
  1
GRIDFORMAT_BEGIN
 90
        0
 91
        1
 62
     0
 92
       -2
340
0
 93
        0
 40
1.125
309
GRIDFORMAT_END
 95
        4
302
GRIDFORMAT
  1
GRIDFORMAT_BEGIN
 90
        0
 91
        1
 62
     0
 92
       -2
340
0
 93
        0
 40
1.125
309
GRIDFORMAT_END
 95
        8
302
GRIDFORMAT
  1
GRIDFORMAT_BEGIN
 90
        0
 91
        1
 62
     0
 92
       -2
340
0
 93
        0
 40
1.125
309
GRIDFORMAT_END
 95
       16
302
GRIDFORMAT
  1
GRIDFORMAT_BEGIN
 90
        0
 91
        1
 62
     0
 92
       -2
340
0
 93
        0
 40
1.125
309
GRIDFORMAT_END
 95
       32
302
GRIDFORMAT
  1
GRIDFORMAT_BEGIN
 90
        0
 91
        1
 62
     0
 92
       -2
340
0
 93
        0
 40
1.125
309
GRIDFORMAT_END
309
TABLEFORMAT_END
  1
CELLSTYLE_BEGIN
 90
        1
 91
        1
300
_TITLE
309
CELLSTYLE_END
300
CELLSTYLE
  1
TABLEFORMAT_BEGIN
 90
        5
170
     1
 91
        0
 92
        0
 62
   257
 93
        1
300
CONTENTFORMAT
  1
CONTENTFORMAT_BEGIN
 90
        0
 91
        0
 92
      512
 93
        0
300

 40
0.0
140
1.0
 94
        5
 62
     0
340
12
144
4.5
309
CONTENTFORMAT_END
171
     1
301
MARGIN
  1
CELLMARGIN_BEGIN
 40
1.5
 40
1.5
 40
1.5
 40
1.5
 40
4.5
 40
4.5
309
CELLMARGIN_END
 94
        6
 95
        1
302
GRIDFORMAT
  1
GRIDFORMAT_BEGIN
 90
        0
 91
        1
 62
     0
 92
       -2
340
0
 93
        0
 40
1.125
309
GRIDFORMAT_END
 95
        2
302
GRIDFORMAT
  1
GRIDFORMAT_BEGIN
 90
        0
 91
        1
 62
     0
 92
       -2
340
0
 93
        0
 40
1.125
309
GRIDFORMAT_END
 95
        4
302
GRIDFORMAT
  1
GRIDFORMAT_BEGIN
 90
        0
 91
        1
 62
     0
 92
       -2
340
0
 93
        0
 40
1.125
309
GRIDFORMAT_END
 95
        8
302
GRIDFORMAT
  1
GRIDFORMAT_BEGIN
 90
        0
 91
        1
 62
     0
 92
       -2
340
0
 93
        0
 40
1.125
309
GRIDFORMAT_END
 95
       16
302
GRIDFORMAT
  1
GRIDFORMAT_BEGIN
 90
        0
 91
        1
 62
     0
 92
       -2
340
0
 93
        0
 40
1.125
309
GRIDFORMAT_END
 95
       32
302
GRIDFORMAT
  1
GRIDFORMAT_BEGIN
 90
        0
 91
        1
 62
     0
 92
       -2
340
0
 93
        0
 40
1.125
309
GRIDFORMAT_END
309
TABLEFORMAT_END
  1
CELLSTYLE_BEGIN
 90
        2
 91
        1
300
_HEADER
309
CELLSTYLE_END
300
CELLSTYLE
  1
TABLEFORMAT_BEGIN
 90
        5
170
     1
 91
        0
 92
        0
 62
   257
 93
        1
300
CONTENTFORMAT
  1
CONTENTFORMAT_BEGIN
 90
        0
 91
        0
 92
      512
 93
        0
300

 40
0.0
140
1.0
 94
        2
 62
     0
340
12
144
4.5
309
CONTENTFORMAT_END
171
     1
301
MARGIN
  1
CELLMARGIN_BEGIN
 40
1.5
 40
1.5
 40
1.5
 40
1.5
 40
4.5
 40
4.5
309
CELLMARGIN_END
 94
        6
 95
        1
302
GRIDFORMAT
  1
GRIDFORMAT_BEGIN
 90
        0
 91
        1
 62
     0
 92
       -2
340
0
 93
        0
 40
1.125
309
GRIDFORMAT_END
 95
        2
302
GRIDFORMAT
  1
GRIDFORMAT_BEGIN
 90
        0
 91
        1
 62
     0
 92
       -2
340
0
 93
        0
 40
1.125
309
GRIDFORMAT_END
 95
        4
302
GRIDFORMAT
  1
GRIDFORMAT_BEGIN
 90
        0
 91
        1
 62
     0
 92
       -2
340
0
 93
        0
 40
1.125
309
GRIDFORMAT_END
 95
        8
302
GRIDFORMAT
  1
GRIDFORMAT_BEGIN
 90
        0
 91
        1
 62
     0
 92
       -2
340
0
 93
        0
 40
1.125
309
GRIDFORMAT_END
 95
       16
302
GRIDFORMAT
  1
GRIDFORMAT_BEGIN
 90
        0
 91
        1
 62
     0
 92
       -2
340
0
 93
        0
 40
1.125
309
GRIDFORMAT_END
 95
       32
302
GRIDFORMAT
  1
GRIDFORMAT_BEGIN
 90
        0
 91
        1
 62
     0
 92
       -2
340
0
 93
        0
 40
1.125
309
GRIDFORMAT_END
309
TABLEFORMAT_END
  1
CELLSTYLE_BEGIN
 90
        3
 91
        2
300
_DATA
309
CELLSTYLE_END
  0
XRECORD
  5
1226
102
{ACAD_REACTORS
330
69E
102
}
330
69E
100
AcDbXrecord
280
     1
102
ACAD_ROUNDTRIP_PRE2007_TABLESTYLE
 90
      512
 91
        0
  1

 92
      512
 93
        0
  2

 94
      512
 95
        0
  3

  0
ENDSEC
  0
EOF
