  0
SECTION
  2
HEADER
  9
$ACADVER
  1
AC1009
  9
$DWGCODEPAGE
  3
ansi_1252
  9
$INSBASE
 10
0.0
 20
0.0
 30
0.0
  9
$EXTMIN
 10
-91.8773887437037
 20
-138.9423575583123
 30
-0.0000000000000087
  9
$EXTMAX
 10
276.6620525516009
 20
157.7066534654163
 30
0.0000000000000066
  9
$LIMMIN
 10
-20.0
 20
-0.021978
  9
$LIMMAX
 10
2645.85
 20
758.35
  9
$ORTHOMODE
 70
     0
  9
$REGENMODE
 70
     1
  9
$FILLMODE
 70
     1
  9
$QTEXTMODE
 70
     0
  9
$MIRRTEXT
 70
     1
  9
$DRAGMODE
 70
     2
  9
$LTSCALE
 40
10.0
  9
$OSMODE
 70
   511
  9
$ATTMODE
 70
     1
  9
$TEXTSIZE
 40
0.2
  9
$TRACEWID
 40
0.05
  9
$TEXTSTYLE
  7
STANDARD
  9
$CLAYER
  8
0
  9
$CELTYPE
  6
CONTINUOUS
  9
$CECOLOR
 62
   256
  9
$DIMSCALE
 40
1.0
  9
$DIMASZ
 40
1.25
  9
$DIMEXO
 40
0.0
  9
$DIMDLI
 40
0.38
  9
$DIMRND
 40
0.0
  9
$DIMDLE
 40
0.0
  9
$DIMEXE
 40
0.75
  9
$DIMTP
 40
0.0
  9
$DIMTM
 40
0.0
  9
$DIMTXT
 40
2.5
  9
$DIMCEN
 40
0.09
  9
$DIMTSZ
 40
0.0
  9
$DIMTOL
 70
     0
  9
$DIMLIM
 70
     0
  9
$DIMTIH
 70
     0
  9
$DIMTOH
 70
     0
  9
$DIMSE1
 70
     0
  9
$DIMSE2
 70
     0
  9
$DIMTAD
 70
     1
  9
$DIMZIN
 70
     0
  9
$DIMBLK
  1

  9
$DIMASO
 70
     1
  9
$DIMSHO
 70
     1
  9
$DIMPOST
  1

  9
$DIMAPOST
  1

  9
$DIMALT
 70
     0
  9
$DIMALTD
 70
     2
  9
$DIMALTF
 40
25.4
  9
$DIMLFAC
 40
1.0
  9
$DIMTOFL
 70
     0
  9
$DIMTVP
 40
0.0
  9
$DIMTIX
 70
     0
  9
$DIMSOXD
 70
     0
  9
$DIMSAH
 70
     0
  9
$DIMBLK1
  1

  9
$DIMBLK2
  1

  9
$DIMSTYLE
  2
STANDARD
  9
$DIMCLRD
 70
     7
  9
$DIMCLRE
 70
     7
  9
$DIMCLRT
 70
     7
  9
$DIMTFAC
 40
0.8
  9
$DIMGAP
 40
1.25
  9
$LUNITS
 70
     2
  9
$LUPREC
 70
     4
  9
$SKETCHINC
 40
0.1
  9
$FILLETRAD
 40
0.0
  9
$AUNITS
 70
     0
  9
$AUPREC
 70
     0
  9
$MENU
  1
acad
  9
$ELEVATION
 40
0.0
  9
$PELEVATION
 40
0.0
  9
$THICKNESS
 40
0.0
  9
$LIMCHECK
 70
     0
  9
$CHAMFERA
 40
0.0
  9
$CHAMFERB
 40
0.0
  9
$SKPOLY
 70
     0
  9
$TDCREATE
 40
2455329.702198472
  9
$TDUPDATE
 40
2455380.596770139
  9
$TDINDWG
 40
0.0548491551
  9
$TDUSRTIMER
 40
2455709.506456898
  9
$USRTIMER
 70
     1
  9
$ANGBASE
 50
0.0
  9
$ANGDIR
 70
     0
  9
$PDMODE
 70
     0
  9
$PDSIZE
 40
0.0
  9
$PLINEWID
 40
0.0
  9
$COORDS
 70
     1
  9
$SPLFRAME
 70
     0
  9
$SPLINETYPE
 70
     6
  9
$SPLINESEGS
 70
     8
  9
$ATTDIA
 70
     0
  9
$ATTREQ
 70
     1
  9
$HANDLING
 70
     1
  9
$HANDSEED
  5
8590
  9
$SURFTAB1
 70
     6
  9
$SURFTAB2
 70
     6
  9
$SURFTYPE
 70
     6
  9
$SURFU
 70
     6
  9
$SURFV
 70
     6
  9
$UCSNAME
  2

  9
$UCSORG
 10
0.0
 20
0.0
 30
0.0
  9
$UCSXDIR
 10
1.0
 20
0.0
 30
0.0
  9
$UCSYDIR
 10
0.0
 20
1.0
 30
0.0
  9
$PUCSNAME
  2

  9
$PUCSORG
 10
0.0
 20
0.0
 30
0.0
  9
$PUCSXDIR
 10
1.0
 20
0.0
 30
0.0
  9
$PUCSYDIR
 10
0.0
 20
1.0
 30
0.0
  9
$USERI1
 70
     0
  9
$USERI2
 70
     0
  9
$USERI3
 70
     0
  9
$USERI4
 70
     0
  9
$USERI5
 70
     0
  9
$USERR1
 40
0.0
  9
$USERR2
 40
0.0
  9
$USERR3
 40
0.0
  9
$USERR4
 40
0.0
  9
$USERR5
 40
0.0
  9
$WORLDVIEW
 70
     1
  9
$SHADEDGE
 70
     3
  9
$SHADEDIF
 70
    70
  9
$TILEMODE
 70
     1
  9
$MAXACTVP
 70
    16
  9
$PLIMCHECK
 70
     0
  9
$PEXTMIN
 10
1.000000000000000E+20
 20
1.000000000000000E+20
 30
1.000000000000000E+20
  9
$PEXTMAX
 10
-1.000000000000000E+20
 20
-1.000000000000000E+20
 30
-1.000000000000000E+20
  9
$PLIMMIN
 10
0.0
 20
0.0
  9
$PLIMMAX
 10
12.0
 20
9.0
  9
$UNITMODE
 70
     0
  9
$VISRETAIN
 70
     0
  9
$PLINEGEN
 70
     1
  9
$PSLTSCALE
 70
     0
  0
ENDSEC
  0
SECTION
  2
TABLES
  0
TABLE
  2
VPORT
 70
     1
  0
VPORT
  2
*ACTIVE
 70
     0
 10
0.0
 20
0.0
 11
1.0
 21
1.0
 12
102.3192120387024
 22
-35.88134390120663
 13
0.0
 23
0.0
 14
1.0
 24
1.0
 15
0.0
 25
0.0
 16
0.0
 26
0.0
 36
1.0
 17
0.0
 27
0.0
 37
0.0
 40
215.338654546623
 41
1.626168224299065
 42
50.0
 43
0.0
 44
0.0
 50
0.0
 51
0.0
 71
    16
 72
   100
 73
     1
 74
     1
 75
     0
 76
     1
 77
     0
 78
     0
  0
ENDTAB
  0
TABLE
  2
LTYPE
 70
     4
  0
LTYPE
  2
CONTINUOUS
 70
     0
  3
Solid line
 72
    65
 73
     0
 40
0.0
  0
LTYPE
  2
CENTER
 70
     0
  3
____ _ ____ _ ____ _ ____ _ ____ _ ____ _ ____
 72
    65
 73
     4
 40
2.0
 49
1.25
 49
-0.25
 49
0.25
 49
-0.25
  0
LTYPE
  2
________________0
 70
     0
  3

 72
    65
 73
     4
 40
7.2
 49
2.7
 49
-1.8
 49
0.8999999999999999
 49
-1.8
  0
LTYPE
  2
________________
 70
     0
  3

 72
    65
 73
     0
 40
0.0
  0
ENDTAB
  0
TABLE
  2
LAYER
 70
     2
  0
LAYER
  2
0
 70
     0
 62
     7
  6
CONTINUOUS
  0
LAYER
  2
DEFPOINTS
 70
     0
 62
     7
  6
CONTINUOUS
  0
ENDTAB
  0
TABLE
  2
STYLE
 70
     1
  0
STYLE
  2
STANDARD
 70
     0
 40
0.0
 41
1.0
 50
0.0
 71
     0
 42
0.0
  3
I011000D_0.TTF
  4

  0
ENDTAB
  0
TABLE
  2
VIEW
 70
     0
  0
ENDTAB
  0
TABLE
  2
UCS
 70
     0
  0
ENDTAB
  0
TABLE
  2
APPID
 70
     4
  0
APPID
  2
ACAD
 70
     0
  0
APPID
  2
TOPSOLID_DRAFT
 70
     0
  0
APPID
  2
ACAD_MLEADERVER
 70
     0
  0
APPID
  2
DCO15
 70
     0
  0
ENDTAB
  0
TABLE
  2
DIMSTYLE
 70
     1
  0
DIMSTYLE
  2
STANDARD
 70
     0
  3

  4

  5

  6

  7

 40
1.0
 41
1.25
 42
0.0
 43
0.38
 44
0.75
 45
0.0
 46
0.0
 47
0.0
 48
0.0
140
2.5
141
0.09
142
0.0
143
25.4
144
1.0
145
0.0
146
0.8
147
1.25
 71
     0
 72
     0
 73
     0
 74
     0
 75
     0
 76
     0
 77
     1
 78
     0
170
     0
171
     2
172
     0
173
     0
174
     0
175
     0
176
     7
177
     7
178
     7
  0
ENDTAB
  0
ENDSEC
  0
SECTION
  2
BLOCKS
  0
BLOCK
  8
0
  2
$MODEL_SPACE
 70
     0
 10
0.0
 20
0.0
 30
0.0
  3
$MODEL_SPACE
  1

  0
ENDBLK
  5
E
  8
0
  0
BLOCK
 67
     1
  8
0
  2
$PAPER_SPACE
 70
     0
 10
0.0
 20
0.0
 30
0.0
  3
$PAPER_SPACE
  1

  0
ENDBLK
  5
10
 67
     1
  8
0
  0
BLOCK
  8
0
  2
D_FRAME_VIEW_411
 70
     0
 10
0.0
 20
0.0
 30
0.0
  3
D_FRAME_VIEW_411
  1

  0
LINE
  5
7C6B
  8
0
  6
________________
 62
     7
 10
39.99999999999999
 20
142.8502246779625
 30
0.0
 11
39.99999999999999
 21
141.1000000002348
 31
0.0
  0
LINE
  5
7C6C
  8
0
  6
________________
 62
     7
 10
39.99999999999999
 20
141.1000000002348
 30
0.0
 11
38.24977532225534
 21
141.1000000002179
 31
0.0
  0
ARC
  5
7C6D
  8
0
  6
________________
 62
     7
 10
40.49999999999999
 20
140.6000000002179
 30
0.0
 40
2.305105442345541
 50
167.4724037601814
 51
192.5275962398054
  0
LINE
  5
7C6E
  8
0
  6
________________
 62
     7
 10
38.24977532225287
 20
140.1000000002179
 30
0.0
 11
39.99999999999999
 21
140.1000000002348
 31
0.0
  0
LINE
  5
7C6F
  8
0
  6
________________
 62
     7
 10
39.99999999999999
 20
140.1000000002348
 30
0.0
 11
39.99999999999999
 21
138.3497753224732
 31
0.0
  0
ARC
  5
7C70
  8
0
  6
________________
 62
     7
 10
40.49999999999999
 20
140.6000000002179
 30
0.0
 40
2.305105442345548
 50
257.4724037601814
 51
282.5275962398188
  0
LINE
  5
7C71
  8
0
  6
________________
 62
     7
 10
40.99999999999999
 20
138.3497753224732
 30
0.0
 11
40.99999999999999
 21
140.1000000002348
 31
0.0
  0
LINE
  5
7C72
  8
0
  6
________________
 62
     7
 10
40.99999999999999
 20
140.1000000002348
 30
0.0
 11
42.75022467774465
 21
140.1000000002179
 31
0.0
  0
ARC
  5
7C73
  8
0
  6
________________
 62
     7
 10
40.49999999999999
 20
140.6000000002179
 30
0.0
 40
2.305105442345548
 50
347.4724037601814
 51
12.52759623981876
  0
LINE
  5
7C74
  8
0
  6
________________
 62
     7
 10
42.75022467774463
 20
141.1000000002179
 30
0.0
 11
40.99999999999999
 21
141.100000000235
 31
0.0
  0
LINE
  5
7C75
  8
0
  6
________________
 62
     7
 10
40.99999999999999
 20
141.100000000235
 30
0.0
 11
40.99999999999999
 21
142.8502246779625
 31
0.0
  0
ARC
  5
7C76
  8
0
  6
________________
 62
     7
 10
40.49999999999999
 20
140.6000000002179
 30
0.0
 40
2.305105442345521
 50
77.47240376018132
 51
102.5275962398188
  0
CIRCLE
  5
7C77
  8
0
  6
________________
 62
     7
 10
40.49999999999999
 20
140.6000000001727
 30
0.0
 40
4.200000000000002
  0
ARC
  5
7C78
  8
0
  6
________________
 62
     7
 10
40.49999999999999
 20
140.6000000000382
 30
0.0
 40
0.9368318729904139
 50
237.7432806739904
 51
302.2567193260096
  0
ARC
  5
7C79
  8
0
  6
________________
 62
     7
 10
40.49999999999999
 20
140.6000000000382
 30
0.0
 40
0.9368318729904139
 50
147.7432806739904
 51
212.2567193260096
  0
ARC
  5
7C7A
  8
0
  6
________________
 62
     7
 10
40.49999999999999
 20
140.6000000000382
 30
0.0
 40
0.9368318729904139
 50
327.7432806739903
 51
32.2567193260096
  0
ARC
  5
7C7B
  8
0
  6
________________
 62
     7
 10
40.49999999999999
 20
140.6000000000382
 30
0.0
 40
0.9368318729904139
 50
57.74328067399023
 51
122.2567193260098
  0
LINE
  5
7C7C
  8
0
  6
________________
 62
     7
 10
69.99999999999999
 20
142.8502246779625
 30
0.0
 11
69.99999999999999
 21
141.1000000002348
 31
0.0
  0
LINE
  5
7C7D
  8
0
  6
________________
 62
     7
 10
69.99999999999999
 20
141.1000000002348
 30
0.0
 11
68.24977532225533
 21
141.1000000002179
 31
0.0
  0
ARC
  5
7C7E
  8
0
  6
________________
 62
     7
 10
70.49999999999999
 20
140.6000000002179
 30
0.0
 40
2.305105442345548
 50
167.4724037601814
 51
192.5275962398054
  0
LINE
  5
7C7F
  8
0
  6
________________
 62
     7
 10
68.24977532225287
 20
140.1000000002179
 30
0.0
 11
69.99999999999999
 21
140.1000000002348
 31
0.0
  0
LINE
  5
7C80
  8
0
  6
________________
 62
     7
 10
69.99999999999999
 20
140.1000000002348
 30
0.0
 11
69.99999999999999
 21
138.3497753224732
 31
0.0
  0
ARC
  5
7C81
  8
0
  6
________________
 62
     7
 10
70.49999999999999
 20
140.6000000002179
 30
0.0
 40
2.305105442345548
 50
257.4724037601814
 51
282.5275962398188
  0
LINE
  5
7C82
  8
0
  6
________________
 62
     7
 10
70.99999999999999
 20
138.3497753224732
 30
0.0
 11
70.99999999999999
 21
140.1000000002348
 31
0.0
  0
LINE
  5
7C83
  8
0
  6
________________
 62
     7
 10
70.99999999999999
 20
140.1000000002348
 30
0.0
 11
72.75022467774465
 21
140.1000000002179
 31
0.0
  0
ARC
  5
7C84
  8
0
  6
________________
 62
     7
 10
70.49999999999999
 20
140.6000000002179
 30
0.0
 40
2.305105442345548
 50
347.4724037601814
 51
12.52759623981876
  0
LINE
  5
7C85
  8
0
  6
________________
 62
     7
 10
72.75022467774464
 20
141.1000000002179
 30
0.0
 11
70.99999999999999
 21
141.100000000235
 31
0.0
  0
LINE
  5
7C86
  8
0
  6
________________
 62
     7
 10
70.99999999999999
 20
141.100000000235
 30
0.0
 11
70.99999999999999
 21
142.8502246779625
 31
0.0
  0
ARC
  5
7C87
  8
0
  6
________________
 62
     7
 10
70.49999999999999
 20
140.6000000002179
 30
0.0
 40
2.305105442345521
 50
77.47240376018132
 51
102.5275962398188
  0
CIRCLE
  5
7C88
  8
0
  6
________________
 62
     7
 10
70.49999999999999
 20
140.6000000001727
 30
0.0
 40
4.199999999999996
  0
ARC
  5
7C89
  8
0
  6
________________
 62
     7
 10
70.49999999999999
 20
140.6000000000382
 30
0.0
 40
0.9368318729904139
 50
237.7432806739904
 51
302.2567193260096
  0
ARC
  5
7C8A
  8
0
  6
________________
 62
     7
 10
70.49999999999999
 20
140.6000000000382
 30
0.0
 40
0.9368318729904139
 50
147.7432806739904
 51
212.2567193260095
  0
ARC
  5
7C8B
  8
0
  6
________________
 62
     7
 10
70.49999999999999
 20
140.6000000000382
 30
0.0
 40
0.9368318729904139
 50
327.7432806739905
 51
32.2567193260096
  0
ARC
  5
7C8C
  8
0
  6
________________
 62
     7
 10
70.49999999999999
 20
140.6000000000382
 30
0.0
 40
0.9368318729904139
 50
57.74328067399023
 51
122.2567193260098
  0
LINE
  5
7C8D
  8
0
  6
________________
 62
     7
 10
61.49999999999999
 20
145.5999999999998
 30
0.0
 11
49.49999999999999
 21
145.5999999999998
 31
0.0
  0
LINE
  5
7C8E
  8
0
  6
________________
 62
     7
 10
49.49999999999999
 20
145.5999999999998
 30
0.0
 11
49.49999999999999
 21
140.5999999999998
 31
0.0
  0
ARC
  5
7C8F
  8
0
  6
________________
 62
     7
 10
44.5
 20
140.5999999999998
 30
0.0
 40
4.999999999999977
 50
269.9999999999999
 51
0.0
  0
LINE
  5
7C90
  8
0
  6
________________
 62
     7
 10
44.49999999999999
 20
135.5999999999998
 30
0.0
 11
30.6086335410398
 21
135.5999999999998
 31
0.0
  0
LINE
  5
7C91
  8
0
  6
________________
 62
     7
 10
30.6086335410398
 20
135.5999999999998
 30
0.0
 11
30.49999999999999
 21
135.5999999999998
 31
0.0
  0
LINE
  5
7C92
  8
0
  6
________________
 62
     7
 10
30.5
 20
160.5999999999998
 30
0.0
 11
30.49999999999999
 21
135.5999999999998
 31
0.0
  0
LINE
  5
7C93
  8
0
  6
________________
 62
     7
 10
80.5
 20
160.5999999999998
 30
0.0
 11
30.5
 21
160.5999999999998
 31
0.0
  0
LINE
  5
7C94
  8
0
  6
________________
 62
     7
 10
80.5
 20
160.5999999999998
 30
0.0
 11
80.49999999999999
 21
135.5999999999998
 31
0.0
  0
LINE
  5
7C95
  8
0
  6
________________
 62
     7
 10
80.49999999999999
 20
135.5999999999998
 30
0.0
 11
80.39136645896018
 21
135.5999999999998
 31
0.0
  0
LINE
  5
7C96
  8
0
  6
________________
 62
     7
 10
80.39136645896018
 20
135.5999999999998
 30
0.0
 11
66.5
 21
135.5999999999998
 31
0.0
  0
ARC
  5
7C97
  8
0
  6
________________
 62
     7
 10
66.5
 20
140.5999999999998
 30
0.0
 40
5.000000000000004
 50
180.0
 51
270.0
  0
LINE
  5
7C98
  8
0
  6
________________
 62
     7
 10
61.49999999999999
 20
140.5999999999998
 30
0.0
 11
61.49999999999999
 21
145.5999999999998
 31
0.0
  0
LINE
  5
7C99
  8
0
  6
________________
 62
     7
 10
67.99999999999923
 20
123.9000000000001
 30
0.0
 11
43.00000000000069
 21
123.9000000000001
 31
0.0
  0
LINE
  5
7C9A
  8
0
  6
________________
 62
     7
 10
43.50000000000066
 20
124.4000000000001
 30
0.0
 11
67.49999999999926
 21
124.4000000000001
 31
0.0
  0
LINE
  5
7C9B
  8
0
  6
________________
 62
     7
 10
43.00000000000069
 20
118.9000000000002
 30
0.0
 11
67.99999999999923
 21
118.9000000000002
 31
0.0
  0
LINE
  5
7C9C
  8
0
  6
________________
 62
     7
 10
67.49999999999926
 20
118.4000000000002
 30
0.0
 11
43.50000000000066
 21
118.4000000000002
 31
0.0
  0
LINE
  5
7C9D
  8
0
  6
________________
 62
     7
 10
64.49999999999945
 20
131.8999999999998
 30
0.0
 11
46.50000000000048
 21
131.8999999999998
 31
0.0
  0
LINE
  5
7C9E
  8
0
  6
________________
 62
     7
 10
47.00000000000045
 20
132.3999999999998
 30
0.0
 11
63.99999999999947
 21
132.3999999999998
 31
0.0
  0
CIRCLE
  5
7C9F
  8
0
  6
________________
 62
     7
 10
55.49999999999999
 20
138.8999999999998
 30
0.0
 40
3.42264973081037
  0
CIRCLE
  5
7CA0
  8
0
  6
________________
 62
     7
 10
-55.49999999999999
 20
138.8999999999998
 30
0.0
 40
4.000000000000004
210
0.0
220
0.0
230
-1.0
  0
LINE
  5
7CA1
  8
0
  6
________________
 62
     7
 10
49.74999999999999
 20
142.7794494717702
 30
0.0
 11
49.74999999999999
 21
144.8999999999998
 31
0.0
  0
LINE
  5
7CA2
  8
0
  6
________________
 62
     7
 10
50.25
 20
145.3999999999998
 30
0.0
 11
49.74999999999999
 21
144.8999999999998
 31
0.0
  0
LINE
  5
7CA3
  8
0
  6
________________
 62
     7
 10
60.74999999999999
 20
145.3999999999998
 30
0.0
 11
50.25
 21
145.3999999999998
 31
0.0
  0
LINE
  5
7CA4
  8
0
  6
________________
 62
     7
 10
61.24999999999999
 20
144.8999999999998
 30
0.0
 11
60.74999999999999
 21
145.3999999999998
 31
0.0
  0
LINE
  5
7CA5
  8
0
  6
________________
 62
     7
 10
61.24999999999999
 20
144.8999999999998
 30
0.0
 11
61.24999999999999
 21
142.7794494717702
 31
0.0
  0
ARC
  5
7CA6
  8
0
  6
________________
 62
     7
 10
65.75
 20
140.5999999999998
 30
0.0
 40
5.000000000000013
 50
154.158067236833
 51
270.0
  0
LINE
  5
7CA7
  8
0
  6
________________
 62
     7
 10
65.75
 20
135.5999999999998
 30
0.0
 11
66.49999999999999
 21
135.5999999999998
 31
0.0
  0
LINE
  5
7CA8
  8
0
  6
________________
 62
     7
 10
66.49999999999999
 20
135.5999999999998
 30
0.0
 11
80.39136645896018
 21
135.5999999999998
 31
0.0
  0
ARC
  5
7CA9
  8
0
  6
________________
 62
     7
 10
77.49999999999999
 20
136.3999999999998
 30
0.0
 40
3.000000000000003
 50
270.0
 51
344.5339900465793
  0
LINE
  5
7CAA
  8
0
  6
________________
 62
     7
 10
77.49999999999999
 20
133.3999999999998
 30
0.0
 11
33.49999999999999
 21
133.3999999999998
 31
0.0
  0
ARC
  5
7CAB
  8
0
  6
________________
 62
     7
 10
33.49999999999999
 20
136.3999999999998
 30
0.0
 40
2.999999999999996
 50
195.4660099534206
 51
270.0000000000001
  0
CIRCLE
  5
7CAC
  8
0
  6
________________
 62
     7
 10
-55.49999999999999
 20
138.8999999999998
 30
0.0
 40
4.200000000000002
210
0.0
220
0.0
230
-1.0
  0
LINE
  5
7CAD
  8
0
  6
________________
 62
     7
 10
30.6086335410398
 20
135.5999999999998
 30
0.0
 11
44.5
 21
135.5999999999998
 31
0.0
  0
LINE
  5
7CAE
  8
0
  6
________________
 62
     7
 10
44.5
 20
135.5999999999998
 30
0.0
 11
45.24999999999999
 21
135.5999999999998
 31
0.0
  0
ARC
  5
7CAF
  8
0
  6
________________
 62
     7
 10
45.24999999999999
 20
140.5999999999998
 30
0.0
 40
5.000000000000004
 50
270.0
 51
25.84193276316699
  0
LINE
  5
7CB0
  8
0
  6
________________
 62
     7
 10
50.24999999999999
 20
145.3999999999998
 30
0.0
 11
49.49999999999999
 21
145.3999999999998
 31
0.0
  0
LINE
  5
7CB1
  8
0
  6
________________
 62
     7
 10
61.49999999999999
 20
145.3999999999998
 30
0.0
 11
60.74999999999999
 21
145.3999999999998
 31
0.0
  0
LINE
  5
7CB2
  8
0
  6
________________
 62
     7
 10
67.99999999999974
 20
123.9000000000001
 30
0.0
 11
67.49999999999976
 21
124.4000000000001
 31
0.0
  0
LINE
  5
7CB3
  8
0
  6
________________
 62
     7
 10
43.50000000000018
 20
124.4000000000001
 30
0.0
 11
43.00000000000019
 21
123.9000000000001
 31
0.0
  0
LINE
  5
7CB4
  8
0
  6
________________
 62
     7
 10
67.99999999999974
 20
118.9000000000002
 30
0.0
 11
67.99999999999974
 21
123.9000000000001
 31
0.0
  0
LINE
  5
7CB5
  8
0
  6
________________
 62
     7
 10
43.00000000000019
 20
123.9000000000001
 30
0.0
 11
43.00000000000019
 21
118.9000000000002
 31
0.0
  0
LINE
  5
7CB6
  8
0
  6
________________
 62
     7
 10
43.00000000000019
 20
118.9000000000002
 30
0.0
 11
43.50000000000018
 21
118.4000000000002
 31
0.0
  0
LINE
  5
7CB7
  8
0
  6
________________
 62
     7
 10
67.49999999999976
 20
118.4000000000002
 30
0.0
 11
67.99999999999974
 21
118.9000000000002
 31
0.0
  0
LINE
  5
7CB8
  8
0
  6
________________
 62
     7
 10
64.4999999999998
 20
131.8999999999998
 30
0.0
 11
63.99999999999981
 21
132.3999999999998
 31
0.0
  0
LINE
  5
7CB9
  8
0
  6
________________
 62
     7
 10
47.00000000000011
 20
132.3999999999998
 30
0.0
 11
46.50000000000012
 21
131.8999999999998
 31
0.0
  0
LINE
  5
7CBA
  8
0
  6
________________
 62
     7
 10
64.4999999999998
 20
124.4000000000001
 30
0.0
 11
64.4999999999998
 21
131.8999999999998
 31
0.0
  0
LINE
  5
7CBB
  8
0
  6
________________
 62
     7
 10
46.50000000000012
 20
131.8999999999998
 30
0.0
 11
46.50000000000012
 21
124.4000000000001
 31
0.0
  0
LINE
  5
7CBC
  8
0
  6
________________
 62
     7
 10
62.49999999999999
 20
132.3999999999998
 30
0.0
 11
62.49999999999999
 21
133.3999999999998
 31
0.0
  0
LINE
  5
7CBD
  8
0
  6
________________
 62
     7
 10
48.49999999999999
 20
133.3999999999998
 30
0.0
 11
48.49999999999999
 21
132.3999999999998
 31
0.0
  0
ENDBLK
  5
7CBE
  8
0
  0
BLOCK
  8
0
  2
D_FRAME_VIEW_409
 70
     0
 10
0.0
 20
0.0
 30
0.0
  3
D_FRAME_VIEW_409
  1

  0
LINE
  5
7CCE
  8
0
  6
________________
 62
     7
 10
143.5948945574366
 20
245.5382374704551
 30
0.0
 11
143.6497753220375
 21
245.5382374704586
 31
0.0
  0
LINE
  5
7CCF
  8
0
  6
________________
 62
     7
 10
141.6999999998273
 20
244.8328609147535
 30
0.0
 11
150.0999999998273
 21
244.8328609152913
 31
0.0
  0
LINE
  5
7CD0
  8
0
  6
________________
 62
     7
 10
143.6497753220375
 20
245.5382374704585
 30
0.0
 11
145.3999999997652
 21
245.8033106221583
 31
0.0
  0
LINE
  5
7CD1
  8
0
  6
________________
 62
     7
 10
145.3999999997652
 20
245.8033106221583
 30
0.0
 11
145.3999999997822
 21
245.5382374705707
 31
0.0
  0
LINE
  5
7CD2
  8
0
  6
________________
 62
     7
 10
145.3999999997822
 20
245.5382374705707
 30
0.0
 11
146.3999999997816
 21
245.5382374706347
 31
0.0
  0
LINE
  5
7CD3
  8
0
  6
________________
 62
     7
 10
146.3999999997822
 20
245.5382374706396
 30
0.0
 11
146.3999999997652
 21
245.8033106222224
 31
0.0
  0
LINE
  5
7CD4
  8
0
  6
________________
 62
     7
 10
146.3999999997652
 20
245.8033106222224
 30
0.0
 11
148.1502246775268
 21
245.5382374707468
 31
0.0
  0
LINE
  5
7CD5
  8
0
  6
________________
 62
     7
 10
148.1502246775268
 20
245.5382374707468
 30
0.0
 11
148.2051054421277
 21
245.5382374707503
 31
0.0
  0
LINE
  5
7CD6
  8
0
  6
________________
 62
     7
 10
141.6999999998593
 20
244.3328609147535
 30
0.0
 11
150.0999999998593
 21
244.3328609152913
 31
0.0
  0
LINE
  5
7CD7
  8
0
  6
________________
 62
   253
 10
128.9000000000002
 20
238.1328609150224
 30
0.0
 11
129.9000000000002
 21
238.1328609150224
 31
0.0
  0
LINE
  5
7CD8
  8
0
  6
________________
 62
     7
 10
128.9000000000002
 20
240.1328609150224
 30
0.0
 11
129.9000000000002
 21
240.1328609150224
 31
0.0
  0
LINE
  5
7CD9
  8
0
  6
________________
 62
     7
 10
129.9000000000002
 20
240.1328609150224
 30
0.0
 11
129.9000000000002
 21
238.1328609150224
 31
0.0
  0
LINE
  5
7CDA
  8
0
  6
________________
 62
   253
 10
128.9000000000002
 20
187.1328609150224
 30
0.0
 11
129.9000000000002
 21
187.1328609150224
 31
0.0
  0
LINE
  5
7CDB
  8
0
  6
________________
 62
     7
 10
129.9000000000002
 20
238.1328609150224
 30
0.0
 11
129.9000000000002
 21
187.1328609150224
 31
0.0
  0
LINE
  5
7CDC
  8
0
  6
________________
 62
     7
 10
128.9000000000002
 20
185.1328609150224
 30
0.0
 11
129.9000000000002
 21
185.1328609150224
 31
0.0
  0
LINE
  5
7CDD
  8
0
  6
________________
 62
     7
 10
129.9000000000002
 20
187.1328609150224
 30
0.0
 11
129.9000000000002
 21
185.1328609150224
 31
0.0
  0
LINE
  5
7CDE
  8
0
  6
________________
 62
     7
 10
125.9000000000002
 20
244.1328609150225
 30
0.0
 11
150.9000000000002
 21
244.1328609150225
 31
0.0
  0
LINE
  5
7CDF
  8
0
  6
________________
 62
     7
 10
150.9000000000002
 20
244.1328609150225
 30
0.0
 11
150.9000000000002
 21
241.1328609150224
 31
0.0
  0
LINE
  5
7CE0
  8
0
  6
________________
 62
     7
 10
150.9000000000002
 20
241.1328609150224
 30
0.0
 11
150.1000000000002
 21
241.1328609150224
 31
0.0
  0
LINE
  5
7CE1
  8
0
  6
________________
 62
     7
 10
150.1000000000002
 20
241.1328609150224
 30
0.0
 11
141.1000000000002
 21
241.1328609150224
 31
0.0
  0
LINE
  5
7CE2
  8
0
  6
________________
 62
     7
 10
141.1000000000002
 20
241.1328609150224
 30
0.0
 11
128.9000000000002
 21
241.1328609150224
 31
0.0
  0
LINE
  5
7CE3
  8
0
  6
________________
 62
     7
 10
128.9000000000002
 20
241.1328609150224
 30
0.0
 11
128.9000000000002
 21
187.1328609150224
 31
0.0
  0
LINE
  5
7CE4
  8
0
  6
________________
 62
   253
 10
125.9000000000002
 20
187.1328609150224
 30
0.0
 11
128.9000000000002
 21
187.1328609150224
 31
0.0
  0
LINE
  5
7CE5
  8
0
  6
________________
 62
     7
 10
125.9000000000002
 20
187.1328609150224
 30
0.0
 11
125.9000000000002
 21
244.1328609150225
 31
0.0
  0
LINE
  5
7CE6
  8
0
  6
________________
 62
     7
 10
128.9000000000002
 20
184.1328609150224
 30
0.0
 11
125.9000000000002
 21
184.1328609150225
 31
0.0
  0
LINE
  5
7CE7
  8
0
  6
________________
 62
     7
 10
125.9000000000002
 20
184.1328609150225
 30
0.0
 11
125.9000000000002
 21
187.1328609150224
 31
0.0
  0
LINE
  5
7CE8
  8
0
  6
________________
 62
     7
 10
128.9000000000002
 20
187.1328609150224
 30
0.0
 11
128.9000000000002
 21
184.1328609150224
 31
0.0
  0
LINE
  5
7CE9
  8
0
  6
________________
 62
     7
 10
140.0999999999814
 20
185.1328609150257
 30
0.0
 11
141.0999999999814
 21
185.1328609150252
 31
0.0
  0
LINE
  5
7CEA
  8
0
  6
________________
 62
     7
 10
140.0999999999822
 20
187.1328609150259
 30
0.0
 11
140.0999999999814
 21
185.1328609150257
 31
0.0
  0
LINE
  5
7CEB
  8
0
  6
________________
 62
   253
 10
140.0999999999815
 20
187.1328609150259
 30
0.0
 11
141.0999999999815
 21
187.1328609150255
 31
0.0
  0
LINE
  5
7CEC
  8
0
  6
________________
 62
     7
 10
140.1000000000018
 20
238.1328609150259
 30
0.0
 11
140.0999999999815
 21
187.1328609150259
 31
0.0
  0
LINE
  5
7CED
  8
0
  6
________________
 62
   253
 10
140.1000000000018
 20
238.1328609150259
 30
0.0
 11
141.1000000000018
 21
238.1328609150256
 31
0.0
  0
LINE
  5
7CEE
  8
0
  6
________________
 62
     7
 10
140.1000000000033
 20
240.1328609150257
 30
0.0
 11
141.1000000000033
 21
240.1328609150253
 31
0.0
  0
LINE
  5
7CEF
  8
0
  6
________________
 62
     7
 10
140.1000000000033
 20
240.1328609150257
 30
0.0
 11
140.1000000000025
 21
238.1328609150259
 31
0.0
  0
LINE
  5
7CF0
  8
0
  6
________________
 62
     7
 10
157.8000000000002
 20
202.1328609150319
 30
0.0
 11
160.3927011508361
 21
202.1328609150319
 31
0.0
  0
LINE
  5
7CF1
  8
0
  6
________________
 62
     7
 10
160.3927011508361
 20
202.1328609150319
 30
0.0
 11
160.4000000000002
 21
202.1328609150319
 31
0.0
  0
LINE
  5
7CF2
  8
0
  6
________________
 62
     7
 10
168.0999999999998
 20
223.1328609150218
 30
0.0
 11
168.0999999999998
 21
199.1328609150232
 31
0.0
  0
LINE
  5
7CF3
  8
0
  6
________________
 62
     7
 10
167.5999999999998
 20
198.6328609150232
 30
0.0
 11
167.5999999999998
 21
223.6328609150217
 31
0.0
  0
LINE
  5
7CF4
  8
0
  6
________________
 62
     7
 10
162.5999999999999
 20
223.6328609150217
 30
0.0
 11
162.5999999999999
 21
211.1328609150225
 31
0.0
  0
LINE
  5
7CF5
  8
0
  6
________________
 62
     7
 10
162.5999999999999
 20
211.1328609150225
 30
0.0
 11
162.5999999999999
 21
198.6328609150236
 31
0.0
  0
LINE
  5
7CF6
  8
0
  6
________________
 62
     7
 10
162.1
 20
199.1328609150232
 30
0.0
 11
162.1
 21
211.1328609150225
 31
0.0
  0
LINE
  5
7CF7
  8
0
  6
________________
 62
     7
 10
162.1
 20
211.1328609150225
 30
0.0
 11
162.1
 21
223.1328609150214
 31
0.0
  0
LINE
  5
7CF8
  8
0
  6
________________
 62
     7
 10
154.6000000000002
 20
220.132860915022
 30
0.0
 11
154.6000000000002
 21
211.1328609150225
 31
0.0
  0
ARC
  5
7CF9
  8
0
  6
________________
 62
     7
 10
159.1000000000001
 20
193.4185737894865
 30
0.0
 40
9.000072227837025
 50
75.52260653724534
 51
104.4773934627547
  0
LINE
  5
7CFA
  8
0
  6
________________
 62
     7
 10
154.6000000000002
 20
211.1328609150225
 30
0.0
 11
154.6000000000002
 21
202.1328609150233
 31
0.0
  0
LINE
  5
7CFB
  8
0
  6
________________
 62
     7
 10
154.1000000000002
 20
202.632860915023
 30
0.0
 11
154.1000000000002
 21
211.1328609150225
 31
0.0
  0
LINE
  5
7CFC
  8
0
  6
________________
 62
     7
 10
154.1000000000002
 20
211.1328609150225
 30
0.0
 11
154.1000000000002
 21
219.6328609150217
 31
0.0
  0
LINE
  5
7CFD
  8
0
  6
________________
 62
     7
 10
149.8365611122956
 20
244.9593364062549
 30
0.0
 11
149.9689073756713
 21
244.9593364062549
 31
0.0
  0
LINE
  5
7CFE
  8
0
  6
________________
 62
     7
 10
149.9689073756713
 20
244.9593364062549
 30
0.0
 11
151.0226497308106
 21
244.9593364062549
 31
0.0
  0
LINE
  5
7CFF
  8
0
  6
________________
 62
     7
 10
150.9000000000002
 20
244.1328609150225
 30
0.0
 11
153.1000000000002
 21
244.1328609150225
 31
0.0
  0
LINE
  5
7D00
  8
0
  6
________________
 62
     7
 10
153.1000000000002
 20
244.1328609150225
 30
0.0
 11
153.1000000000002
 21
187.1328609150224
 31
0.0
  0
LINE
  5
7D01
  8
0
  6
________________
 62
   253
 10
150.1000000000002
 20
187.1328609150224
 30
0.0
 11
153.1000000000002
 21
187.1328609150224
 31
0.0
  0
LINE
  5
7D02
  8
0
  6
________________
 62
   253
 10
150.1000000000002
 20
187.1328609150224
 30
0.0
 11
150.1000000000002
 21
241.1328609150224
 31
0.0
  0
LINE
  5
7D03
  8
0
  6
________________
 62
     7
 10
150.1000000000002
 20
241.1328609150224
 30
0.0
 11
150.9000000000002
 21
241.1328609150224
 31
0.0
  0
ARC
  5
7D04
  8
0
  6
________________
 62
     7
 10
150.1000000000002
 20
187.1328609150224
 30
0.0
 40
3.000000000000003
 50
270.0
 51
0.0
  0
LINE
  5
7D05
  8
0
  6
________________
 62
   253
 10
150.1000000000002
 20
187.1328609150224
 30
0.0
 11
150.1000000000002
 21
184.1328609150224
 31
0.0
  0
LINE
  5
7D06
  8
0
  6
________________
 62
     7
 10
141.1000000000002
 20
241.1328609150224
 30
0.0
 11
141.1000000000002
 21
187.1328609150224
 31
0.0
  0
LINE
  5
7D07
  8
0
  6
________________
 62
   253
 10
141.1000000000002
 20
187.1328609150224
 30
0.0
 11
150.1000000000002
 21
187.1328609150224
 31
0.0
  0
LINE
  5
7D08
  8
0
  6
________________
 62
     7
 10
141.1000000000002
 20
241.1328609150224
 30
0.0
 11
150.1000000000002
 21
241.1328609150224
 31
0.0
  0
LINE
  5
7D09
  8
0
  6
________________
 62
     7
 10
150.1000000000002
 20
184.1328609150224
 30
0.0
 11
141.1000000000002
 21
184.1328609150224
 31
0.0
  0
LINE
  5
7D0A
  8
0
  6
________________
 62
     7
 10
141.1000000000002
 20
184.1328609150224
 30
0.0
 11
141.1000000000002
 21
187.1328609150224
 31
0.0
  0
ARC
  5
7D0B
  8
0
  6
________________
 62
     7
 10
145.8571658496672
 20
236.3329574820614
 30
0.0
 40
9.50000000000002
 50
63.47334390354366
 51
75.6909814485892
  0
ARC
  5
7D0C
  8
0
  6
________________
 62
     7
 10
145.9428341510759
 20
236.3329574820668
 30
0.0
 40
9.50000000000001
 50
104.3090185587481
 51
116.5266561037936
  0
LINE
  5
7D0D
  8
0
  6
________________
 62
     7
 10
141.6999999998273
 20
244.8328609147535
 30
0.0
 11
141.6999999998593
 21
244.3328609147535
 31
0.0
  0
LINE
  5
7D0E
  8
0
  6
________________
 62
     7
 10
150.0999999998593
 20
244.3328609152913
 30
0.0
 11
150.0999999998273
 21
244.8328609152914
 31
0.0
  0
LINE
  5
7D0F
  8
0
  6
________________
 62
     7
 10
141.6999999998593
 20
244.3328609147535
 30
0.0
 11
141.899999999616
 21
244.1328609150225
 31
0.0
  0
LINE
  5
7D10
  8
0
  6
________________
 62
     7
 10
149.899999999616
 20
244.1328609150225
 30
0.0
 11
150.0999999998593
 21
244.3328609152913
 31
0.0
  0
LINE
  5
7D11
  8
0
  6
________________
 62
     7
 10
157.5288972270633
 20
202.2780945433909
 30
0.0
 11
157.8000000000002
 21
202.1328609150319
 31
0.0
  0
LINE
  5
7D12
  8
0
  6
________________
 62
     7
 10
160.4000000000002
 20
202.1328609150319
 30
0.0
 11
160.6711089174491
 21
202.2780978350938
 31
0.0
  0
LINE
  5
7D13
  8
0
  6
________________
 62
     7
 10
167.5999999999998
 20
198.6328609150226
 30
0.0
 11
168.0999999999998
 21
199.1328609150226
 31
0.0
  0
LINE
  5
7D14
  8
0
  6
________________
 62
     7
 10
168.0999999999998
 20
223.1328609150223
 30
0.0
 11
167.5999999999998
 21
223.6328609150223
 31
0.0
  0
LINE
  5
7D15
  8
0
  6
________________
 62
     7
 10
167.5999999999998
 20
223.6328609150223
 30
0.0
 11
162.5999999999999
 21
223.6328609150223
 31
0.0
  0
LINE
  5
7D16
  8
0
  6
________________
 62
     7
 10
162.5999999999999
 20
198.6328609150226
 30
0.0
 11
167.5999999999998
 21
198.6328609150226
 31
0.0
  0
LINE
  5
7D17
  8
0
  6
________________
 62
     7
 10
162.5999999999999
 20
223.6328609150223
 30
0.0
 11
162.1
 21
223.1328609150223
 31
0.0
  0
LINE
  5
7D18
  8
0
  6
________________
 62
     7
 10
162.1
 20
199.1328609150226
 30
0.0
 11
162.5999999999999
 21
198.6328609150226
 31
0.0
  0
LINE
  5
7D19
  8
0
  6
________________
 62
     7
 10
162.1
 20
220.1328609150224
 30
0.0
 11
154.6000000000002
 21
220.1328609150224
 31
0.0
  0
LINE
  5
7D1A
  8
0
  6
________________
 62
     7
 10
161.35
 20
202.1328609150226
 30
0.0
 11
162.1
 21
202.1328609150226
 31
0.0
  0
LINE
  5
7D1B
  8
0
  6
________________
 62
     7
 10
154.6000000000002
 20
202.1328609150226
 30
0.0
 11
156.8500000000001
 21
202.1328609150226
 31
0.0
  0
LINE
  5
7D1C
  8
0
  6
________________
 62
     7
 10
156.8500000000001
 20
202.1328609150226
 30
0.0
 11
156.8504109561913
 21
202.1328609150226
 31
0.0
  0
LINE
  5
7D1D
  8
0
  6
________________
 62
     7
 10
154.6000000000002
 20
220.1328609150224
 30
0.0
 11
154.1000000000002
 21
219.6328609150224
 31
0.0
  0
LINE
  5
7D1E
  8
0
  6
________________
 62
     7
 10
154.1000000000002
 20
202.6328609150225
 30
0.0
 11
154.6000000000002
 21
202.1328609150226
 31
0.0
  0
LINE
  5
7D1F
  8
0
  6
________________
 62
     7
 10
151.4998155781523
 20
244.1328609150225
 30
0.0
 11
151.0226497308106
 21
244.9593364062549
 31
0.0
  0
LINE
  5
7D20
  8
0
  6
________________
 62
     7
 10
154.1000000000002
 20
218.1328609150224
 30
0.0
 11
153.1000000000002
 21
218.1328609150224
 31
0.0
  0
LINE
  5
7D21
  8
0
  6
________________
 62
     7
 10
153.1000000000002
 20
204.1328609150224
 30
0.0
 11
154.1000000000002
 21
204.1328609150224
 31
0.0
  0
ENDBLK
  5
7D22
  8
0
  0
BLOCK
  8
0
  2
D_FRAME_VIEW_403
 70
     0
 10
0.0
 20
0.0
 30
0.0
  3
D_FRAME_VIEW_403
  1

  0
LINE
  5
7D26
  8
0
  6
________________
 62
     7
 10
36.3
 20
244.3328609150224
 30
0.0
 11
44.7
 21
244.3328609150224
 31
0.0
  0
LINE
  5
7D27
  8
0
  6
________________
 62
     7
 10
36.3
 20
244.8328609150224
 30
0.0
 11
44.7
 21
244.8328609150224
 31
0.0
  0
LINE
  5
7D28
  8
0
  6
________________
 62
     7
 10
38.19489455765446
 20
245.5382374706027
 30
0.0
 11
38.24977532225523
 21
245.5382374706027
 31
0.0
  0
LINE
  5
7D29
  8
0
  6
________________
 62
     7
 10
38.24977532225287
 20
245.5382374706396
 30
0.0
 11
40.0
 21
245.8033106222224
 31
0.0
  0
LINE
  5
7D2A
  8
0
  6
________________
 62
     7
 10
40.0
 20
245.8033106222224
 30
0.0
 11
40.0
 21
245.5382374707468
 31
0.0
  0
LINE
  5
7D2B
  8
0
  6
________________
 62
     7
 10
40.0
 20
245.5382374706027
 30
0.0
 11
41.00000000000001
 21
245.5382374706027
 31
0.0
  0
LINE
  5
7D2C
  8
0
  6
________________
 62
     7
 10
41.0
 20
245.5382374707467
 30
0.0
 11
41.0
 21
245.8033106222224
 31
0.0
  0
LINE
  5
7D2D
  8
0
  6
________________
 62
     7
 10
41.0
 20
245.8033106222224
 30
0.0
 11
42.75022467774465
 21
245.5382374706347
 31
0.0
  0
LINE
  5
7D2E
  8
0
  6
________________
 62
     7
 10
42.75022467774465
 20
245.5382374706027
 30
0.0
 11
42.80510544234554
 21
245.5382374706027
 31
0.0
  0
LINE
  5
7D2F
  8
0
  6
________________
 62
     7
 10
66.3
 20
244.3328609150224
 30
0.0
 11
74.7
 21
244.3328609150224
 31
0.0
  0
LINE
  5
7D30
  8
0
  6
________________
 62
     7
 10
66.3
 20
244.8328609150224
 30
0.0
 11
74.7
 21
244.8328609150224
 31
0.0
  0
LINE
  5
7D31
  8
0
  6
________________
 62
     7
 10
68.19489455765445
 20
245.5382374706027
 30
0.0
 11
68.24977532225523
 21
245.5382374706027
 31
0.0
  0
LINE
  5
7D32
  8
0
  6
________________
 62
     7
 10
68.24977532225287
 20
245.5382374706396
 30
0.0
 11
69.99999999999999
 21
245.8033106222224
 31
0.0
  0
LINE
  5
7D33
  8
0
  6
________________
 62
     7
 10
69.99999999999999
 20
245.8033106222224
 30
0.0
 11
69.99999999999999
 21
245.5382374707468
 31
0.0
  0
LINE
  5
7D34
  8
0
  6
________________
 62
     7
 10
69.99999999999999
 20
245.5382374706027
 30
0.0
 11
71.0
 21
245.5382374706027
 31
0.0
  0
LINE
  5
7D35
  8
0
  6
________________
 62
     7
 10
70.99999999999999
 20
245.5382374707467
 30
0.0
 11
70.99999999999999
 21
245.8033106222224
 31
0.0
  0
LINE
  5
7D36
  8
0
  6
________________
 62
     7
 10
70.99999999999999
 20
245.8033106222224
 30
0.0
 11
72.75022467774465
 21
245.5382374706347
 31
0.0
  0
LINE
  5
7D37
  8
0
  6
________________
 62
     7
 10
72.75022467774465
 20
245.5382374706027
 30
0.0
 11
72.80510544234554
 21
245.5382374706027
 31
0.0
  0
LINE
  5
7D38
  8
0
  6
________________
 62
     7
 10
80.5
 20
244.1328609150225
 30
0.0
 11
80.39136645896019
 21
244.1328609150225
 31
0.0
  0
LINE
  5
7D39
  8
0
  6
________________
 62
     7
 10
80.5
 20
241.1328609150224
 30
0.0
 11
80.39136645896019
 21
241.1328609150224
 31
0.0
  0
LINE
  5
7D3A
  8
0
  6
________________
 62
     7
 10
80.5
 20
244.1328609150225
 30
0.0
 11
80.5
 21
241.1328609150224
 31
0.0
  0
LINE
  5
7D3B
  8
0
  6
________________
 62
     7
 10
30.5
 20
244.1328609150225
 30
0.0
 11
30.5
 21
241.1328609150224
 31
0.0
  0
LINE
  5
7D3C
  8
0
  6
________________
 62
     7
 10
30.6086335410398
 20
244.1328609150224
 30
0.0
 11
30.5
 21
244.1328609150225
 31
0.0
  0
LINE
  5
7D3D
  8
0
  6
________________
 62
     7
 10
30.6086335410398
 20
241.1328609150224
 30
0.0
 11
30.5
 21
241.1328609150224
 31
0.0
  0
CIRCLE
  5
7D3E
  8
0
  6
________________
 62
     7
 10
55.49999999999996
 20
211.1328609150225
 30
0.0
 40
11.9999999999993
  0
CIRCLE
  5
7D3F
  8
0
  6
________________
 62
     7
 10
-55.49999999999996
 20
211.1328609150225
 30
0.0
 40
12.49999999999928
210
0.0
220
0.0
230
-1.0
  0
LINE
  5
7D40
  8
0
  6
________________
 62
     7
 10
52.07735026918962
 20
244.9593364062549
 30
0.0
 11
53.02961358785561
 21
244.9593364062549
 31
0.0
  0
LINE
  5
7D41
  8
0
  6
________________
 62
     7
 10
53.02961358785561
 20
244.9593364062549
 30
0.0
 11
58.92264973081038
 21
244.9593364062549
 31
0.0
  0
LINE
  5
7D42
  8
0
  6
________________
 62
   253
 10
77.5
 20
187.1328609150224
 30
0.0
 11
77.5
 21
244.1328609150224
 31
0.0
  0
LINE
  5
7D43
  8
0
  6
________________
 62
   253
 10
33.49999999999999
 20
187.1328609150224
 30
0.0
 11
77.49999999999999
 21
187.1328609150224
 31
0.0
  0
LINE
  5
7D44
  8
0
  6
________________
 62
   253
 10
33.5
 20
244.1328609150225
 30
0.0
 11
33.5
 21
187.1328609150225
 31
0.0
  0
LINE
  5
7D45
  8
0
  6
________________
 62
     7
 10
77.5
 20
244.1328609150225
 30
0.0
 11
33.5
 21
244.1328609150225
 31
0.0
  0
LINE
  5
7D46
  8
0
  6
________________
 62
     7
 10
30.6086335410398
 20
241.1328609150224
 30
0.0
 11
30.6086335410398
 21
244.1328609150225
 31
0.0
  0
LINE
  5
7D47
  8
0
  6
________________
 62
     7
 10
30.6086335410398
 20
244.1328609150225
 30
0.0
 11
33.5
 21
244.1328609150225
 31
0.0
  0
LINE
  5
7D48
  8
0
  6
________________
 62
   253
 10
30.5
 20
187.1328609150224
 30
0.0
 11
33.49999999999999
 21
187.1328609150224
 31
0.0
  0
LINE
  5
7D49
  8
0
  6
________________
 62
     7
 10
30.5
 20
187.1328609150224
 30
0.0
 11
30.5
 21
241.1328609150224
 31
0.0
  0
LINE
  5
7D4A
  8
0
  6
________________
 62
     7
 10
30.5
 20
241.1328609150224
 30
0.0
 11
30.6086335410398
 21
241.1328609150224
 31
0.0
  0
LINE
  5
7D4B
  8
0
  6
________________
 62
     7
 10
80.39136645896018
 20
244.1328609150225
 30
0.0
 11
80.39136645896018
 21
241.1328609150224
 31
0.0
  0
LINE
  5
7D4C
  8
0
  6
________________
 62
     7
 10
80.39136645896018
 20
241.1328609150224
 30
0.0
 11
80.49999999999999
 21
241.1328609150224
 31
0.0
  0
LINE
  5
7D4D
  8
0
  6
________________
 62
     7
 10
80.5
 20
241.1328609150224
 30
0.0
 11
80.5
 21
187.1328609150225
 31
0.0
  0
LINE
  5
7D4E
  8
0
  6
________________
 62
   253
 10
80.5
 20
187.1328609150224
 30
0.0
 11
77.49999999999999
 21
187.1328609150224
 31
0.0
  0
LINE
  5
7D4F
  8
0
  6
________________
 62
     7
 10
77.5
 20
244.1328609150225
 30
0.0
 11
80.39136645896019
 21
244.1328609150225
 31
0.0
  0
LINE
  5
7D50
  8
0
  6
________________
 62
     7
 10
77.5
 20
184.1328609150224
 30
0.0
 11
33.49999999999999
 21
184.1328609150224
 31
0.0
  0
LINE
  5
7D51
  8
0
  6
________________
 62
   253
 10
33.49999999999999
 20
184.1328609150224
 30
0.0
 11
33.49999999999999
 21
187.1328609150224
 31
0.0
  0
LINE
  5
7D52
  8
0
  6
________________
 62
   253
 10
77.5
 20
184.1328609150224
 30
0.0
 11
77.49999999999999
 21
187.1328609150224
 31
0.0
  0
ARC
  5
7D53
  8
0
  6
________________
 62
     7
 10
77.5
 20
187.1328609150224
 30
0.0
 40
2.999999999999999
 50
270.0
 51
0.0
  0
ARC
  5
7D54
  8
0
  6
________________
 62
     7
 10
33.49999999999999
 20
187.1328609150224
 30
0.0
 40
2.999999999999999
 50
180.0
 51
270.0
  0
LINE
  5
7D55
  8
0
  6
________________
 62
     7
 10
36.3
 20
244.3328609150224
 30
0.0
 11
36.49999999999999
 21
244.1328609150225
 31
0.0
  0
LINE
  5
7D56
  8
0
  6
________________
 62
     7
 10
44.50000000000001
 20
244.1328609150225
 30
0.0
 11
44.7
 21
244.3328609150224
 31
0.0
  0
LINE
  5
7D57
  8
0
  6
________________
 62
     7
 10
36.3
 20
244.8328609150224
 30
0.0
 11
36.3
 21
244.3328609150224
 31
0.0
  0
LINE
  5
7D58
  8
0
  6
________________
 62
     7
 10
44.7
 20
244.3328609150224
 30
0.0
 11
44.7
 21
244.8328609150224
 31
0.0
  0
ARC
  5
7D59
  8
0
  6
________________
 62
     7
 10
40.45716584929563
 20
236.3329574820641
 30
0.0
 40
9.499999999999998
 50
63.47334389987503
 51
75.69098144492062
  0
ARC
  5
7D5A
  8
0
  6
________________
 62
     7
 10
40.54283415070436
 20
236.3329574820641
 30
0.0
 40
9.499999999999996
 50
104.3090185550794
 51
116.526656100125
  0
LINE
  5
7D5B
  8
0
  6
________________
 62
     7
 10
66.3
 20
244.3328609150224
 30
0.0
 11
66.49999999999997
 21
244.1328609150225
 31
0.0
  0
LINE
  5
7D5C
  8
0
  6
________________
 62
     7
 10
74.50000000000001
 20
244.1328609150225
 30
0.0
 11
74.69999999999999
 21
244.3328609150224
 31
0.0
  0
LINE
  5
7D5D
  8
0
  6
________________
 62
     7
 10
66.3
 20
244.8328609150224
 30
0.0
 11
66.3
 21
244.3328609150224
 31
0.0
  0
LINE
  5
7D5E
  8
0
  6
________________
 62
     7
 10
74.7
 20
244.3328609150224
 30
0.0
 11
74.7
 21
244.8328609150224
 31
0.0
  0
ARC
  5
7D5F
  8
0
  6
________________
 62
     7
 10
70.45716584929563
 20
236.3329574820641
 30
0.0
 40
9.499999999999995
 50
63.47334389987505
 51
75.69098144492051
  0
ARC
  5
7D60
  8
0
  6
________________
 62
     7
 10
70.54283415070437
 20
236.3329574820641
 30
0.0
 40
9.499999999999998
 50
104.3090185550794
 51
116.5266561001249
  0
LINE
  5
7D61
  8
0
  6
________________
 62
     7
 10
59.39981557815205
 20
244.1328609150224
 30
0.0
 11
58.92264973081037
 21
244.9593364062549
 31
0.0
  0
LINE
  5
7D62
  8
0
  6
________________
 62
     7
 10
52.07735026918962
 20
244.9593364062549
 30
0.0
 11
51.60018442184793
 21
244.1328609150225
 31
0.0
  0
ENDBLK
  5
7D63
  8
0
  0
BLOCK
  8
0
  2
D_FRAME_VIEW_415
 70
     0
 10
0.0
 20
0.0
 30
0.0
  3
D_FRAME_VIEW_415
  1

  0
POLYLINE
  5
7D67
  8
0
  6
________________
 62
     7
 66
     1
 10
0.0
 20
0.0
 30
0.0
  0
VERTEX
  5
8388
  8
0
  6
________________
 62
     7
 10
-58.83005891750344
 20
149.528429529583
 30
0.0
  0
VERTEX
  5
8389
  8
0
  6
________________
 62
     7
 10
-59.35908079190801
 20
149.3953595093813
 30
0.0
  0
VERTEX
  5
838A
  8
0
  6
________________
 62
     7
 10
-59.81903467935681
 20
149.2247955689474
 30
0.0
  0
VERTEX
  5
838B
  8
0
  6
________________
 62
     7
 10
-60.19418992853115
 20
149.0225710797293
 30
0.0
  0
VERTEX
  5
838C
  8
0
  6
________________
 62
     7
 10
-60.471716043644
 20
148.7956022196632
 30
0.0
  0
VERTEX
  5
838D
  8
0
  6
________________
 62
     7
 10
-60.6421214937663
 20
148.5516514364539
 30
0.0
  0
VERTEX
  5
838E
  8
0
  6
________________
 62
     7
 10
-60.69957832789725
 20
148.2990619680089
 30
0.0
  0
SEQEND
  5
838F
  8
0
  6
________________
 62
     7
  0
LINE
  5
7D68
  8
0
  6
________________
 62
     7
 10
-56.89228434922752
 20
149.5445585450905
 30
0.0
 11
-57.518463766075
 21
149.2268672516205
 31
0.0
  0
LINE
  5
7D69
  8
0
  6
________________
 62
     7
 10
-57.518463766075
 20
149.2268672516205
 30
0.0
 11
-58.77082259978818
 21
149.2889218687183
 31
0.0
  0
POLYLINE
  5
7D6A
  8
0
  6
________________
 62
     7
 66
     1
 10
0.0
 20
0.0
 30
0.0
  0
VERTEX
  5
8390
  8
0
  6
________________
 62
     7
 10
-58.77082259978818
 20
149.2889218687183
 30
0.0
  0
VERTEX
  5
8391
  8
0
  6
________________
 62
     7
 10
-58.98897751648558
 20
149.1508783688057
 30
0.0
  0
VERTEX
  5
8392
  8
0
  6
________________
 62
     7
 10
-59.12859347618804
 20
148.9968031714291
 30
0.0
  0
SEQEND
  5
8393
  8
0
  6
________________
 62
     7
  0
LINE
  5
7D6B
  8
0
  6
________________
 62
     7
 10
-59.12859347618991
 20
148.9968031714329
 30
0.0
 11
-57.87623464247497
 21
148.9347485543312
 31
0.0
  0
LINE
  5
7D6C
  8
0
  6
________________
 62
     7
 10
-57.87623464247497
 20
148.9347485543312
 30
0.0
 11
-58.5024140593346
 21
148.2298931421484
 31
0.0
  0
POLYLINE
  5
7D6D
  8
0
  6
________________
 62
     7
 66
     1
 10
0.0
 20
0.0
 30
0.0
  0
VERTEX
  5
8394
  8
0
  6
________________
 62
     7
 10
-58.50241405933461
 20
148.2298931421484
 30
0.0
  0
VERTEX
  5
8395
  8
0
  6
________________
 62
     7
 10
-58.16427792218341
 20
148.1408317703529
 30
0.0
  0
VERTEX
  5
8396
  8
0
  6
________________
 62
     7
 10
-57.78687230653468
 20
148.0838337934804
 30
0.0
  0
SEQEND
  5
8397
  8
0
  6
________________
 62
     7
  0
LINE
  5
7D6E
  8
0
  6
________________
 62
     7
 10
-57.78687230653465
 20
148.0838337934804
 30
0.0
 11
-57.16069288967503
 21
148.7886892056632
 31
0.0
  0
LINE
  5
7D6F
  8
0
  6
________________
 62
     7
 10
-57.16069288967503
 20
148.7886892056632
 30
0.0
 11
-55.908334055974
 21
148.3394704698526
 31
0.0
  0
POLYLINE
  5
7D70
  8
0
  6
________________
 62
     7
 66
     1
 10
0.0
 20
0.0
 30
0.0
  0
VERTEX
  5
8398
  8
0
  6
________________
 62
     7
 10
-55.90833405597402
 20
148.3394704698526
 30
0.0
  0
VERTEX
  5
8399
  8
0
  6
________________
 62
     7
 10
-55.69017913927652
 20
148.4775139697653
 30
0.0
  0
VERTEX
  5
839A
  8
0
  6
________________
 62
     7
 10
-55.55056317957405
 20
148.631589167142
 30
0.0
  0
SEQEND
  5
839B
  8
0
  6
________________
 62
     7
  0
LINE
  5
7D71
  8
0
  6
________________
 62
     7
 10
-55.55056317957405
 20
148.631589167142
 30
0.0
 11
-56.802922013275
 21
149.0808079029516
 31
0.0
  0
LINE
  5
7D72
  8
0
  6
________________
 62
     7
 10
-56.802922013275
 20
149.0808079029516
 30
0.0
 11
-56.17674259642759
 21
149.3984991964225
 31
0.0
  0
POLYLINE
  5
7D73
  8
0
  6
________________
 62
     7
 66
     1
 10
0.0
 20
0.0
 30
0.0
  0
VERTEX
  5
839C
  8
0
  6
________________
 62
     7
 10
-56.17674259642757
 20
149.3984991964225
 30
0.0
  0
VERTEX
  5
839D
  8
0
  6
________________
 62
     7
 10
-56.51487873357878
 20
149.487560568218
 30
0.0
  0
VERTEX
  5
839E
  8
0
  6
________________
 62
     7
 10
-56.8922843492275
 20
149.5445585450906
 30
0.0
  0
SEQEND
  5
839F
  8
0
  6
________________
 62
     7
  0
POLYLINE
  5
7D74
  8
0
  6
________________
 62
     7
 66
     1
 10
0.0
 20
0.0
 30
0.0
  0
VERTEX
  5
83A0
  8
0
  6
________________
 62
     7
 10
-54.33430296613754
 20
147.6856127034977
 30
0.0
  0
VERTEX
  5
83A1
  8
0
  6
________________
 62
     7
 10
-54.06946172329063
 20
147.9839066113869
 30
0.0
  0
VERTEX
  5
83A2
  8
0
  6
________________
 62
     7
 10
-53.97957832789726
 20
148.2990619677981
 30
0.0
  0
SEQEND
  5
83A3
  8
0
  6
________________
 62
     7
  0
POLYLINE
  5
7D75
  8
0
  6
________________
 62
     7
 66
     1
 10
0.0
 20
0.0
 30
0.0
  0
VERTEX
  5
83A4
  8
0
  6
________________
 62
     7
 10
-60.6995783279087
 20
147.9339135963294
 30
0.0
  0
VERTEX
  5
83A5
  8
0
  6
________________
 62
     7
 10
-60.60969493255982
 20
147.6187582399553
 30
0.0
  0
VERTEX
  5
83A6
  8
0
  6
________________
 62
     7
 10
-60.34485368980312
 20
147.3204643320853
 30
0.0
  0
SEQEND
  5
83A7
  8
0
  6
________________
 62
     7
  0
POLYLINE
  5
7D76
  8
0
  6
________________
 62
     7
 66
     1
 10
0.0
 20
0.0
 30
0.0
  0
VERTEX
  5
83A8
  8
0
  6
________________
 62
     7
 10
-60.69957832789724
 20
148.2990619680089
 30
0.0
  0
VERTEX
  5
83A9
  8
0
  6
________________
 62
     7
 10
-60.63829646807307
 20
148.0382751356373
 30
0.0
  0
VERTEX
  5
83AA
  8
0
  6
________________
 62
     7
 10
-60.45668628521754
 20
147.7870011021354
 30
0.0
  0
VERTEX
  5
83AB
  8
0
  6
________________
 62
     7
 10
-60.1613724280032
 20
147.5544056651821
 30
0.0
  0
VERTEX
  5
83AC
  8
0
  6
________________
 62
     7
 10
-59.7631271478612
 20
147.3489732777328
 30
0.0
  0
VERTEX
  5
83AD
  8
0
  6
________________
 62
     7
 10
-59.27647735636094
 20
147.1781975581045
 30
0.0
  0
VERTEX
  5
83AE
  8
0
  6
________________
 62
     7
 10
-58.71917472273464
 20
147.0483079430311
 30
0.0
  0
VERTEX
  5
83AF
  8
0
  6
________________
 62
     7
 10
-58.11154814095736
 20
146.9640424546465
 30
0.0
  0
VERTEX
  5
83B0
  8
0
  6
________________
 62
     7
 10
-57.47576218663321
 20
146.9284748702409
 30
0.0
  0
VERTEX
  5
83B1
  8
0
  6
________________
 62
     7
 10
-56.83500861317663
 20
146.9429025991729
 30
0.0
  0
VERTEX
  5
83B2
  8
0
  6
________________
 62
     7
 10
-56.21266037932312
 20
147.0067993568815
 30
0.0
  0
VERTEX
  5
83B3
  8
0
  6
________________
 62
     7
 10
-55.63141906675953
 20
147.1178343623254
 30
0.0
  0
VERTEX
  5
83B4
  8
0
  6
________________
 62
     7
 10
-55.11248678777475
 20
147.271957358576
 30
0.0
  0
VERTEX
  5
83B5
  8
0
  6
________________
 62
     7
 10
-54.67479278950163
 20
147.4635463552443
 30
0.0
  0
VERTEX
  5
83B6
  8
0
  6
________________
 62
     7
 10
-54.33430296613757
 20
147.6856127034977
 30
0.0
  0
SEQEND
  5
83B7
  8
0
  6
________________
 62
     7
  0
POLYLINE
  5
7D77
  8
0
  6
________________
 62
     7
 66
     1
 10
0.0
 20
0.0
 30
0.0
  0
VERTEX
  5
83B8
  8
0
  6
________________
 62
     7
 10
-53.97957832789726
 20
148.2990619677981
 30
0.0
  0
VERTEX
  5
83B9
  8
0
  6
________________
 62
     7
 10
-54.03698368876642
 20
148.5515392438528
 30
0.0
  0
VERTEX
  5
83BA
  8
0
  6
________________
 62
     7
 10
-54.20723823837967
 20
148.7953894073248
 30
0.0
  0
VERTEX
  5
83BB
  8
0
  6
________________
 62
     7
 10
-54.48452440300991
 20
149.0222801328364
 30
0.0
  0
VERTEX
  5
83BC
  8
0
  6
________________
 62
     7
 10
-54.85936735387926
 20
149.2244585965917
 30
0.0
  0
VERTEX
  5
83BD
  8
0
  6
________________
 62
     7
 10
-55.31895876070983
 20
149.395016389261
 30
0.0
  0
VERTEX
  5
83BE
  8
0
  6
________________
 62
     7
 10
-55.84759445054618
 20
149.5281255753453
 30
0.0
  0
SEQEND
  5
83BF
  8
0
  6
________________
 62
     7
  0
POLYLINE
  5
7D78
  8
0
  6
________________
 62
     7
 66
     1
 10
0.0
 20
0.0
 30
0.0
  0
VERTEX
  5
83C0
  8
0
  6
________________
 62
     7
 10
-54.33430296614899
 20
147.3204643318182
 30
0.0
  0
VERTEX
  5
83C1
  8
0
  6
________________
 62
     7
 10
-54.06946172330208
 20
147.6187582397074
 30
0.0
  0
VERTEX
  5
83C2
  8
0
  6
________________
 62
     7
 10
-53.9795783279087
 20
147.9339135961186
 30
0.0
  0
SEQEND
  5
83C3
  8
0
  6
________________
 62
     7
  0
POLYLINE
  5
7D79
  8
0
  6
________________
 62
     7
 66
     1
 10
0.0
 20
0.0
 30
0.0
  0
VERTEX
  5
83C4
  8
0
  6
________________
 62
     7
 10
-60.34485368980313
 20
147.3204643320854
 30
0.0
  0
VERTEX
  5
83C5
  8
0
  6
________________
 62
     7
 10
-59.98372782903503
 20
147.0875415923263
 30
0.0
  0
VERTEX
  5
83C6
  8
0
  6
________________
 62
     7
 10
-59.51581812942148
 20
146.8887995415295
 30
0.0
  0
VERTEX
  5
83C7
  8
0
  6
________________
 62
     7
 10
-58.96002109962679
 20
146.7322643669869
 30
0.0
  0
VERTEX
  5
83C8
  8
0
  6
________________
 62
     7
 10
-58.33878257353255
 20
146.6242577335078
 30
0.0
  0
VERTEX
  5
83C9
  8
0
  6
________________
 62
     7
 10
-57.67719123641422
 20
146.5691414833175
 30
0.0
  0
VERTEX
  5
83CA
  8
0
  6
________________
 62
     7
 10
-57.00196541970288
 20
146.5691414832875
 30
0.0
  0
VERTEX
  5
83CB
  8
0
  6
________________
 62
     7
 10
-56.34037408257245
 20
146.624257733419
 30
0.0
  0
VERTEX
  5
83CC
  8
0
  6
________________
 62
     7
 10
-55.71913555645449
 20
146.7322643668429
 30
0.0
  0
VERTEX
  5
83CD
  8
0
  6
________________
 62
     7
 10
-55.16333852662543
 20
146.8887995413361
 30
0.0
  0
VERTEX
  5
83CE
  8
0
  6
________________
 62
     7
 10
-54.69542882696824
 20
147.0875415920913
 30
0.0
  0
VERTEX
  5
83CF
  8
0
  6
________________
 62
     7
 10
-54.33430296614899
 20
147.3204643318182
 30
0.0
  0
SEQEND
  5
83D0
  8
0
  6
________________
 62
     7
  0
LINE
  5
7D7A
  8
0
  6
________________
 62
     7
 10
-57.87623464247497
 20
148.9347485543312
 30
0.0
 11
-57.87623464250134
 21
148.0939361348452
 31
0.0
  0
LINE
  5
7D7B
  8
0
  6
________________
 62
     7
 10
-56.802922013275
 20
149.0808079029516
 30
0.0
 11
-56.80292201328749
 21
148.6849240970728
 31
0.0
  0
LINE
  5
7D7C
  8
0
  6
________________
 62
     7
 10
-58.77082259978818
 20
149.2889218687183
 30
0.0
 11
-58.64261113242811
 21
149.0013761980364
 31
0.0
  0
LINE
  5
7D7D
  8
0
  6
________________
 62
     7
 10
-56.89228434922752
 20
149.5445585450905
 30
0.0
 11
-57.05330031172429
 21
148.7590764697501
 31
0.0
  0
LINE
  5
7D7E
  8
0
  6
________________
 62
     7
 10
-57.518463766075
 20
149.2268672516205
 30
0.0
 11
-57.51846376610045
 21
148.4154684283315
 31
0.0
  0
POLYLINE
  5
7D7F
  8
0
  6
________________
 62
     7
 66
     1
 10
0.0
 20
0.0
 30
0.0
  0
VERTEX
  5
83D1
  8
0
  6
________________
 62
     7
 10
-37.36380633350548
 20
145.1466490695417
 30
0.0
  0
VERTEX
  5
83D2
  8
0
  6
________________
 62
     7
 10
-37.89282820791004
 20
145.01357904934
 30
0.0
  0
VERTEX
  5
83D3
  8
0
  6
________________
 62
     7
 10
-38.35278209535883
 20
144.843015108906
 30
0.0
  0
VERTEX
  5
83D4
  8
0
  6
________________
 62
     7
 10
-38.72793734453317
 20
144.6407906196879
 30
0.0
  0
VERTEX
  5
83D5
  8
0
  6
________________
 62
     7
 10
-39.00546345964602
 20
144.4138217596219
 30
0.0
  0
VERTEX
  5
83D6
  8
0
  6
________________
 62
     7
 10
-39.17586890976832
 20
144.1698709764125
 30
0.0
  0
VERTEX
  5
83D7
  8
0
  6
________________
 62
     7
 10
-39.23332574389926
 20
143.9172815079675
 30
0.0
  0
SEQEND
  5
83D8
  8
0
  6
________________
 62
     7
  0
LINE
  5
7D80
  8
0
  6
________________
 62
     7
 10
-35.42603176522955
 20
145.1627780850492
 30
0.0
 11
-36.05221118207702
 21
144.8450867915792
 31
0.0
  0
LINE
  5
7D81
  8
0
  6
________________
 62
     7
 10
-36.05221118207702
 20
144.8450867915792
 30
0.0
 11
-37.3045700157902
 21
144.9071414086769
 31
0.0
  0
POLYLINE
  5
7D82
  8
0
  6
________________
 62
     7
 66
     1
 10
0.0
 20
0.0
 30
0.0
  0
VERTEX
  5
83D9
  8
0
  6
________________
 62
     7
 10
-37.30457001579021
 20
144.9071414086769
 30
0.0
  0
VERTEX
  5
83DA
  8
0
  6
________________
 62
     7
 10
-37.52272493248761
 20
144.7690979087644
 30
0.0
  0
VERTEX
  5
83DB
  8
0
  6
________________
 62
     7
 10
-37.66234089219007
 20
144.6150227113878
 30
0.0
  0
SEQEND
  5
83DC
  8
0
  6
________________
 62
     7
  0
LINE
  5
7D83
  8
0
  6
________________
 62
     7
 10
-37.66234089219193
 20
144.6150227113916
 30
0.0
 11
-36.40998205847698
 21
144.5529680942899
 31
0.0
  0
LINE
  5
7D84
  8
0
  6
________________
 62
     7
 10
-36.40998205847698
 20
144.5529680942899
 30
0.0
 11
-37.03616147533661
 21
143.8481126821071
 31
0.0
  0
POLYLINE
  5
7D85
  8
0
  6
________________
 62
     7
 66
     1
 10
0.0
 20
0.0
 30
0.0
  0
VERTEX
  5
83DD
  8
0
  6
________________
 62
     7
 10
-37.03616147533661
 20
143.8481126821071
 30
0.0
  0
VERTEX
  5
83DE
  8
0
  6
________________
 62
     7
 10
-36.6980253381854
 20
143.7590513103116
 30
0.0
  0
VERTEX
  5
83DF
  8
0
  6
________________
 62
     7
 10
-36.32061972253668
 20
143.7020533334391
 30
0.0
  0
SEQEND
  5
83E0
  8
0
  6
________________
 62
     7
  0
LINE
  5
7D86
  8
0
  6
________________
 62
     7
 10
-36.32061972253668
 20
143.702053333439
 30
0.0
 11
-35.69444030567706
 21
144.4069087456218
 31
0.0
  0
LINE
  5
7D87
  8
0
  6
________________
 62
     7
 10
-35.69444030567706
 20
144.4069087456218
 30
0.0
 11
-34.44208147197601
 21
143.9576900098113
 31
0.0
  0
POLYLINE
  5
7D88
  8
0
  6
________________
 62
     7
 66
     1
 10
0.0
 20
0.0
 30
0.0
  0
VERTEX
  5
83E1
  8
0
  6
________________
 62
     7
 10
-34.44208147197606
 20
143.9576900098113
 30
0.0
  0
VERTEX
  5
83E2
  8
0
  6
________________
 62
     7
 10
-34.22392655527855
 20
144.095733509724
 30
0.0
  0
VERTEX
  5
83E3
  8
0
  6
________________
 62
     7
 10
-34.08431059557608
 20
144.2498087071006
 30
0.0
  0
SEQEND
  5
83E4
  8
0
  6
________________
 62
     7
  0
LINE
  5
7D89
  8
0
  6
________________
 62
     7
 10
-34.08431059557606
 20
144.2498087071006
 30
0.0
 11
-35.33666942927702
 21
144.6990274429102
 31
0.0
  0
LINE
  5
7D8A
  8
0
  6
________________
 62
     7
 10
-35.33666942927702
 20
144.6990274429102
 30
0.0
 11
-34.71049001242961
 21
145.0167187363812
 31
0.0
  0
POLYLINE
  5
7D8B
  8
0
  6
________________
 62
     7
 66
     1
 10
0.0
 20
0.0
 30
0.0
  0
VERTEX
  5
83E5
  8
0
  6
________________
 62
     7
 10
-34.71049001242957
 20
145.0167187363812
 30
0.0
  0
VERTEX
  5
83E6
  8
0
  6
________________
 62
     7
 10
-35.04862614958078
 20
145.1057801081766
 30
0.0
  0
VERTEX
  5
83E7
  8
0
  6
________________
 62
     7
 10
-35.42603176522952
 20
145.1627780850492
 30
0.0
  0
SEQEND
  5
83E8
  8
0
  6
________________
 62
     7
  0
POLYLINE
  5
7D8C
  8
0
  6
________________
 62
     7
 66
     1
 10
0.0
 20
0.0
 30
0.0
  0
VERTEX
  5
83E9
  8
0
  6
________________
 62
     7
 10
-32.86805038213956
 20
143.3038322434564
 30
0.0
  0
VERTEX
  5
83EA
  8
0
  6
________________
 62
     7
 10
-32.60320913929264
 20
143.6021261513455
 30
0.0
  0
VERTEX
  5
83EB
  8
0
  6
________________
 62
     7
 10
-32.51332574389928
 20
143.9172815077568
 30
0.0
  0
SEQEND
  5
83EC
  8
0
  6
________________
 62
     7
  0
POLYLINE
  5
7D8D
  8
0
  6
________________
 62
     7
 66
     1
 10
0.0
 20
0.0
 30
0.0
  0
VERTEX
  5
83ED
  8
0
  6
________________
 62
     7
 10
-39.23332574391072
 20
143.5521331362881
 30
0.0
  0
VERTEX
  5
83EE
  8
0
  6
________________
 62
     7
 10
-39.14344234856183
 20
143.236977779914
 30
0.0
  0
VERTEX
  5
83EF
  8
0
  6
________________
 62
     7
 10
-38.87860110580512
 20
142.938683872044
 30
0.0
  0
SEQEND
  5
83F0
  8
0
  6
________________
 62
     7
  0
POLYLINE
  5
7D8E
  8
0
  6
________________
 62
     7
 66
     1
 10
0.0
 20
0.0
 30
0.0
  0
VERTEX
  5
83F1
  8
0
  6
________________
 62
     7
 10
-39.23332574389926
 20
143.9172815079675
 30
0.0
  0
VERTEX
  5
83F2
  8
0
  6
________________
 62
     7
 10
-39.17204388407509
 20
143.656494675596
 30
0.0
  0
VERTEX
  5
83F3
  8
0
  6
________________
 62
     7
 10
-38.99043370121956
 20
143.4052206420941
 30
0.0
  0
VERTEX
  5
83F4
  8
0
  6
________________
 62
     7
 10
-38.6951198440052
 20
143.1726252051408
 30
0.0
  0
VERTEX
  5
83F5
  8
0
  6
________________
 62
     7
 10
-38.2968745638632
 20
142.9671928176914
 30
0.0
  0
VERTEX
  5
83F6
  8
0
  6
________________
 62
     7
 10
-37.81022477236293
 20
142.7964170980631
 30
0.0
  0
VERTEX
  5
83F7
  8
0
  6
________________
 62
     7
 10
-37.25292213873663
 20
142.6665274829898
 30
0.0
  0
VERTEX
  5
83F8
  8
0
  6
________________
 62
     7
 10
-36.64529555695935
 20
142.5822619946051
 30
0.0
  0
VERTEX
  5
83F9
  8
0
  6
________________
 62
     7
 10
-36.00950960263519
 20
142.5466944101996
 30
0.0
  0
VERTEX
  5
83FA
  8
0
  6
________________
 62
     7
 10
-35.36875602917861
 20
142.5611221391315
 30
0.0
  0
VERTEX
  5
83FB
  8
0
  6
________________
 62
     7
 10
-34.74640779532509
 20
142.6250188968402
 30
0.0
  0
VERTEX
  5
83FC
  8
0
  6
________________
 62
     7
 10
-34.16516648276151
 20
142.7360539022841
 30
0.0
  0
VERTEX
  5
83FD
  8
0
  6
________________
 62
     7
 10
-33.64623420377671
 20
142.8901768985346
 30
0.0
  0
VERTEX
  5
83FE
  8
0
  6
________________
 62
     7
 10
-33.2085402055036
 20
143.081765895203
 30
0.0
  0
VERTEX
  5
83FF
  8
0
  6
________________
 62
     7
 10
-32.86805038213956
 20
143.3038322434564
 30
0.0
  0
SEQEND
  5
8400
  8
0
  6
________________
 62
     7
  0
POLYLINE
  5
7D8F
  8
0
  6
________________
 62
     7
 66
     1
 10
0.0
 20
0.0
 30
0.0
  0
VERTEX
  5
8401
  8
0
  6
________________
 62
     7
 10
-32.51332574389928
 20
143.9172815077567
 30
0.0
  0
VERTEX
  5
8402
  8
0
  6
________________
 62
     7
 10
-32.57073110476844
 20
144.1697587838115
 30
0.0
  0
VERTEX
  5
8403
  8
0
  6
________________
 62
     7
 10
-32.7409856543817
 20
144.4136089472834
 30
0.0
  0
VERTEX
  5
8404
  8
0
  6
________________
 62
     7
 10
-33.01827181901194
 20
144.6404996727951
 30
0.0
  0
VERTEX
  5
8405
  8
0
  6
________________
 62
     7
 10
-33.3931147698813
 20
144.8426781365503
 30
0.0
  0
VERTEX
  5
8406
  8
0
  6
________________
 62
     7
 10
-33.85270617671188
 20
145.0132359292197
 30
0.0
  0
VERTEX
  5
8407
  8
0
  6
________________
 62
     7
 10
-34.38134186654823
 20
145.146345115304
 30
0.0
  0
SEQEND
  5
8408
  8
0
  6
________________
 62
     7
  0
POLYLINE
  5
7D90
  8
0
  6
________________
 62
     7
 66
     1
 10
0.0
 20
0.0
 30
0.0
  0
VERTEX
  5
8409
  8
0
  6
________________
 62
     7
 10
-32.868050382151
 20
142.9386838717769
 30
0.0
  0
VERTEX
  5
840A
  8
0
  6
________________
 62
     7
 10
-32.60320913930408
 20
143.2369777796661
 30
0.0
  0
VERTEX
  5
840B
  8
0
  6
________________
 62
     7
 10
-32.51332574391072
 20
143.5521331360773
 30
0.0
  0
SEQEND
  5
840C
  8
0
  6
________________
 62
     7
  0
POLYLINE
  5
7D91
  8
0
  6
________________
 62
     7
 66
     1
 10
0.0
 20
0.0
 30
0.0
  0
VERTEX
  5
840D
  8
0
  6
________________
 62
     7
 10
-38.87860110580512
 20
142.938683872044
 30
0.0
  0
VERTEX
  5
840E
  8
0
  6
________________
 62
     7
 10
-38.51747524503702
 20
142.705761132285
 30
0.0
  0
VERTEX
  5
840F
  8
0
  6
________________
 62
     7
 10
-38.04956554542346
 20
142.5070190814882
 30
0.0
  0
VERTEX
  5
8410
  8
0
  6
________________
 62
     7
 10
-37.49376851562877
 20
142.3504839069456
 30
0.0
  0
VERTEX
  5
8411
  8
0
  6
________________
 62
     7
 10
-36.87252998953453
 20
142.2424772734665
 30
0.0
  0
VERTEX
  5
8412
  8
0
  6
________________
 62
     7
 10
-36.21093865241621
 20
142.1873610232762
 30
0.0
  0
VERTEX
  5
8413
  8
0
  6
________________
 62
     7
 10
-35.53571283570487
 20
142.1873610232462
 30
0.0
  0
VERTEX
  5
8414
  8
0
  6
________________
 62
     7
 10
-34.87412149857445
 20
142.2424772733777
 30
0.0
  0
VERTEX
  5
8415
  8
0
  6
________________
 62
     7
 10
-34.25288297245649
 20
142.3504839068015
 30
0.0
  0
VERTEX
  5
8416
  8
0
  6
________________
 62
     7
 10
-33.69708594262743
 20
142.5070190812948
 30
0.0
  0
VERTEX
  5
8417
  8
0
  6
________________
 62
     7
 10
-33.22917624297025
 20
142.70576113205
 30
0.0
  0
VERTEX
  5
8418
  8
0
  6
________________
 62
     7
 10
-32.868050382151
 20
142.9386838717769
 30
0.0
  0
SEQEND
  5
8419
  8
0
  6
________________
 62
     7
  0
LINE
  5
7D92
  8
0
  6
________________
 62
     7
 10
-36.40998205847698
 20
144.5529680942899
 30
0.0
 11
-36.40998205850336
 21
143.7121556748038
 31
0.0
  0
LINE
  5
7D93
  8
0
  6
________________
 62
     7
 10
-35.33666942927702
 20
144.6990274429102
 30
0.0
 11
-35.33666942928951
 21
144.3031436370314
 31
0.0
  0
LINE
  5
7D94
  8
0
  6
________________
 62
     7
 10
-37.3045700157902
 20
144.9071414086769
 30
0.0
 11
-37.17635854843012
 21
144.619595737995
 31
0.0
  0
LINE
  5
7D95
  8
0
  6
________________
 62
     7
 10
-35.42603176522955
 20
145.1627780850492
 30
0.0
 11
-35.58704772772631
 21
144.3772960097087
 31
0.0
  0
LINE
  5
7D96
  8
0
  6
________________
 62
     7
 10
-36.05221118207702
 20
144.8450867915792
 30
0.0
 11
-36.05221118210248
 21
144.0336879682901
 31
0.0
  0
POLYLINE
  5
7D97
  8
0
  6
________________
 62
     7
 66
     1
 10
0.0
 20
0.0
 30
0.0
  0
VERTEX
  5
841A
  8
0
  6
________________
 62
     7
 10
-23.3513450699623
 20
142.6757770441332
 30
0.0
  0
VERTEX
  5
841B
  8
0
  6
________________
 62
     7
 10
-23.37884293824195
 20
142.9663376766427
 30
0.0
  0
VERTEX
  5
841C
  8
0
  6
________________
 62
     7
 10
-23.46027981542393
 20
143.2569581847096
 30
0.0
  0
VERTEX
  5
841D
  8
0
  6
________________
 62
     7
 10
-23.59252612798846
 20
143.536470185191
 30
0.0
  0
VERTEX
  5
841E
  8
0
  6
________________
 62
     7
 10
-23.77049972430827
 20
143.7941321886603
 30
0.0
  0
SEQEND
  5
841F
  8
0
  6
________________
 62
     7
  0
LINE
  5
7D98
  8
0
  6
________________
 62
   253
 10
-23.35134506996229
 20
142.6757770441332
 30
0.0
 11
-23.70911594636226
 21
142.3836583467972
 31
0.0
  0
POLYLINE
  5
7D99
  8
0
  6
________________
 62
     7
 66
     1
 10
0.0
 20
0.0
 30
0.0
  0
VERTEX
  5
8420
  8
0
  6
________________
 62
     7
 10
-23.70911594636226
 20
142.3836583467971
 30
0.0
  0
VERTEX
  5
8421
  8
0
  6
________________
 62
     7
 10
-23.73661381464192
 20
142.6742189793066
 30
0.0
  0
VERTEX
  5
8422
  8
0
  6
________________
 62
     7
 10
-23.8180506918239
 20
142.9648394873736
 30
0.0
  0
VERTEX
  5
8423
  8
0
  6
________________
 62
     7
 10
-23.95029700438843
 20
143.2443514878549
 30
0.0
  0
VERTEX
  5
8424
  8
0
  6
________________
 62
     7
 10
-24.12827060070823
 20
143.5020134913242
 30
0.0
  0
SEQEND
  5
8425
  8
0
  6
________________
 62
     7
  0
LINE
  5
7D9A
  8
0
  6
________________
 62
     7
 10
-23.70911594636225
 20
105.1385244364459
 30
0.0
 11
-23.70911594636226
 21
142.3836583467972
 31
0.0
  0
POLYLINE
  5
7D9B
  8
0
  6
________________
 62
     7
 66
     1
 10
0.0
 20
0.0
 30
0.0
  0
VERTEX
  5
8426
  8
0
  6
________________
 62
     7
 10
-25.14019945196213
 20
103.9700496471015
 30
0.0
  0
VERTEX
  5
8427
  8
0
  6
________________
 62
     7
 10
-24.86100891002268
 20
103.9411250106627
 30
0.0
  0
VERTEX
  5
8428
  8
0
  6
________________
 62
     7
 10
-24.59254750403811
 20
103.969441720364
 30
0.0
  0
VERTEX
  5
8429
  8
0
  6
________________
 62
     7
 10
-24.3451320552855
 20
104.0539115809318
 30
0.0
  0
VERTEX
  5
842A
  8
0
  6
________________
 62
     7
 10
-24.12827060070824
 20
104.1912884629956
 30
0.0
  0
SEQEND
  5
842B
  8
0
  6
________________
 62
     7
  0
LINE
  5
7D9C
  8
0
  6
________________
 62
     7
 10
-27.00060800924195
 20
104.3498039536384
 30
0.0
 11
-25.14019945196213
 21
103.9700496471015
 31
0.0
  0
LINE
  5
7D9D
  8
0
  6
________________
 62
   253
 10
-23.35134506996229
 20
105.430643133782
 30
0.0
 11
-23.70911594636225
 21
105.1385244364459
 31
0.0
  0
LINE
  5
7D9E
  8
0
  6
________________
 62
     7
 10
-23.35134506996229
 20
105.430643133782
 30
0.0
 11
-23.35134506996229
 21
142.6757770441332
 31
0.0
  0
POLYLINE
  5
7D9F
  8
0
  6
________________
 62
     7
 66
     1
 10
0.0
 20
0.0
 30
0.0
  0
VERTEX
  5
842C
  8
0
  6
________________
 62
     7
 10
-23.77049972430826
 20
104.4834071603317
 30
0.0
  0
VERTEX
  5
842D
  8
0
  6
________________
 62
     7
 10
-23.59252612798846
 20
104.6684117473557
 30
0.0
  0
VERTEX
  5
842E
  8
0
  6
________________
 62
     7
 10
-23.46027981542392
 20
104.8939344168124
 30
0.0
  0
VERTEX
  5
842F
  8
0
  6
________________
 62
     7
 10
-23.37884293824194
 20
105.1513084589891
 30
0.0
  0
VERTEX
  5
8430
  8
0
  6
________________
 62
     7
 10
-23.35134506996228
 20
105.430643133782
 30
0.0
  0
SEQEND
  5
8431
  8
0
  6
________________
 62
     7
  0
POLYLINE
  5
7DA0
  8
0
  6
________________
 62
     7
 66
     1
 10
0.0
 20
0.0
 30
0.0
  0
VERTEX
  5
8432
  8
0
  6
________________
 62
     7
 10
-24.12827060070824
 20
104.1912884629956
 30
0.0
  0
VERTEX
  5
8433
  8
0
  6
________________
 62
     7
 10
-23.95029700438844
 20
104.3762930500196
 30
0.0
  0
VERTEX
  5
8434
  8
0
  6
________________
 62
     7
 10
-23.81805069182391
 20
104.6018157194763
 30
0.0
  0
VERTEX
  5
8435
  8
0
  6
________________
 62
     7
 10
-23.73661381464192
 20
104.859189761653
 30
0.0
  0
VERTEX
  5
8436
  8
0
  6
________________
 62
     7
 10
-23.70911594636226
 20
105.1385244364459
 30
0.0
  0
SEQEND
  5
8437
  8
0
  6
________________
 62
     7
  0
LINE
  5
7DA1
  8
0
  6
________________
 62
     7
 10
-30.50676259796163
 20
138.2939965840919
 30
0.0
 11
-30.22054589684165
 21
138.5276915419608
 31
0.0
  0
LINE
  5
7DA2
  8
0
  6
________________
 62
     7
 10
-30.22054589684165
 20
138.5276915419608
 30
0.0
 11
-27.00060800924195
 21
141.1567598179856
 31
0.0
  0
LINE
  5
7DA3
  8
0
  6
________________
 62
     7
 10
-27.00060800924195
 20
141.1567598179856
 30
0.0
 11
-22.63580331716236
 21
144.7206079254859
 31
0.0
  0
LINE
  5
7DA4
  8
0
  6
________________
 62
     7
 10
-30.50676259796163
 20
140.4848868141126
 30
0.0
 11
-30.50676259796163
 21
138.2939965840919
 31
0.0
  0
LINE
  5
7DA5
  8
0
  6
________________
 62
     7
 10
-21.56249068796246
 20
147.7878542475148
 30
0.0
 11
-30.50676259796163
 21
140.4848868141126
 31
0.0
  0
LINE
  5
7DA6
  8
0
  6
________________
 62
     7
 10
-21.56249068796246
 20
106.1609398771222
 30
0.0
 11
-21.56249068796246
 21
147.7878542475148
 31
0.0
  0
LINE
  5
7DA7
  8
0
  6
________________
 62
   253
 10
-22.63580331716236
 20
105.2845837851139
 30
0.0
 11
-21.56249068796246
 21
106.1609398771222
 31
0.0
  0
LINE
  5
7DA8
  8
0
  6
________________
 62
     7
 10
-22.63580331716236
 20
144.7206079254859
 30
0.0
 11
-22.63580331716236
 21
105.2845837851139
 31
0.0
  0
LINE
  5
7DA9
  8
0
  6
________________
 62
     7
 10
-30.50676259796163
 20
138.2939965840919
 30
0.0
 11
-30.58449443233011
 21
138.3098635283397
 31
0.0
  0
LINE
  5
7DAA
  8
0
  6
________________
 62
     7
 10
-30.50676259796163
 20
140.4848868141126
 30
0.0
 11
-30.58449443233011
 21
140.5007537583604
 31
0.0
  0
LINE
  5
7DAB
  8
0
  6
________________
 62
     7
 10
-30.58449443233011
 20
140.5007537583604
 30
0.0
 11
-40.52434713716069
 21
142.5297176954653
 31
0.0
  0
LINE
  5
7DAC
  8
0
  6
________________
 62
     7
 10
-40.52434713716069
 20
146.1812014121663
 30
0.0
 11
-49.11084817075987
 21
147.9339135961829
 31
0.0
  0
LINE
  5
7DAD
  8
0
  6
________________
 62
     7
 10
-49.11084817075987
 20
147.9339135961829
 30
0.0
 11
-50.89970255275971
 21
146.4733201095024
 31
0.0
  0
POLYLINE
  5
7DAE
  8
0
  6
________________
 62
     7
 66
     1
 10
0.0
 20
0.0
 30
0.0
  0
VERTEX
  5
8438
  8
0
  6
________________
 62
     7
 10
-56.2662656987592
 20
145.7430233661622
 30
0.0
  0
VERTEX
  5
8439
  8
0
  6
________________
 62
     7
 10
-55.533917008561
 20
145.6286144336281
 30
0.0
  0
VERTEX
  5
843A
  8
0
  6
________________
 62
     7
 10
-54.76096739712209
 20
145.5747319607928
 30
0.0
  0
VERTEX
  5
843B
  8
0
  6
________________
 62
     7
 10
-53.97712088453493
 20
145.5834466208699
 30
0.0
  0
VERTEX
  5
843C
  8
0
  6
________________
 62
     7
 10
-53.21250025269204
 20
145.6544235143597
 30
0.0
  0
VERTEX
  5
843D
  8
0
  6
________________
 62
     7
 10
-52.49648944367096
 20
145.7849350390498
 30
0.0
  0
VERTEX
  5
843E
  8
0
  6
________________
 62
     7
 10
-51.85660435131888
 20
145.969965710238
 30
0.0
  0
VERTEX
  5
843F
  8
0
  6
________________
 62
     7
 10
-51.3174354008832
 20
146.202404902997
 30
0.0
  0
VERTEX
  5
8440
  8
0
  6
________________
 62
     7
 10
-50.89970255275973
 20
146.4733201095024
 30
0.0
  0
SEQEND
  5
8441
  8
0
  6
________________
 62
     7
  0
LINE
  5
7DAF
  8
0
  6
________________
 62
     7
 10
-56.26626569875921
 20
145.7430233661622
 30
0.0
 11
-66.20611840358978
 21
147.7719873032671
 31
0.0
  0
LINE
  5
7DB0
  8
0
  6
________________
 62
     7
 10
-66.20611840358978
 20
147.7719873032671
 30
0.0
 11
-66.28385023795826
 21
147.7878542475148
 31
0.0
  0
LINE
  5
7DB1
  8
0
  6
________________
 62
     7
 10
-57.3395783279591
 20
155.090821680917
 30
0.0
 11
-66.28385023795826
 21
147.7878542475148
 31
0.0
  0
LINE
  5
7DB2
  8
0
  6
________________
 62
     7
 10
-21.56249068796246
 20
147.7878542475148
 30
0.0
 11
-57.3395783279591
 21
155.090821680917
 31
0.0
  0
POLYLINE
  5
7DB3
  8
0
  6
________________
 62
     7
 66
     1
 10
0.0
 20
0.0
 30
0.0
  0
VERTEX
  5
8442
  8
0
  6
________________
 62
     7
 10
-42.31320151916049
 20
144.7206079254859
 30
0.0
  0
VERTEX
  5
8443
  8
0
  6
________________
 62
     7
 10
-42.62848871303176
 20
144.3654961303158
 30
0.0
  0
VERTEX
  5
8444
  8
0
  6
________________
 62
     7
 10
-42.73549275516085
 20
143.9903111821457
 30
0.0
  0
SEQEND
  5
8445
  8
0
  6
________________
 62
     7
  0
LINE
  5
7DB4
  8
0
  6
________________
 62
     7
 10
-42.31320151916052
 20
144.7206079254859
 30
0.0
 11
-40.52434713716069
 21
146.1812014121663
 31
0.0
  0
POLYLINE
  5
7DB5
  8
0
  6
________________
 62
     7
 66
     1
 10
0.0
 20
0.0
 30
0.0
  0
VERTEX
  5
8446
  8
0
  6
________________
 62
     7
 10
-33.01115873276138
 20
142.8218363928013
 30
0.0
  0
VERTEX
  5
8447
  8
0
  6
________________
 62
     7
 10
-33.35508812400172
 20
142.60000521208
 30
0.0
  0
VERTEX
  5
8448
  8
0
  6
________________
 62
     7
 10
-33.80071640936587
 20
142.4107270684731
 30
0.0
  0
VERTEX
  5
8449
  8
0
  6
________________
 62
     7
 10
-34.33004691393618
 20
142.2616459498769
 30
0.0
  0
VERTEX
  5
844A
  8
0
  6
________________
 62
     7
 10
-34.92170265306508
 20
142.1587824894418
 30
0.0
  0
VERTEX
  5
844B
  8
0
  6
________________
 62
     7
 10
-35.55178964077822
 20
142.1062908226194
 30
0.0
  0
VERTEX
  5
844C
  8
0
  6
________________
 62
     7
 10
-36.19486184714403
 20
142.1062908226194
 30
0.0
  0
VERTEX
  5
844D
  8
0
  6
________________
 62
     7
 10
-36.82494883485716
 20
142.1587824894418
 30
0.0
  0
VERTEX
  5
844E
  8
0
  6
________________
 62
     7
 10
-37.41660457398606
 20
142.2616459498769
 30
0.0
  0
VERTEX
  5
844F
  8
0
  6
________________
 62
     7
 10
-37.94593507855637
 20
142.4107270684731
 30
0.0
  0
VERTEX
  5
8450
  8
0
  6
________________
 62
     7
 10
-38.39156336392053
 20
142.60000521208
 30
0.0
  0
VERTEX
  5
8451
  8
0
  6
________________
 62
     7
 10
-38.73549275516086
 20
142.8218363928013
 30
0.0
  0
SEQEND
  5
8452
  8
0
  6
________________
 62
     7
  0
POLYLINE
  5
7DB6
  8
0
  6
________________
 62
     7
 66
     1
 10
0.0
 20
0.0
 30
0.0
  0
VERTEX
  5
8453
  8
0
  6
________________
 62
     7
 10
-42.73549275516085
 20
143.9903111821457
 30
0.0
  0
VERTEX
  5
8454
  8
0
  6
________________
 62
     7
 10
-42.66758696937138
 20
143.6906905635371
 30
0.0
  0
VERTEX
  5
8455
  8
0
  6
________________
 62
     7
 10
-42.46617520987478
 20
143.4012429317013
 30
0.0
  0
VERTEX
  5
8456
  8
0
  6
________________
 62
     7
 10
-42.13809598856901
 20
143.1317958710805
 30
0.0
  0
VERTEX
  5
8457
  8
0
  6
________________
 62
     7
 10
-41.69448854411605
 20
142.8914978888647
 30
0.0
  0
VERTEX
  5
8458
  8
0
  6
________________
 62
     7
 10
-41.1504146325647
 20
142.6885077967071
 30
0.0
  0
VERTEX
  5
8459
  8
0
  6
________________
 62
     7
 10
-40.5243471371607
 20
142.5297176954652
 30
0.0
  0
SEQEND
  5
845A
  8
0
  6
________________
 62
     7
  0
LINE
  5
7DB7
  8
0
  6
________________
 62
   253
 10
-50.89970255275971
 20
146.4733201095024
 30
0.0
 11
-50.89970255275971
 21
146.0332550463594
 31
0.0
  0
LINE
  5
7DB8
  8
0
  6
________________
 62
     7
 10
-66.28385023795826
 20
147.7878542475148
 30
0.0
 11
-66.28385023795826
 21
145.5969640174942
 31
0.0
  0
LINE
  5
7DB9
  8
0
  6
________________
 62
     7
 10
-66.25100827843849
 20
145.5902601805794
 30
0.0
 11
-66.28385023795826
 21
145.5969640174942
 31
0.0
  0
POLYLINE
  5
7DBA
  8
0
  6
________________
 62
     7
 66
     1
 10
0.0
 20
0.0
 30
0.0
  0
VERTEX
  5
845B
  8
0
  6
________________
 62
     7
 10
-54.47741131675935
 20
147.2036168528427
 30
0.0
  0
VERTEX
  5
845C
  8
0
  6
________________
 62
     7
 10
-54.82134070799969
 20
146.9817856721214
 30
0.0
  0
VERTEX
  5
845D
  8
0
  6
________________
 62
     7
 10
-55.26696899336384
 20
146.7925075285145
 30
0.0
  0
VERTEX
  5
845E
  8
0
  6
________________
 62
     7
 10
-55.79629949793416
 20
146.6434264099182
 30
0.0
  0
VERTEX
  5
845F
  8
0
  6
________________
 62
     7
 10
-56.38795523706306
 20
146.5405629494832
 30
0.0
  0
VERTEX
  5
8460
  8
0
  6
________________
 62
     7
 10
-57.0180422247762
 20
146.4880712826607
 30
0.0
  0
VERTEX
  5
8461
  8
0
  6
________________
 62
     7
 10
-57.66111443114201
 20
146.4880712826607
 30
0.0
  0
VERTEX
  5
8462
  8
0
  6
________________
 62
     7
 10
-58.29120141885515
 20
146.5405629494832
 30
0.0
  0
VERTEX
  5
8463
  8
0
  6
________________
 62
     7
 10
-58.88285715798405
 20
146.6434264099182
 30
0.0
  0
VERTEX
  5
8464
  8
0
  6
________________
 62
     7
 10
-59.41218766255436
 20
146.7925075285145
 30
0.0
  0
VERTEX
  5
8465
  8
0
  6
________________
 62
     7
 10
-59.85781594791852
 20
146.9817856721214
 30
0.0
  0
VERTEX
  5
8466
  8
0
  6
________________
 62
     7
 10
-60.20174533915885
 20
147.2036168528427
 30
0.0
  0
SEQEND
  5
8467
  8
0
  6
________________
 62
     7
  0
LINE
  5
7DBB
  8
0
  6
________________
 62
     7
 10
-49.11084817075987
 20
147.9339135961829
 30
0.0
 11
-49.11084817075987
 21
147.7026529607918
 31
0.0
  0
POLYLINE
  5
7DBC
  8
0
  6
________________
 62
     7
 66
     1
 10
0.0
 20
0.0
 30
0.0
  0
VERTEX
  5
8468
  8
0
  6
________________
 62
     7
 10
-24.78242857556215
 20
103.5318716010974
 30
0.0
  0
VERTEX
  5
8469
  8
0
  6
________________
 62
     7
 10
-24.36364276265298
 20
103.4884846464392
 30
0.0
  0
VERTEX
  5
846A
  8
0
  6
________________
 62
     7
 10
-23.96095065367612
 20
103.5309597109911
 30
0.0
  0
VERTEX
  5
846B
  8
0
  6
________________
 62
     7
 10
-23.58982748054721
 20
103.6576645018428
 30
0.0
  0
VERTEX
  5
846C
  8
0
  6
________________
 62
     7
 10
-23.26453529868132
 20
103.8637298249385
 30
0.0
  0
SEQEND
  5
846D
  8
0
  6
________________
 62
     7
  0
LINE
  5
7DBD
  8
0
  6
________________
 62
     7
 10
-24.78242857556215
 20
103.5318716010974
 30
0.0
 11
-27.00060800924195
 21
103.9846555819683
 31
0.0
  0
POLYLINE
  5
7DBE
  8
0
  6
________________
 62
     7
 66
     1
 10
0.0
 20
0.0
 30
0.0
  0
VERTEX
  5
846E
  8
0
  6
________________
 62
     7
 10
-23.26453529868132
 20
103.8637298249385
 30
0.0
  0
VERTEX
  5
846F
  8
0
  6
________________
 62
     7
 10
-22.99757490420161
 20
104.1412367054746
 30
0.0
  0
VERTEX
  5
8470
  8
0
  6
________________
 62
     7
 10
-22.79920543535481
 20
104.4795207096596
 30
0.0
  0
VERTEX
  5
8471
  8
0
  6
________________
 62
     7
 10
-22.67705011958184
 20
104.8655817729246
 30
0.0
  0
VERTEX
  5
8472
  8
0
  6
________________
 62
     7
 10
-22.63580331716235
 20
105.284583785114
 30
0.0
  0
SEQEND
  5
8473
  8
0
  6
________________
 62
     7
  0
POLYLINE
  5
7DBF
  8
0
  6
________________
 62
     7
 66
     1
 10
0.0
 20
0.0
 30
0.0
  0
VERTEX
  5
8474
  8
0
  6
________________
 62
     7
 10
-21.56249068796245
 20
106.1609398771222
 30
0.0
  0
VERTEX
  5
8475
  8
0
  6
________________
 62
     7
 10
-21.60373749038194
 20
105.7419378649329
 30
0.0
  0
VERTEX
  5
8476
  8
0
  6
________________
 62
     7
 10
-21.72589280615492
 20
105.3558768016679
 30
0.0
  0
VERTEX
  5
8477
  8
0
  6
________________
 62
     7
 10
-21.92426227500171
 20
105.0175927974828
 30
0.0
  0
VERTEX
  5
8478
  8
0
  6
________________
 62
     7
 10
-22.19122266948142
 20
104.7400859169468
 30
0.0
  0
SEQEND
  5
8479
  8
0
  6
________________
 62
     7
  0
POLYLINE
  5
7DC0
  8
0
  6
________________
 62
     7
 66
     1
 10
0.0
 20
0.0
 30
0.0
 70
     1
  0
VERTEX
  5
847A
  8
0
  6
________________
 62
     7
 10
-48.47739238451594
 20
107.5760083816876
 30
0.0
  0
VERTEX
  5
847B
  8
0
  6
________________
 62
     7
 10
-47.40955080659721
 20
108.6860359038318
 30
0.0
  0
VERTEX
  5
847C
  8
0
  6
________________
 62
     7
 10
-46.61607293121014
 20
110.0391719205718
 30
0.0
  0
VERTEX
  5
847D
  8
0
  6
________________
 62
     7
 10
-46.12745166811832
 20
111.5834161736319
 30
0.0
  0
VERTEX
  5
847E
  8
0
  6
________________
 62
     7
 10
-45.96246445844042
 20
113.259424222389
 30
0.0
  0
VERTEX
  5
847F
  8
0
  6
________________
 62
     7
 10
-46.12745166811846
 20
115.0027880174455
 30
0.0
  0
VERTEX
  5
8480
  8
0
  6
________________
 62
     7
 10
-46.61607293121043
 20
116.7465110658472
 30
0.0
  0
VERTEX
  5
8481
  8
0
  6
________________
 62
     7
 10
-47.40955080659764
 20
118.423583068735
 30
0.0
  0
VERTEX
  5
8482
  8
0
  6
________________
 62
     7
 10
-48.47739238451648
 20
119.9695550895509
 30
0.0
  0
VERTEX
  5
8483
  8
0
  6
________________
 62
     7
 10
-49.77856111198
 20
121.3250162905259
 30
0.0
  0
VERTEX
  5
8484
  8
0
  6
________________
 62
     7
 10
-51.2630538044956
 20
122.437877057858
 30
0.0
  0
VERTEX
  5
8485
  8
0
  6
________________
 62
     7
 10
-52.87382224040299
 20
123.2653707763582
 30
0.0
  0
VERTEX
  5
8486
  8
0
  6
________________
 62
     7
 10
-54.54896549203961
 20
123.7756973264882
 30
0.0
  0
VERTEX
  5
8487
  8
0
  6
________________
 62
     7
 10
-56.22410874367622
 20
123.949245145121
 30
0.0
  0
VERTEX
  5
8488
  8
0
  6
________________
 62
     7
 10
-57.83487717958358
 20
123.7793448869134
 30
0.0
  0
VERTEX
  5
8489
  8
0
  6
________________
 62
     7
 10
-59.31936987209911
 20
123.272525723507
 30
0.0
  0
VERTEX
  5
848A
  8
0
  6
________________
 62
     7
 10
-60.62053859956254
 20
122.4482644311241
 30
0.0
  0
VERTEX
  5
848B
  8
0
  6
________________
 62
     7
 10
-61.68838017748126
 20
121.3382369089799
 30
0.0
  0
VERTEX
  5
848C
  8
0
  6
________________
 62
     7
 10
-62.48185805286835
 20
119.9851008922398
 30
0.0
  0
VERTEX
  5
848D
  8
0
  6
________________
 62
     7
 10
-62.97047931596016
 20
118.4408566391798
 30
0.0
  0
VERTEX
  5
848E
  8
0
  6
________________
 62
     7
 10
-63.13546652563805
 20
116.7648485904227
 30
0.0
  0
VERTEX
  5
848F
  8
0
  6
________________
 62
     7
 10
-62.97047931596001
 20
115.0214847953661
 30
0.0
  0
VERTEX
  5
8490
  8
0
  6
________________
 62
     7
 10
-62.48185805286805
 20
113.2777617469644
 30
0.0
  0
VERTEX
  5
8491
  8
0
  6
________________
 62
     7
 10
-61.68838017748084
 20
111.6006897440766
 30
0.0
  0
VERTEX
  5
8492
  8
0
  6
________________
 62
     7
 10
-60.62053859956198
 20
110.0547177232608
 30
0.0
  0
VERTEX
  5
8493
  8
0
  6
________________
 62
     7
 10
-59.31936987209846
 20
108.6992565222857
 30
0.0
  0
VERTEX
  5
8494
  8
0
  6
________________
 62
     7
 10
-57.83487717958286
 20
107.5863957549536
 30
0.0
  0
VERTEX
  5
8495
  8
0
  6
________________
 62
     7
 10
-56.22410874367546
 20
106.7589020364535
 30
0.0
  0
VERTEX
  5
8496
  8
0
  6
________________
 62
     7
 10
-54.54896549203883
 20
106.2485754863235
 30
0.0
  0
VERTEX
  5
8497
  8
0
  6
________________
 62
     7
 10
-52.87382224040223
 20
106.0750276676906
 30
0.0
  0
VERTEX
  5
8498
  8
0
  6
________________
 62
     7
 10
-51.26305380449487
 20
106.2449279258983
 30
0.0
  0
VERTEX
  5
8499
  8
0
  6
________________
 62
     7
 10
-49.77856111197935
 20
106.7517470893047
 30
0.0
  0
SEQEND
  5
849A
  8
0
  6
________________
 62
     7
  0
POLYLINE
  5
7DC1
  8
0
  6
________________
 62
     7
 66
     1
 10
0.0
 20
0.0
 30
0.0
  0
VERTEX
  5
849B
  8
0
  6
________________
 62
     7
 10
-45.42580814384024
 20
113.3324538967233
 30
0.0
  0
VERTEX
  5
849C
  8
0
  6
________________
 62
     7
 10
-45.59766982058807
 20
111.586612179268
 30
0.0
  0
VERTEX
  5
849D
  8
0
  6
________________
 62
     7
 10
-46.10665030297542
 20
109.9780244156637
 30
0.0
  0
VERTEX
  5
849E
  8
0
  6
________________
 62
     7
 10
-46.93318975650368
 20
108.5685077315594
 30
0.0
  0
VERTEX
  5
849F
  8
0
  6
________________
 62
     7
 10
-48.04552473350241
 20
107.4122290626591
 30
0.0
  0
SEQEND
  5
84A0
  8
0
  6
________________
 62
     7
  0
POLYLINE
  5
7DC2
  8
0
  6
________________
 62
     7
 66
     1
 10
0.0
 20
0.0
 30
0.0
  0
VERTEX
  5
84A1
  8
0
  6
________________
 62
     7
 10
-46.25667035150272
 20
108.8728225493394
 30
0.0
  0
VERTEX
  5
84A2
  8
0
  6
________________
 62
     7
 10
-45.14433537450397
 20
110.0291012182397
 30
0.0
  0
VERTEX
  5
84A3
  8
0
  6
________________
 62
     7
 10
-44.31779592097568
 20
111.438617902344
 30
0.0
  0
VERTEX
  5
84A4
  8
0
  6
________________
 62
     7
 10
-43.80881543858831
 20
113.0472056659483
 30
0.0
  0
VERTEX
  5
84A5
  8
0
  6
________________
 62
     7
 10
-43.63695376184045
 20
114.7930473834036
 30
0.0
  0
VERTEX
  5
84A6
  8
0
  6
________________
 62
     7
 10
-43.80881543858837
 20
116.6090513365876
 30
0.0
  0
VERTEX
  5
84A7
  8
0
  6
________________
 62
     7
 10
-44.31779592097578
 20
118.425429512006
 30
0.0
  0
VERTEX
  5
84A8
  8
0
  6
________________
 62
     7
 10
-45.14433537450411
 20
120.1723795150142
 30
0.0
  0
VERTEX
  5
84A9
  8
0
  6
________________
 62
     7
 10
-46.2566703515029
 20
121.7827670366974
 30
0.0
  0
VERTEX
  5
84AA
  8
0
  6
________________
 62
     7
 10
-47.61205444261074
 20
123.194705787713
 30
0.0
  0
VERTEX
  5
84AB
  8
0
  6
________________
 62
     7
 10
-49.15840099731451
 20
124.3539357536839
 30
0.0
  0
VERTEX
  5
84AC
  8
0
  6
________________
 62
     7
 10
-50.83628478471808
 20
125.2159083771215
 30
0.0
  0
VERTEX
  5
84AD
  8
0
  6
________________
 62
     7
 10
-52.58122567183962
 20
125.7474985335069
 30
0.0
  0
VERTEX
  5
84AE
  8
0
  6
________________
 62
     7
 10
-54.32616655896113
 20
125.9282775112494
 30
0.0
  0
VERTEX
  5
84AF
  8
0
  6
________________
 62
     7
 10
-56.0040503463647
 20
125.7512980756164
 30
0.0
  0
VERTEX
  5
84B0
  8
0
  6
________________
 62
     7
 10
-57.55039690106844
 20
125.223361447068
 30
0.0
  0
VERTEX
  5
84B1
  8
0
  6
________________
 62
     7
 10
-58.90578099217625
 20
124.3647559341691
 30
0.0
  0
SEQEND
  5
84B2
  8
0
  6
________________
 62
     7
  0
POLYLINE
  5
7DC3
  8
0
  6
________________
 62
     7
 66
     1
 10
0.0
 20
0.0
 30
0.0
  0
VERTEX
  5
84B3
  8
0
  6
________________
 62
     7
 10
-60.69463537417603
 20
122.9041624474887
 30
0.0
  0
VERTEX
  5
84B4
  8
0
  6
________________
 62
     7
 10
-59.33925128306822
 20
123.7627679603876
 30
0.0
  0
VERTEX
  5
84B5
  8
0
  6
________________
 62
     7
 10
-57.79290472836448
 20
124.290704588936
 30
0.0
  0
VERTEX
  5
84B6
  8
0
  6
________________
 62
     7
 10
-56.11502094096091
 20
124.467684024569
 30
0.0
  0
VERTEX
  5
84B7
  8
0
  6
________________
 62
     7
 10
-54.37008005383939
 20
124.2869050468265
 30
0.0
  0
VERTEX
  5
84B8
  8
0
  6
________________
 62
     7
 10
-52.62513916671787
 20
123.7553148904411
 30
0.0
  0
VERTEX
  5
84B9
  8
0
  6
________________
 62
     7
 10
-50.94725537931431
 20
122.8933422670035
 30
0.0
  0
VERTEX
  5
84BA
  8
0
  6
________________
 62
     7
 10
-49.40090882461053
 20
121.7341123010326
 30
0.0
  0
VERTEX
  5
84BB
  8
0
  6
________________
 62
     7
 10
-48.04552473350269
 20
120.3221735500169
 30
0.0
  0
VERTEX
  5
84BC
  8
0
  6
________________
 62
     7
 10
-46.93318975650389
 20
118.7117860283337
 30
0.0
  0
VERTEX
  5
84BD
  8
0
  6
________________
 62
     7
 10
-46.10665030297557
 20
116.9648360253256
 30
0.0
  0
VERTEX
  5
84BE
  8
0
  6
________________
 62
     7
 10
-45.59766982058815
 20
115.1484578499071
 30
0.0
  0
VERTEX
  5
84BF
  8
0
  6
________________
 62
     7
 10
-45.42580814384023
 20
113.3324538967232
 30
0.0
  0
SEQEND
  5
84C0
  8
0
  6
________________
 62
     7
  0
POLYLINE
  5
7DC4
  8
0
  6
________________
 62
     7
 66
     1
 10
0.0
 20
0.0
 30
0.0
  0
VERTEX
  5
84C1
  8
0
  6
________________
 62
     7
 10
-48.04552473350249
 20
107.412229062659
 30
0.0
  0
VERTEX
  5
84C2
  8
0
  6
________________
 62
     7
 10
-49.4009088246103
 20
106.5536235497601
 30
0.0
  0
VERTEX
  5
84C3
  8
0
  6
________________
 62
     7
 10
-50.94725537931405
 20
106.0256869212117
 30
0.0
  0
VERTEX
  5
84C4
  8
0
  6
________________
 62
     7
 10
-52.62513916671761
 20
105.8487074855787
 30
0.0
  0
VERTEX
  5
84C5
  8
0
  6
________________
 62
     7
 10
-54.37008005383912
 20
106.0294864633212
 30
0.0
  0
VERTEX
  5
84C6
  8
0
  6
________________
 62
     7
 10
-56.11502094096065
 20
106.5610766197066
 30
0.0
  0
VERTEX
  5
84C7
  8
0
  6
________________
 62
     7
 10
-57.79290472836423
 20
107.4230492431442
 30
0.0
  0
VERTEX
  5
84C8
  8
0
  6
________________
 62
     7
 10
-59.339251283068
 20
108.5822792091151
 30
0.0
  0
VERTEX
  5
84C9
  8
0
  6
________________
 62
     7
 10
-60.69463537417585
 20
109.9942179601308
 30
0.0
  0
VERTEX
  5
84CA
  8
0
  6
________________
 62
     7
 10
-61.80697035117463
 20
111.604605481814
 30
0.0
  0
VERTEX
  5
84CB
  8
0
  6
________________
 62
     7
 10
-62.63350980470295
 20
113.3515554848222
 30
0.0
  0
VERTEX
  5
84CC
  8
0
  6
________________
 62
     7
 10
-63.14249028709038
 20
115.1679336602406
 30
0.0
  0
VERTEX
  5
84CD
  8
0
  6
________________
 62
     7
 10
-63.31435196383829
 20
116.9839376134245
 30
0.0
  0
VERTEX
  5
84CE
  8
0
  6
________________
 62
     7
 10
-63.14249028709043
 20
118.7297793308799
 30
0.0
  0
VERTEX
  5
84CF
  8
0
  6
________________
 62
     7
 10
-62.63350980470305
 20
120.3383670944842
 30
0.0
  0
VERTEX
  5
84D0
  8
0
  6
________________
 62
     7
 10
-61.80697035117478
 20
121.7478837785884
 30
0.0
  0
VERTEX
  5
84D1
  8
0
  6
________________
 62
     7
 10
-60.69463537417603
 20
122.9041624474887
 30
0.0
  0
SEQEND
  5
84D2
  8
0
  6
________________
 62
     7
  0
POLYLINE
  5
7DC5
  8
0
  6
________________
 62
     7
 66
     1
 10
0.0
 20
0.0
 30
0.0
  0
VERTEX
  5
84D3
  8
0
  6
________________
 62
     7
 10
-43.66237577887186
 20
115.4860142920356
 30
0.0
  0
VERTEX
  5
84D4
  8
0
  6
________________
 62
     7
 10
-43.35942126786735
 20
116.6232697772746
 30
0.0
  0
VERTEX
  5
84D5
  8
0
  6
________________
 62
     7
 10
-43.28220980568813
 20
117.8433190824402
 30
0.0
  0
VERTEX
  5
84D6
  8
0
  6
________________
 62
     7
 10
-43.43348210690646
 20
119.1028550765034
 30
0.0
  0
VERTEX
  5
84D7
  8
0
  6
________________
 62
     7
 10
-43.80786857757055
 20
120.3571690004825
 30
0.0
  0
VERTEX
  5
84D8
  8
0
  6
________________
 62
     7
 10
-44.39207991545969
 20
121.561737459112
 30
0.0
  0
VERTEX
  5
84D9
  8
0
  6
________________
 62
     7
 10
-45.16537882999764
 20
122.6738028328021
 30
0.0
  0
VERTEX
  5
84DA
  8
0
  6
________________
 62
     7
 10
-46.10031613755335
 20
123.6538910112465
 30
0.0
  0
VERTEX
  5
84DB
  8
0
  6
________________
 62
     7
 10
-47.16370510353282
 20
124.4672125748832
 30
0.0
  0
VERTEX
  5
84DC
  8
0
  6
________________
 62
     7
 10
-48.31779944580676
 20
125.0848976875703
 30
0.0
  0
VERTEX
  5
84DD
  8
0
  6
________________
 62
     7
 10
-49.52163318481274
 20
125.4850208664635
 30
0.0
  0
VERTEX
  5
84DE
  8
0
  6
________________
 62
     7
 10
-50.73247478072573
 20
125.6533792536432
 30
0.0
  0
VERTEX
  5
84DF
  8
0
  6
________________
 62
     7
 10
-51.90734394133339
 20
125.5839967637968
 30
0.0
  0
SEQEND
  5
84E0
  8
0
  6
________________
 62
     7
  0
LINE
  5
7DC6
  8
0
  6
________________
 62
     7
 10
-44.12316881998632
 20
145.3109474654648
 30
0.0
 11
-44.01466252584005
 21
144.9736378483802
 31
0.0
  0
POLYLINE
  5
7DC7
  8
0
  6
________________
 62
     7
 66
     1
 10
0.0
 20
0.0
 30
0.0
  0
VERTEX
  5
84E1
  8
0
  6
________________
 62
     7
 10
-49.85993755087563
 20
145.992557759249
 30
0.0
  0
VERTEX
  5
84E2
  8
0
  6
________________
 62
     7
 10
-49.94532037331615
 20
145.7864044600559
 30
0.0
  0
VERTEX
  5
84E3
  8
0
  6
________________
 62
     7
 10
-49.93517394125758
 20
145.5773660373941
 30
0.0
  0
VERTEX
  5
84E4
  8
0
  6
________________
 62
     7
 10
-49.82985321718315
 20
145.3727554853457
 30
0.0
  0
SEQEND
  5
84E5
  8
0
  6
________________
 62
     7
  0
POLYLINE
  5
7DC8
  8
0
  6
________________
 62
     7
 66
     1
 10
0.0
 20
0.0
 30
0.0
  0
VERTEX
  5
84E6
  8
0
  6
________________
 62
     7
 10
-44.56938750080448
 20
145.992557759249
 30
0.0
  0
VERTEX
  5
84E7
  8
0
  6
________________
 62
     7
 10
-44.76438153220296
 20
146.2028372220507
 30
0.0
  0
VERTEX
  5
84E8
  8
0
  6
________________
 62
     7
 10
-45.05850956330895
 20
146.3929319740631
 30
0.0
  0
VERTEX
  5
84E9
  8
0
  6
________________
 62
     7
 10
-45.43987169846748
 20
146.5551511205931
 30
0.0
  0
VERTEX
  5
84EA
  8
0
  6
________________
 62
     7
 10
-45.89303870572783
 20
146.6829315642382
 30
0.0
  0
VERTEX
  5
84EB
  8
0
  6
________________
 62
     7
 10
-46.39967625605514
 20
146.7711035361043
 30
0.0
  0
VERTEX
  5
84EC
  8
0
  6
________________
 62
     7
 10
-46.93928669758974
 20
146.8160997554362
 30
0.0
  0
VERTEX
  5
84ED
  8
0
  6
________________
 62
     7
 10
-47.49003835409035
 20
146.8160997554362
 30
0.0
  0
VERTEX
  5
84EE
  8
0
  6
________________
 62
     7
 10
-48.02964879562496
 20
146.7711035361043
 30
0.0
  0
VERTEX
  5
84EF
  8
0
  6
________________
 62
     7
 10
-48.53628634595227
 20
146.6829315642382
 30
0.0
  0
VERTEX
  5
84F0
  8
0
  6
________________
 62
     7
 10
-48.98945335321262
 20
146.5551511205931
 30
0.0
  0
VERTEX
  5
84F1
  8
0
  6
________________
 62
     7
 10
-49.37081548837115
 20
146.3929319740631
 30
0.0
  0
VERTEX
  5
84F2
  8
0
  6
________________
 62
     7
 10
-49.66494351947714
 20
146.2028372220507
 30
0.0
  0
VERTEX
  5
84F3
  8
0
  6
________________
 62
     7
 10
-49.85993755087563
 20
145.992557759249
 30
0.0
  0
SEQEND
  5
84F4
  8
0
  6
________________
 62
     7
  0
POLYLINE
  5
7DC9
  8
0
  6
________________
 62
     7
 66
     1
 10
0.0
 20
0.0
 30
0.0
  0
VERTEX
  5
84F5
  8
0
  6
________________
 62
     7
 10
-50.27099711690428
 20
144.5865937364531
 30
0.0
  0
VERTEX
  5
84F6
  8
0
  6
________________
 62
     7
 10
-50.37854231902164
 20
144.7779064617397
 30
0.0
  0
VERTEX
  5
84F7
  8
0
  6
________________
 62
     7
 10
-50.41466252584006
 20
144.9736378483802
 30
0.0
  0
SEQEND
  5
84F8
  8
0
  6
________________
 62
     7
  0
POLYLINE
  5
7DCA
  8
0
  6
________________
 62
     7
 66
     1
 10
0.0
 20
0.0
 30
0.0
  0
VERTEX
  5
84F9
  8
0
  6
________________
 62
     7
 10
-49.82985321718315
 20
145.3727554853457
 30
0.0
  0
VERTEX
  5
84FA
  8
0
  6
________________
 62
     7
 10
-49.62456862740198
 20
145.1732663751077
 30
0.0
  0
VERTEX
  5
84FB
  8
0
  6
________________
 62
     7
 10
-49.32898698901408
 20
144.9936609332494
 30
0.0
  0
VERTEX
  5
84FC
  8
0
  6
________________
 62
     7
 10
-48.95418348438921
 20
144.8406688167076
 30
0.0
  0
VERTEX
  5
84FD
  8
0
  6
________________
 62
     7
 10
-48.51420166910539
 20
144.720022504675
 30
0.0
  0
VERTEX
  5
84FE
  8
0
  6
________________
 62
     7
 10
-48.0255272723514
 20
144.636242507679
 30
0.0
  0
VERTEX
  5
84FF
  8
0
  6
________________
 62
     7
 10
-47.50647049124568
 20
144.5924679880529
 30
0.0
  0
VERTEX
  5
8500
  8
0
  6
________________
 62
     7
 10
-46.97647992395677
 20
144.5903391383021
 30
0.0
  0
VERTEX
  5
8501
  8
0
  6
________________
 62
     7
 10
-46.45541384794393
 20
144.6299357245426
 30
0.0
  0
VERTEX
  5
8502
  8
0
  6
________________
 62
     7
 10
-45.96279614787741
 20
144.7097740977349
 30
0.0
  0
VERTEX
  5
8503
  8
0
  6
________________
 62
     7
 10
-45.51708477296054
 20
144.8268627847009
 30
0.0
  0
VERTEX
  5
8504
  8
0
  6
________________
 62
     7
 10
-45.13498013391033
 20
144.9768145759756
 30
0.0
  0
VERTEX
  5
8505
  8
0
  6
________________
 62
     7
 10
-44.8307993533494
 20
145.1540109106631
 30
0.0
  0
VERTEX
  5
8506
  8
0
  6
________________
 62
     7
 10
-44.61593981589361
 20
145.3518123989399
 30
0.0
  0
VERTEX
  5
8507
  8
0
  6
________________
 62
     7
 10
-44.49845211823828
 20
145.5628075941153
 30
0.0
  0
VERTEX
  5
8508
  8
0
  6
________________
 62
     7
 10
-44.48273842042564
 20
145.7790906929787
 30
0.0
  0
VERTEX
  5
8509
  8
0
  6
________________
 62
     7
 10
-44.56938750080448
 20
145.992557759249
 30
0.0
  0
SEQEND
  5
850A
  8
0
  6
________________
 62
     7
  0
POLYLINE
  5
7DCB
  8
0
  6
________________
 62
     7
 66
     1
 10
0.0
 20
0.0
 30
0.0
  0
VERTEX
  5
850B
  8
0
  6
________________
 62
     7
 10
-44.01466252584005
 20
144.9736378483802
 30
0.0
  0
VERTEX
  5
850C
  8
0
  6
________________
 62
     7
 10
-44.05908614881209
 20
144.7567132344613
 30
0.0
  0
VERTEX
  5
850D
  8
0
  6
________________
 62
     7
 10
-44.19112360630447
 20
144.5458114813312
 30
0.0
  0
VERTEX
  5
850E
  8
0
  6
________________
 62
     7
 10
-44.40710890942356
 20
144.3467882264682
 30
0.0
  0
SEQEND
  5
850F
  8
0
  6
________________
 62
     7
  0
LINE
  5
7DCC
  8
0
  6
________________
 62
     7
 10
-50.0222161413075
 20
144.3467882257598
 30
0.0
 11
-50.27099711690428
 21
144.5865937364531
 31
0.0
  0
LINE
  5
7DCD
  8
0
  6
________________
 62
     7
 10
-50.41466252584006
 20
144.9736378483802
 30
0.0
 11
-50.30615623169379
 21
145.3109474654648
 31
0.0
  0
LINE
  5
7DCE
  8
0
  6
________________
 62
     7
 10
-30.58449443233011
 20
140.5007537583604
 30
0.0
 11
-30.58449443233011
 21
138.3098635283397
 31
0.0
  0
LINE
  5
7DCF
  8
0
  6
________________
 62
     7
 10
-30.58449443233014
 20
138.3098635283397
 30
0.0
 11
-30.22054589684165
 21
138.5276915419608
 31
0.0
  0
LINE
  5
7DD0
  8
0
  6
________________
 62
   253
 10
-30.22054589684165
 20
138.5276915419608
 30
0.0
 11
-30.22054589684165
 21
99.09166740158884
 31
0.0
  0
POLYLINE
  5
7DD1
  8
0
  6
________________
 62
   253
 66
     1
 10
0.0
 20
0.0
 30
0.0
  0
VERTEX
  5
8510
  8
0
  6
________________
 62
   253
 10
-30.22054589684164
 20
99.09166740158884
 30
0.0
  0
VERTEX
  5
8511
  8
0
  6
________________
 62
   253
 10
-30.47118560571572
 20
98.92911827768557
 30
0.0
  0
VERTEX
  5
8512
  8
0
  6
________________
 62
   253
 10
-30.79468697597713
 20
98.78965476203017
 30
0.0
  0
VERTEX
  5
8513
  8
0
  6
________________
 62
   253
 10
-31.17861803138838
 20
98.67863635931724
 30
0.0
  0
VERTEX
  5
8514
  8
0
  6
________________
 62
   253
 10
-31.60822451680104
 20
98.60032944450317
 30
0.0
  0
VERTEX
  5
8515
  8
0
  6
________________
 62
   253
 10
-32.06699689590678
 20
98.55774330840929
 30
0.0
  0
VERTEX
  5
8516
  8
0
  6
________________
 62
   253
 10
-32.53730480345909
 20
98.55251451236306
 30
0.0
  0
VERTEX
  5
8517
  8
0
  6
________________
 62
   253
 10
-33.00107457032244
 20
98.58484399606421
 30
0.0
  0
VERTEX
  5
8518
  8
0
  6
________________
 62
   253
 10
-33.44048378444136
 20
98.6534893555847
 30
0.0
  0
SEQEND
  5
8519
  8
0
  6
________________
 62
   253
  0
LINE
  5
7DD2
  8
0
  6
________________
 62
   253
 10
-33.44048378444135
 20
98.65348935558471
 30
0.0
 11
-33.44048378444135
 21
140.2804037259773
 31
0.0
  0
POLYLINE
  5
7DD3
  8
0
  6
________________
 62
     7
 66
     1
 10
0.0
 20
0.0
 30
0.0
  0
VERTEX
  5
851A
  8
0
  6
________________
 62
     7
 10
-33.44048378444133
 20
140.2804037259773
 30
0.0
  0
VERTEX
  5
851B
  8
0
  6
________________
 62
     7
 10
-33.02537172958665
 20
140.2145308999468
 30
0.0
  0
VERTEX
  5
851C
  8
0
  6
________________
 62
     7
 10
-32.58759364740202
 20
140.1811050015546
 30
0.0
  0
VERTEX
  5
851D
  8
0
  6
________________
 62
     7
 10
-32.14222501846587
 20
140.1812770968376
 30
0.0
  0
VERTEX
  5
851E
  8
0
  6
________________
 62
     7
 10
-31.70460271410409
 20
140.2150412594618
 30
0.0
  0
VERTEX
  5
851F
  8
0
  6
________________
 62
     7
 10
-31.28979685047502
 20
140.281234774804
 30
0.0
  0
VERTEX
  5
8520
  8
0
  6
________________
 62
     7
 10
-30.91209182872947
 20
140.3775781796028
 30
0.0
  0
VERTEX
  5
8521
  8
0
  6
________________
 62
     7
 10
-30.58449443233014
 20
140.5007537583604
 30
0.0
  0
SEQEND
  5
8522
  8
0
  6
________________
 62
     7
  0
LINE
  5
7DD4
  8
0
  6
________________
 62
     7
 10
-49.94107356697501
 20
147.0734632129388
 30
0.0
 11
-49.18240234603987
 21
147.6929156708806
 31
0.0
  0
LINE
  5
7DD5
  8
0
  6
________________
 62
     7
 10
-48.64574603143991
 20
147.7659453452146
 30
0.0
 11
-49.18240234603987
 21
147.6929156708806
 31
0.0
  0
LINE
  5
7DD6
  8
0
  6
________________
 62
     7
 10
-41.13255762704063
 20
146.2323221842001
 30
0.0
 11
-48.64574603143991
 21
147.7659453452146
 31
0.0
  0
LINE
  5
7DD7
  8
0
  6
________________
 62
     7
 10
-40.95367218884065
 20
146.0132331611981
 30
0.0
 11
-41.13255762704063
 21
146.2323221842001
 31
0.0
  0
LINE
  5
7DD8
  8
0
  6
________________
 62
     7
 10
-40.95367218884065
 20
146.0132331611981
 30
0.0
 11
-41.71234340977579
 21
145.3937807032563
 31
0.0
  0
POLYLINE
  5
7DD9
  8
0
  6
________________
 62
     7
 66
     1
 10
0.0
 20
0.0
 30
0.0
  0
VERTEX
  5
8523
  8
0
  6
________________
 62
     7
 10
-41.71234340977577
 20
145.3937807032563
 30
0.0
  0
VERTEX
  5
8524
  8
0
  6
________________
 62
     7
 10
-42.24820199505392
 20
145.1909643794837
 30
0.0
  0
VERTEX
  5
8525
  8
0
  6
________________
 62
     7
 10
-42.68474389266994
 20
144.9517356318475
 30
0.0
  0
VERTEX
  5
8526
  8
0
  6
________________
 62
     7
 10
-43.00740084850159
 20
144.6840779900108
 30
0.0
  0
VERTEX
  5
8527
  8
0
  6
________________
 62
     7
 10
-43.20540517094231
 20
144.3969237112561
 30
0.0
  0
VERTEX
  5
8528
  8
0
  6
________________
 62
     7
 10
-43.2721490697608
 20
144.0998556936467
 30
0.0
  0
SEQEND
  5
8529
  8
0
  6
________________
 62
     7
  0
LINE
  5
7DDA
  8
0
  6
________________
 62
     7
 10
-41.06100345176063
 20
142.6392622069663
 30
0.0
 11
-40.52434713716069
 21
142.5297176954653
 31
0.0
  0
LINE
  5
7DDB
  8
0
  6
________________
 62
     7
 10
-40.52434713716069
 20
142.5297176954653
 30
0.0
 11
-30.58449443233011
 21
140.5007537583604
 31
0.0
  0
LINE
  5
7DDC
  8
0
  6
________________
 62
     7
 10
-33.44048378444135
 20
140.2804037259773
 30
0.0
 11
-64.92432090763839
 21
146.7070150673713
 31
0.0
  0
LINE
  5
7DDD
  8
0
  6
________________
 62
     7
 10
-66.20611840358978
 20
147.7719873032671
 30
0.0
 11
-66.25100827843849
 21
147.5833711593796
 31
0.0
  0
LINE
  5
7DDE
  8
0
  6
________________
 62
     7
 10
-66.20611840358978
 20
147.7719873032671
 30
0.0
 11
-56.26626569875921
 21
145.7430233661622
 31
0.0
  0
LINE
  5
7DDF
  8
0
  6
________________
 62
     7
 10
-56.26626569875921
 20
145.7430233661622
 30
0.0
 11
-55.72960938415926
 21
145.6334788546611
 31
0.0
  0
POLYLINE
  5
7DE0
  8
0
  6
________________
 62
     7
 66
     1
 10
0.0
 20
0.0
 30
0.0
  0
VERTEX
  5
852A
  8
0
  6
________________
 62
     7
 10
-55.72960938415925
 20
145.6334788546612
 30
0.0
  0
VERTEX
  5
852B
  8
0
  6
________________
 62
     7
 10
-54.97474028991099
 20
145.5165809560131
 30
0.0
  0
VERTEX
  5
852C
  8
0
  6
________________
 62
     7
 10
-54.17774805278211
 20
145.4639478934361
 30
0.0
  0
VERTEX
  5
852D
  8
0
  6
________________
 62
     7
 10
-53.37110104372239
 20
145.4777238657318
 30
0.0
  0
VERTEX
  5
852E
  8
0
  6
________________
 62
     7
 10
-52.58766095585197
 20
145.5573476586779
 30
0.0
  0
VERTEX
  5
852F
  8
0
  6
________________
 62
     7
 10
-51.85934406414177
 20
145.6995755081254
 30
0.0
  0
VERTEX
  5
8530
  8
0
  6
________________
 62
     7
 10
-51.21582100013296
 20
145.8986132465026
 30
0.0
  0
VERTEX
  5
8531
  8
0
  6
________________
 62
     7
 10
-50.68330801109067
 20
146.1463523492573
 30
0.0
  0
VERTEX
  5
8532
  8
0
  6
________________
 62
     7
 10
-50.28349894603669
 20
146.4327002650294
 30
0.0
  0
VERTEX
  5
8533
  8
0
  6
________________
 62
     7
 10
-50.03268147808561
 20
146.7459915723542
 30
0.0
  0
VERTEX
  5
8534
  8
0
  6
________________
 62
     7
 10
-49.94107356697501
 20
147.0734632129388
 30
0.0
  0
SEQEND
  5
8535
  8
0
  6
________________
 62
     7
  0
POLYLINE
  5
7DE1
  8
0
  6
________________
 62
     7
 66
     1
 10
0.0
 20
0.0
 30
0.0
  0
VERTEX
  5
8536
  8
0
  6
________________
 62
     7
 10
-44.20938716408035
 20
144.486912967617
 30
0.0
  0
VERTEX
  5
8537
  8
0
  6
________________
 62
     7
 10
-44.57051302488269
 20
144.2539902278597
 30
0.0
  0
VERTEX
  5
8538
  8
0
  6
________________
 62
     7
 10
-45.03842272451505
 20
144.0552481770725
 30
0.0
  0
VERTEX
  5
8539
  8
0
  6
________________
 62
     7
 10
-45.59421975431387
 20
143.8987130025463
 30
0.0
  0
VERTEX
  5
853A
  8
0
  6
________________
 62
     7
 10
-46.21545828039921
 20
143.7907063690895
 30
0.0
  0
VERTEX
  5
853B
  8
0
  6
________________
 62
     7
 10
-46.87704961749799
 20
143.735590118926
 30
0.0
  0
VERTEX
  5
853C
  8
0
  6
________________
 62
     7
 10
-47.55227543418208
 20
143.735590118926
 30
0.0
  0
VERTEX
  5
853D
  8
0
  6
________________
 62
     7
 10
-48.21386677128086
 20
143.7907063690895
 30
0.0
  0
VERTEX
  5
853E
  8
0
  6
________________
 62
     7
 10
-48.8351052973662
 20
143.8987130025463
 30
0.0
  0
VERTEX
  5
853F
  8
0
  6
________________
 62
     7
 10
-49.39090232716502
 20
144.0552481770724
 30
0.0
  0
VERTEX
  5
8540
  8
0
  6
________________
 62
     7
 10
-49.85881202679738
 20
144.2539902278596
 30
0.0
  0
VERTEX
  5
8541
  8
0
  6
________________
 62
     7
 10
-50.21993788759974
 20
144.486912967617
 30
0.0
  0
SEQEND
  5
8542
  8
0
  6
________________
 62
     7
  0
LINE
  5
7DE2
  8
0
  6
________________
 62
   253
 10
-64.92432090763839
 20
105.0801006969787
 30
0.0
 11
-33.44048378444135
 21
98.65348935558471
 31
0.0
  0
LINE
  5
7DE3
  8
0
  6
________________
 62
   253
 10
-64.92432090763839
 20
146.7070150673713
 30
0.0
 11
-64.92432090763839
 21
105.0801006969787
 31
0.0
  0
LINE
  5
7DE4
  8
0
  6
________________
 62
     7
 10
-30.22054589684165
 20
138.5276915419608
 30
0.0
 11
-27.00060800924195
 21
141.1567598179856
 31
0.0
  0
LINE
  5
7DE5
  8
0
  6
________________
 62
     7
 10
-27.00060800924195
 20
101.7207356776136
 30
0.0
 11
-27.00060800924195
 21
141.1567598179856
 31
0.0
  0
LINE
  5
7DE6
  8
0
  6
________________
 62
   253
 10
-30.22054589684165
 20
99.09166740158884
 30
0.0
 11
-27.00060800924195
 21
101.7207356776136
 31
0.0
  0
POLYLINE
  5
7DE7
  8
0
  6
________________
 62
     7
 66
     1
 10
0.0
 20
0.0
 30
0.0
  0
VERTEX
  5
8543
  8
0
  6
________________
 62
     7
 10
-43.2721490697608
 20
144.0998556936467
 30
0.0
  0
VERTEX
  5
8544
  8
0
  6
________________
 62
     7
 10
-43.20424328397133
 20
143.8002350750382
 30
0.0
  0
VERTEX
  5
8545
  8
0
  6
________________
 62
     7
 10
-43.00283152447474
 20
143.5107874432023
 30
0.0
  0
VERTEX
  5
8546
  8
0
  6
________________
 62
     7
 10
-42.67475230316897
 20
143.2413403825815
 30
0.0
  0
VERTEX
  5
8547
  8
0
  6
________________
 62
     7
 10
-42.231144858716
 20
143.0010424003658
 30
0.0
  0
VERTEX
  5
8548
  8
0
  6
________________
 62
     7
 10
-41.68707094716465
 20
142.7980523082081
 30
0.0
  0
VERTEX
  5
8549
  8
0
  6
________________
 62
     7
 10
-41.06100345176065
 20
142.6392622069663
 30
0.0
  0
SEQEND
  5
854A
  8
0
  6
________________
 62
     7
  0
LINE
  5
7DE8
  8
0
  6
________________
 62
     7
 10
-41.71234340977579
 20
145.3937807032563
 30
0.0
 11
-41.71234340977579
 21
145.2112065174212
 31
0.0
  0
POLYLINE
  5
7DE9
  8
0
  6
________________
 62
     7
 66
     1
 10
0.0
 20
0.0
 30
0.0
  0
VERTEX
  5
854B
  8
0
  6
________________
 62
     7
 10
-50.21993788759974
 20
144.486912967617
 30
0.0
  0
VERTEX
  5
854C
  8
0
  6
________________
 62
     7
 10
-50.44431729491555
 20
144.7220039202363
 30
0.0
  0
VERTEX
  5
854D
  8
0
  6
________________
 62
     7
 10
-50.55943019039757
 20
144.969895588693
 30
0.0
  0
VERTEX
  5
854E
  8
0
  6
________________
 62
     7
 10
-50.56138204492248
 20
145.2222012382241
 30
0.0
  0
VERTEX
  5
854F
  8
0
  6
________________
 62
     7
 10
-50.45010682284537
 20
145.470384799122
 30
0.0
  0
VERTEX
  5
8550
  8
0
  6
________________
 62
     7
 10
-50.22936921613466
 20
145.7060496612431
 30
0.0
  0
VERTEX
  5
8551
  8
0
  6
________________
 62
     7
 10
-49.90663727634394
 20
145.921222750285
 30
0.0
  0
SEQEND
  5
8552
  8
0
  6
________________
 62
     7
  0
POLYLINE
  5
7DEA
  8
0
  6
________________
 62
     7
 66
     1
 10
0.0
 20
0.0
 30
0.0
  0
VERTEX
  5
8553
  8
0
  6
________________
 62
     7
 10
-44.52268777533617
 20
145.921222750285
 30
0.0
  0
VERTEX
  5
8554
  8
0
  6
________________
 62
     7
 10
-44.19995583554546
 20
145.7060496612431
 30
0.0
  0
VERTEX
  5
8555
  8
0
  6
________________
 62
     7
 10
-43.97921822883475
 20
145.470384799122
 30
0.0
  0
VERTEX
  5
8556
  8
0
  6
________________
 62
     7
 10
-43.86794300675763
 20
145.2222012382241
 30
0.0
  0
VERTEX
  5
8557
  8
0
  6
________________
 62
     7
 10
-43.86989486128254
 20
144.969895588693
 30
0.0
  0
VERTEX
  5
8558
  8
0
  6
________________
 62
     7
 10
-43.98500775676455
 20
144.7220039202363
 30
0.0
  0
VERTEX
  5
8559
  8
0
  6
________________
 62
     7
 10
-44.20938716408034
 20
144.486912967617
 30
0.0
  0
SEQEND
  5
855A
  8
0
  6
________________
 62
     7
  0
POLYLINE
  5
7DEB
  8
0
  6
________________
 62
     7
 66
     1
 10
0.0
 20
0.0
 30
0.0
  0
VERTEX
  5
855B
  8
0
  6
________________
 62
     7
 10
-50.14401740378008
 20
144.4284892282942
 30
0.0
  0
VERTEX
  5
855C
  8
0
  6
________________
 62
     7
 10
-50.34627038837714
 20
144.6856543535815
 30
0.0
  0
VERTEX
  5
855D
  8
0
  6
________________
 62
     7
 10
-50.41466252584006
 20
144.9543028833548
 30
0.0
  0
SEQEND
  5
855E
  8
0
  6
________________
 62
     7
  0
POLYLINE
  5
7DEC
  8
0
  6
________________
 62
     7
 66
     1
 10
0.0
 20
0.0
 30
0.0
  0
VERTEX
  5
855F
  8
0
  6
________________
 62
     7
 10
-44.01466252584005
 20
144.9543028833548
 30
0.0
  0
VERTEX
  5
8560
  8
0
  6
________________
 62
     7
 10
-44.08305466333923
 20
144.6856543535111
 30
0.0
  0
VERTEX
  5
8561
  8
0
  6
________________
 62
     7
 10
-44.28530764804193
 20
144.4284892281624
 30
0.0
  0
SEQEND
  5
8562
  8
0
  6
________________
 62
     7
  0
LINE
  5
7DED
  8
0
  6
________________
 62
     7
 10
-40.95367218884065
 20
145.830658975363
 30
0.0
 11
-40.95367218884065
 21
146.0132331611981
 31
0.0
  0
POLYLINE
  5
7DEE
  8
0
  6
________________
 62
     7
 66
     1
 10
0.0
 20
0.0
 30
0.0
  0
VERTEX
  5
8563
  8
0
  6
________________
 62
     7
 10
-66.25100827843849
 20
147.5833711593796
 30
0.0
  0
VERTEX
  5
8564
  8
0
  6
________________
 62
     7
 10
-66.2102648069648
 20
147.4035987882145
 30
0.0
  0
VERTEX
  5
8565
  8
0
  6
________________
 62
     7
 10
-66.08941775126685
 20
147.229930209113
 30
0.0
  0
VERTEX
  5
8566
  8
0
  6
________________
 62
     7
 10
-65.89257021848339
 20
147.0682619727404
 30
0.0
  0
VERTEX
  5
8567
  8
0
  6
________________
 62
     7
 10
-65.6264057518116
 20
146.924083183411
 30
0.0
  0
VERTEX
  5
8568
  8
0
  6
________________
 62
     7
 10
-65.29996140488079
 20
146.8022891281164
 30
0.0
  0
VERTEX
  5
8569
  8
0
  6
________________
 62
     7
 10
-64.92432090763839
 20
146.7070150673713
 30
0.0
  0
SEQEND
  5
856A
  8
0
  6
________________
 62
     7
  0
POLYLINE
  5
7DEF
  8
0
  6
________________
 62
   253
 66
     1
 10
0.0
 20
0.0
 30
0.0
  0
VERTEX
  5
856B
  8
0
  6
________________
 62
   253
 10
-66.25100827843849
 20
105.9564567889869
 30
0.0
  0
VERTEX
  5
856C
  8
0
  6
________________
 62
   253
 10
-66.2102648069648
 20
105.7766844178218
 30
0.0
  0
VERTEX
  5
856D
  8
0
  6
________________
 62
   253
 10
-66.08941775126685
 20
105.6030158387203
 30
0.0
  0
VERTEX
  5
856E
  8
0
  6
________________
 62
   253
 10
-65.89257021848339
 20
105.4413476023478
 30
0.0
  0
VERTEX
  5
856F
  8
0
  6
________________
 62
   253
 10
-65.6264057518116
 20
105.2971688130184
 30
0.0
  0
VERTEX
  5
8570
  8
0
  6
________________
 62
   253
 10
-65.2999614048808
 20
105.1753747577238
 30
0.0
  0
VERTEX
  5
8571
  8
0
  6
________________
 62
   253
 10
-64.9243209076384
 20
105.0801006969787
 30
0.0
  0
SEQEND
  5
8572
  8
0
  6
________________
 62
   253
  0
POLYLINE
  5
7DF0
  8
0
  6
________________
 62
   253
 66
     1
 10
0.0
 20
0.0
 30
0.0
  0
VERTEX
  5
8573
  8
0
  6
________________
 62
   253
 10
-32.84717115524144
 20
97.17833529452112
 30
0.0
  0
VERTEX
  5
8574
  8
0
  6
________________
 62
   253
 10
-33.01516269262861
 20
97.25421005493821
 30
0.0
  0
VERTEX
  5
8575
  8
0
  6
________________
 62
   253
 10
-33.16115304275017
 20
97.4073492201096
 30
0.0
  0
VERTEX
  5
8576
  8
0
  6
________________
 62
   253
 10
-33.28018541088479
 20
97.6325532723622
 30
0.0
  0
VERTEX
  5
8577
  8
0
  6
________________
 62
   253
 10
-33.36821830378617
 20
97.92217588263044
 30
0.0
  0
VERTEX
  5
8578
  8
0
  6
________________
 62
   253
 10
-33.42226275007044
 20
98.26638352544799
 30
0.0
  0
VERTEX
  5
8579
  8
0
  6
________________
 62
   253
 10
-33.44048378444134
 20
98.65348935558471
 30
0.0
  0
SEQEND
  5
857A
  8
0
  6
________________
 62
   253
  0
POLYLINE
  5
7DF1
  8
0
  6
________________
 62
   253
 66
     1
 10
0.0
 20
0.0
 30
0.0
  0
VERTEX
  5
857B
  8
0
  6
________________
 62
   253
 10
-30.84927787836062
 20
97.6708134414134
 30
0.0
  0
VERTEX
  5
857C
  8
0
  6
________________
 62
   253
 10
-30.58231748388091
 20
97.94832032194947
 30
0.0
  0
VERTEX
  5
857D
  8
0
  6
________________
 62
   253
 10
-30.38394801503412
 20
98.28660432613451
 30
0.0
  0
VERTEX
  5
857E
  8
0
  6
________________
 62
   253
 10
-30.26179269926114
 20
98.67266538939954
 30
0.0
  0
VERTEX
  5
857F
  8
0
  6
________________
 62
   253
 10
-30.22054589684165
 20
99.09166740158884
 30
0.0
  0
SEQEND
  5
8580
  8
0
  6
________________
 62
   253
  0
POLYLINE
  5
7DF2
  8
0
  6
________________
 62
   253
 66
     1
 10
0.0
 20
0.0
 30
0.0
  0
VERTEX
  5
8581
  8
0
  6
________________
 62
   253
 10
-64.33100827843849
 20
103.6049466359151
 30
0.0
  0
VERTEX
  5
8582
  8
0
  6
________________
 62
   253
 10
-64.49899981582566
 20
103.6808213963322
 30
0.0
  0
VERTEX
  5
8583
  8
0
  6
________________
 62
   253
 10
-64.64499016594722
 20
103.8339605615036
 30
0.0
  0
VERTEX
  5
8584
  8
0
  6
________________
 62
   253
 10
-64.76402253408183
 20
104.0591646137562
 30
0.0
  0
VERTEX
  5
8585
  8
0
  6
________________
 62
   253
 10
-64.85205542698323
 20
104.3487872240244
 30
0.0
  0
VERTEX
  5
8586
  8
0
  6
________________
 62
   253
 10
-64.9060998732675
 20
104.6929948668419
 30
0.0
  0
VERTEX
  5
8587
  8
0
  6
________________
 62
   253
 10
-64.92432090763839
 20
105.0801006969787
 30
0.0
  0
SEQEND
  5
8588
  8
0
  6
________________
 62
   253
  0
POLYLINE
  5
7DF3
  8
0
  6
________________
 62
     7
 66
     1
 10
0.0
 20
0.0
 30
0.0
  0
VERTEX
  5
8589
  8
0
  6
________________
 62
     7
 10
-27.00060800924194
 20
101.7207356776136
 30
0.0
  0
VERTEX
  5
858A
  8
0
  6
________________
 62
     7
 10
-27.04185481166143
 20
101.3017336654243
 30
0.0
  0
VERTEX
  5
858B
  8
0
  6
________________
 62
     7
 10
-27.16401012743441
 20
100.9156726021593
 30
0.0
  0
VERTEX
  5
858C
  8
0
  6
________________
 62
     7
 10
-27.3623795962812
 20
100.5773885979743
 30
0.0
  0
VERTEX
  5
858D
  8
0
  6
________________
 62
     7
 10
-27.62933999076091
 20
100.2998817174382
 30
0.0
  0
SEQEND
  5
858E
  8
0
  6
________________
 62
     7
  0
ARC
  5
7DF4
  8
0
  6
________________
 62
     7
 10
-57.3395773503938
 20
142.1577536286254
 30
0.0
 40
7.519866709557129
 50
78.55812248740436
 51
101.4094095441367
  0
LINE
  5
7DF5
  8
0
  6
________________
 62
     7
 10
-60.69957832789725
 20
148.2990619680089
 30
0.0
 11
-60.6995783279087
 21
147.9339135963294
 31
0.0
  0
LINE
  5
7DF6
  8
0
  6
________________
 62
     7
 10
-53.9795783279087
 20
147.9339135961186
 30
0.0
 11
-53.97957832789725
 21
148.2990619677981
 31
0.0
  0
LINE
  5
7DF7
  8
0
  6
________________
 62
     7
 10
-60.34485368980312
 20
147.3204643320854
 30
0.0
 11
-60.20174533879362
 21
147.2036168527689
 31
0.0
  0
LINE
  5
7DF8
  8
0
  6
________________
 62
     7
 10
-54.47741131675937
 20
147.2036168528426
 30
0.0
 11
-54.33430296605277
 21
147.3204643318968
 31
0.0
  0
ARC
  5
7DF9
  8
0
  6
________________
 62
     7
 10
-35.87332476639588
 20
137.7759731685849
 30
0.0
 40
7.519866709556353
 50
78.5581224874027
 51
101.4094095441373
  0
LINE
  5
7DFA
  8
0
  6
________________
 62
     7
 10
-39.23332574389926
 20
143.9172815079675
 30
0.0
 11
-39.23332574391073
 21
143.5521331362881
 31
0.0
  0
LINE
  5
7DFB
  8
0
  6
________________
 62
     7
 10
-32.51332574391072
 20
143.5521331360773
 30
0.0
 11
-32.51332574389927
 21
143.9172815077567
 31
0.0
  0
LINE
  5
7DFC
  8
0
  6
________________
 62
     7
 10
-38.87860110580514
 20
142.938683872044
 30
0.0
 11
-38.73549275478467
 21
142.8218363927186
 31
0.0
  0
LINE
  5
7DFD
  8
0
  6
________________
 62
     7
 10
-33.01115873276138
 20
142.8218363928013
 30
0.0
 11
-32.86805038205478
 21
142.9386838718554
 31
0.0
  0
LINE
  5
7DFE
  8
0
  6
________________
 62
     7
 10
-24.12827060070824
 20
104.1912884629956
 30
0.0
 11
-23.77049972430828
 21
104.4834071603317
 31
0.0
  0
LINE
  5
7DFF
  8
0
  6
________________
 62
     7
 10
-42.73549275516085
 20
143.9903111821457
 30
0.0
 11
-42.73549275516085
 21
143.2828234098293
 31
0.0
  0
LINE
  5
7E00
  8
0
  6
________________
 62
     7
 10
-23.26453529868133
 20
103.8637298249385
 30
0.0
 11
-22.19122266948143
 21
104.7400859169468
 31
0.0
  0
LINE
  5
7E01
  8
0
  6
________________
 62
     7
 10
-48.0455247335026
 20
107.4122290626591
 30
0.0
 11
-46.25667035150281
 21
108.8728225493395
 31
0.0
  0
LINE
  5
7E02
  8
0
  6
________________
 62
     7
 10
-58.90578099217615
 20
124.364755934169
 30
0.0
 11
-60.69463537417593
 21
122.9041624474886
 31
0.0
  0
LINE
  5
7E03
  8
0
  6
________________
 62
     7
 10
-44.12316881998631
 20
145.3109474654648
 30
0.0
 11
-44.56938750080448
 21
145.992557759249
 31
0.0
  0
LINE
  5
7E04
  8
0
  6
________________
 62
     7
 10
-49.85993755087563
 20
145.992557759249
 30
0.0
 11
-50.30615623169381
 21
145.3109474654648
 31
0.0
  0
LINE
  5
7E05
  8
0
  6
________________
 62
     7
 10
-44.01466252584005
 20
144.9543028833548
 30
0.0
 11
-44.01466252584005
 21
144.9736378483802
 31
0.0
  0
LINE
  5
7E06
  8
0
  6
________________
 62
     7
 10
-50.41466252584006
 20
144.9736378483802
 30
0.0
 11
-50.41466252584006
 21
144.9543028833548
 31
0.0
  0
LINE
  5
7E07
  8
0
  6
________________
 62
     7
 10
-66.25100827843849
 20
147.5833711593796
 30
0.0
 11
-66.25100827843849
 21
105.9564567889869
 31
0.0
  0
ARC
  5
7E08
  8
0
  6
________________
 62
     7
 10
-32.36717115524144
 20
99.52984544759296
 30
0.0
 40
2.399999999999996
 50
258.4630409671846
 51
309.2315204835922
  0
LINE
  5
7E09
  8
0
  6
________________
 62
     7
 10
-64.33100827843849
 20
103.6049466359151
 30
0.0
 11
-32.84717115524145
 21
97.17833529452112
 31
0.0
  0
LINE
  5
7E0A
  8
0
  6
________________
 62
     7
 10
-30.84927787836062
 20
97.67081344141342
 30
0.0
 11
-27.62933999076093
 21
100.2998817174382
 31
0.0
  0
ARC
  5
7E0B
  8
0
  6
________________
 62
     7
 10
-63.85100827843849
 20
105.9564567889869
 30
0.0
 40
2.399999999999999
 50
180.0
 51
258.4630409671845
  0
ENDBLK
  5
7E0C
  8
0
  0
ENDSEC
  0
SECTION
  2
ENTITIES
  0
TEXT
  5
714C
  8
0
  6
CONTINUOUS
 62
     7
 10
31.92953546915408
 20
46.09487197141549
 30
0.0
 40
10.0
  1
B19
  0
LINE
  5
7C63
  8
0
  6
________________0
 62
     1
 10
8.800000000000068
 20
-80.0776200722557
 30
0.0
 11
21.20000000000005
 21
-80.0776200722557
 31
0.0
  0
LINE
  5
7C65
  8
0
  6
________________0
 62
     1
 10
103.6000000000003
 20
-10.99999999999055
 30
0.0
 11
103.6000000000003
 21
-6.62499999999055
 31
0.0
  0
LINE
  5
7C66
  8
0
  6
________________0
 62
     1
 10
92.10000000000025
 20
35.82647549123244
 30
0.0
 11
92.10000000000025
 21
30.82647549123242
 31
0.0
  0
LINE
  5
7CBF
  8
0
  6
________________0
 62
     1
 10
0.0000000000000568
 20
35.82647549123244
 30
0.0
 11
0.0000000000000568
 21
30.82647549123242
 31
0.0
  0
LINE
  5
7CC0
  8
0
  6
________________0
 62
     1
 10
15.00000000000006
 20
-86.27762007225566
 30
0.0
 11
15.00000000000006
 21
-73.87762007225571
 31
0.0
  0
LINE
  5
7CC1
  8
0
  6
CENTER
 62
     1
 10
0.0000000000000568
 20
-104.2776200724282
 30
0.0
 11
0.0000000000000568
 21
-75.57762007242859
 31
0.0
  0
LINE
  5
7CC2
  8
0
  6
________________0
 62
     1
 10
-14.99999999999994
 20
28.99999999999996
 30
0.0
 11
-14.99999999999994
 21
35.69999999999995
 31
0.0
  0
LINE
  5
7CC3
  8
0
  6
________________0
 62
     1
 10
15.00000000000006
 20
28.99999999999993
 30
0.0
 11
15.00000000000006
 21
35.69999999999995
 31
0.0
  0
LINE
  5
7CC4
  8
0
  6
CENTER
 62
     1
 10
95.60000000000025
 20
-0.0000000000000426
 30
0.0
 11
114.5999999999998
 21
-0.0000000000000426
 31
0.0
  0
LINE
  5
7CC5
  8
0
  6
________________0
 62
     1
 10
90.40000000012822
 20
28.99999999999996
 30
0.0
 11
90.39999999969939
 21
35.69999999999995
 31
0.0
  0
LINE
  5
7CC6
  8
0
  6
________________0
 62
     1
 10
-6.199999999999932
 20
-81.77762007242858
 30
0.0
 11
6.200000000000045
 21
-81.77762007242858
 31
0.0
  0
LINE
  5
7CC7
  8
0
  6
________________0
 62
     1
 10
-14.99999999999994
 20
-86.27762007225569
 30
0.0
 11
-14.99999999999994
 21
-73.87762007225568
 31
0.0
  0
LINE
  5
7CC8
  8
0
  6
CENTER
 62
     1
 10
-14.49999999999926
 20
-0.0000000000000142
 30
0.0
 11
14.49999999999932
 21
-0.0000000000000142
 31
0.0
  0
LINE
  5
7CC9
  8
0
  6
________________0
 62
     1
 10
-21.19999999999993
 20
-80.0776200722557
 30
0.0
 11
-8.799999999999955
 21
-80.0776200722557
 31
0.0
  0
LINE
  5
7CCA
  8
0
  6
CENTER
 62
     1
 10
0.0
 20
-14.4999999999993
 30
0.0
 11
0.0
 21
14.4999999999993
 31
0.0
  0
LINE
  5
7E0D
  8
0
  6
________________
 62
     7
 10
-15.49999999999994
 20
-77.82739539446588
 30
0.0
 11
-15.49999999999994
 21
-79.57762007219354
 31
0.0
  0
LINE
  5
7E0E
  8
0
  6
________________
 62
     7
 10
-15.49999999999994
 20
-79.57762007219354
 30
0.0
 11
-17.2502246777446
 21
-79.57762007221051
 31
0.0
  0
ARC
  5
7E0F
  8
0
  6
________________
 62
     7
 10
-14.99999999999994
 20
-80.07762007221051
 30
0.0
 40
2.305105442345541
 50
167.4724037601813
 51
192.5275962398057
  0
LINE
  5
7E10
  8
0
  6
________________
 62
     7
 10
-17.25022467774704
 20
-80.57762007221051
 30
0.0
 11
-15.49999999999994
 21
-80.57762007219354
 31
0.0
  0
LINE
  5
7E11
  8
0
  6
________________
 62
     7
 10
-15.49999999999994
 20
-80.57762007219354
 30
0.0
 11
-15.49999999999994
 21
-82.32784474995516
 31
0.0
  0
ARC
  5
7E12
  8
0
  6
________________
 62
     7
 10
-14.99999999999994
 20
-80.07762007221051
 30
0.0
 40
2.305105442345548
 50
257.4724037601814
 51
282.5275962398186
  0
LINE
  5
7E13
  8
0
  6
________________
 62
     7
 10
-14.49999999999994
 20
-82.32784474995516
 30
0.0
 11
-14.49999999999994
 21
-80.57762007219354
 31
0.0
  0
LINE
  5
7E14
  8
0
  6
________________
 62
     7
 10
-14.49999999999994
 20
-80.57762007219354
 30
0.0
 11
-12.74977532225529
 21
-80.57762007221051
 31
0.0
  0
ARC
  5
7E15
  8
0
  6
________________
 62
     7
 10
-14.99999999999994
 20
-80.07762007221051
 30
0.0
 40
2.305105442345548
 50
347.4724037601814
 51
12.52759623981867
  0
LINE
  5
7E16
  8
0
  6
________________
 62
     7
 10
-12.74977532225529
 20
-79.57762007221051
 30
0.0
 11
-14.49999999999994
 21
-79.57762007219334
 31
0.0
  0
LINE
  5
7E17
  8
0
  6
________________
 62
     7
 10
-14.49999999999994
 20
-79.57762007219334
 30
0.0
 11
-14.49999999999994
 21
-77.82739539446588
 31
0.0
  0
ARC
  5
7E18
  8
0
  6
________________
 62
     7
 10
-14.99999999999994
 20
-80.07762007221051
 30
0.0
 40
2.305105442345521
 50
77.47240376018127
 51
102.5275962398187
  0
CIRCLE
  5
7E19
  8
0
  6
________________
 62
     7
 10
-14.99999999999994
 20
-80.0776200722557
 30
0.0
 40
4.200000000000002
  0
ARC
  5
7E1A
  8
0
  6
________________
 62
     7
 10
-14.99999999999994
 20
-80.07762007239013
 30
0.0
 40
0.9368318729904139
 50
237.7432806739903
 51
302.2567193260097
  0
ARC
  5
7E1B
  8
0
  6
________________
 62
     7
 10
-14.99999999999994
 20
-80.07762007239013
 30
0.0
 40
0.9368318729904139
 50
147.743280673992
 51
212.256719326008
  0
ARC
  5
7E1C
  8
0
  6
________________
 62
     7
 10
-14.99999999999994
 20
-80.07762007239013
 30
0.0
 40
0.9368318729904139
 50
327.7432806739879
 51
32.25671932601211
  0
ARC
  5
7E1D
  8
0
  6
________________
 62
     7
 10
-14.99999999999994
 20
-80.07762007239013
 30
0.0
 40
0.9368318729904139
 50
57.74328067399029
 51
122.2567193260097
  0
LINE
  5
7E1E
  8
0
  6
________________
 62
     7
 10
14.50000000000006
 20
-77.82739539446588
 30
0.0
 11
14.50000000000006
 21
-79.57762007219354
 31
0.0
  0
LINE
  5
7E1F
  8
0
  6
________________
 62
     7
 10
14.50000000000006
 20
-79.57762007219354
 30
0.0
 11
12.7497753222554
 21
-79.57762007221051
 31
0.0
  0
ARC
  5
7E20
  8
0
  6
________________
 62
     7
 10
15.00000000000006
 20
-80.07762007221051
 30
0.0
 40
2.305105442345548
 50
167.4724037601817
 51
192.5275962398053
  0
LINE
  5
7E21
  8
0
  6
________________
 62
     7
 10
12.74977532225296
 20
-80.57762007221051
 30
0.0
 11
14.50000000000006
 21
-80.57762007219354
 31
0.0
  0
LINE
  5
7E22
  8
0
  6
________________
 62
     7
 10
14.50000000000006
 20
-80.57762007219354
 30
0.0
 11
14.50000000000006
 21
-82.32784474995516
 31
0.0
  0
ARC
  5
7E23
  8
0
  6
________________
 62
     7
 10
15.00000000000006
 20
-80.07762007221051
 30
0.0
 40
2.305105442345548
 50
257.4724037601814
 51
282.5275962398186
  0
LINE
  5
7E24
  8
0
  6
________________
 62
     7
 10
15.50000000000006
 20
-82.32784474995516
 30
0.0
 11
15.50000000000006
 21
-80.57762007219354
 31
0.0
  0
LINE
  5
7E25
  8
0
  6
________________
 62
     7
 10
15.50000000000006
 20
-80.57762007219354
 30
0.0
 11
17.25022467774471
 21
-80.57762007221051
 31
0.0
  0
ARC
  5
7E26
  8
0
  6
________________
 62
     7
 10
15.00000000000006
 20
-80.07762007221051
 30
0.0
 40
2.305105442345548
 50
347.4724037601814
 51
12.52759623981867
  0
LINE
  5
7E27
  8
0
  6
________________
 62
     7
 10
17.25022467774471
 20
-79.57762007221051
 30
0.0
 11
15.50000000000006
 21
-79.57762007219334
 31
0.0
  0
LINE
  5
7E28
  8
0
  6
________________
 62
     7
 10
15.50000000000006
 20
-79.57762007219334
 30
0.0
 11
15.50000000000006
 21
-77.82739539446588
 31
0.0
  0
ARC
  5
7E29
  8
0
  6
________________
 62
     7
 10
15.00000000000006
 20
-80.07762007221051
 30
0.0
 40
2.305105442345521
 50
77.47240376018127
 51
102.5275962398187
  0
CIRCLE
  5
7E2A
  8
0
  6
________________
 62
     7
 10
15.00000000000006
 20
-80.0776200722557
 30
0.0
 40
4.199999999999996
  0
ARC
  5
7E2B
  8
0
  6
________________
 62
     7
 10
15.00000000000006
 20
-80.07762007239013
 30
0.0
 40
0.9368318729904139
 50
237.7432806739903
 51
302.2567193260097
  0
ARC
  5
7E2C
  8
0
  6
________________
 62
     7
 10
15.00000000000006
 20
-80.07762007239013
 30
0.0
 40
0.9368318729904139
 50
147.743280673992
 51
212.256719326008
  0
ARC
  5
7E2D
  8
0
  6
________________
 62
     7
 10
15.00000000000006
 20
-80.07762007239013
 30
0.0
 40
0.9368318729904139
 50
327.7432806739879
 51
32.25671932601211
  0
ARC
  5
7E2E
  8
0
  6
________________
 62
     7
 10
15.00000000000006
 20
-80.07762007239013
 30
0.0
 40
0.9368318729904139
 50
57.74328067399029
 51
122.2567193260097
  0
LINE
  5
7E2F
  8
0
  6
________________
 62
     7
 10
6.000000000000057
 20
-75.07762007242856
 30
0.0
 11
-5.999999999999943
 21
-75.07762007242856
 31
0.0
  0
LINE
  5
7E30
  8
0
  6
________________
 62
     7
 10
-5.999999999999943
 20
-75.07762007242856
 30
0.0
 11
-5.999999999999943
 21
-80.07762007242859
 31
0.0
  0
ARC
  5
7E31
  8
0
  6
________________
 62
     7
 10
-10.99999999999994
 20
-80.07762007242859
 30
0.0
 40
4.999999999999977
 50
270.0
 51
0.0
  0
LINE
  5
7E32
  8
0
  6
________________
 62
     7
 10
-10.99999999999994
 20
-85.07762007242859
 30
0.0
 11
-24.89136645896014
 21
-85.07762007242856
 31
0.0
  0
LINE
  5
7E33
  8
0
  6
________________
 62
     7
 10
-24.89136645896014
 20
-85.07762007242856
 30
0.0
 11
-24.99999999999994
 21
-85.07762007242856
 31
0.0
  0
LINE
  5
7E34
  8
0
  6
________________
 62
     7
 10
-24.99999999999994
 20
-60.07762007242856
 30
0.0
 11
-24.99999999999994
 21
-85.07762007242856
 31
0.0
  0
LINE
  5
7E35
  8
0
  6
________________
 62
     7
 10
25.00000000000006
 20
-60.07762007242856
 30
0.0
 11
-24.99999999999994
 21
-60.07762007242856
 31
0.0
  0
LINE
  5
7E36
  8
0
  6
________________
 62
     7
 10
25.00000000000006
 20
-60.07762007242856
 30
0.0
 11
25.00000000000006
 21
-85.07762007242859
 31
0.0
  0
LINE
  5
7E37
  8
0
  6
________________
 62
     7
 10
25.00000000000006
 20
-85.07762007242859
 30
0.0
 11
24.89136645896025
 21
-85.07762007242859
 31
0.0
  0
LINE
  5
7E38
  8
0
  6
________________
 62
     7
 10
24.89136645896025
 20
-85.07762007242859
 30
0.0
 11
11.00000000000006
 21
-85.07762007242859
 31
0.0
  0
ARC
  5
7E39
  8
0
  6
________________
 62
     7
 10
11.00000000000006
 20
-80.07762007242859
 30
0.0
 40
5.000000000000004
 50
180.0
 51
270.0
  0
LINE
  5
7E3A
  8
0
  6
________________
 62
     7
 10
6.000000000000057
 20
-80.07762007242859
 30
0.0
 11
6.000000000000057
 21
-75.07762007242856
 31
0.0
  0
LINE
  5
7E3B
  8
0
  6
________________
 62
     7
 10
12.49999999999932
 20
-96.77762007242832
 30
0.0
 11
-12.49999999999926
 21
-96.77762007242832
 31
0.0
  0
LINE
  5
7E3C
  8
0
  6
________________
 62
     7
 10
-11.99999999999926
 20
-96.27762007242832
 30
0.0
 11
11.99999999999932
 21
-96.27762007242832
 31
0.0
  0
LINE
  5
7E3D
  8
0
  6
________________
 62
     7
 10
-12.49999999999926
 20
-101.7776200724282
 30
0.0
 11
12.49999999999932
 21
-101.7776200724282
 31
0.0
  0
LINE
  5
7E3E
  8
0
  6
________________
 62
     7
 10
11.99999999999932
 20
-102.2776200724282
 30
0.0
 11
-11.99999999999926
 21
-102.2776200724282
 31
0.0
  0
LINE
  5
7E3F
  8
0
  6
________________
 62
     7
 10
8.999999999999488
 20
-88.77762007242855
 30
0.0
 11
-8.999999999999432
 21
-88.77762007242855
 31
0.0
  0
LINE
  5
7E40
  8
0
  6
________________
 62
     7
 10
-8.499999999999488
 20
-88.27762007242858
 30
0.0
 11
8.499999999999545
 21
-88.27762007242858
 31
0.0
  0
CIRCLE
  5
7E41
  8
0
  6
________________
 62
     7
 10
0.0000000000000568
 20
-81.77762007242858
 30
0.0
 40
3.42264973081037
  0
CIRCLE
  5
7E42
  8
0
  6
________________
 62
     7
 10
-0.0000000000000568
 20
-81.77762007242858
 30
0.0
 40
4.000000000000004
210
0.0
220
0.0
230
-1.0
  0
LINE
  5
7E43
  8
0
  6
________________
 62
     7
 10
-5.749999999999943
 20
-77.89817060065822
 30
0.0
 11
-5.749999999999943
 21
-75.77762007242858
 31
0.0
  0
LINE
  5
7E44
  8
0
  6
________________
 62
     7
 10
-5.249999999999943
 20
-75.27762007242858
 30
0.0
 11
-5.749999999999943
 21
-75.77762007242858
 31
0.0
  0
LINE
  5
7E45
  8
0
  6
________________
 62
     7
 10
5.250000000000057
 20
-75.27762007242858
 30
0.0
 11
-5.249999999999943
 21
-75.27762007242858
 31
0.0
  0
LINE
  5
7E46
  8
0
  6
________________
 62
     7
 10
5.750000000000057
 20
-75.77762007242858
 30
0.0
 11
5.250000000000057
 21
-75.27762007242858
 31
0.0
  0
LINE
  5
7E47
  8
0
  6
________________
 62
     7
 10
5.750000000000057
 20
-75.77762007242858
 30
0.0
 11
5.750000000000057
 21
-77.89817060065822
 31
0.0
  0
ARC
  5
7E48
  8
0
  6
________________
 62
     7
 10
10.25000000000006
 20
-80.07762007242859
 30
0.0
 40
5.000000000000013
 50
154.1580672368327
 51
270.0
  0
LINE
  5
7E49
  8
0
  6
________________
 62
     7
 10
10.25000000000006
 20
-85.07762007242859
 30
0.0
 11
11.00000000000006
 21
-85.07762007242859
 31
0.0
  0
LINE
  5
7E4A
  8
0
  6
________________
 62
     7
 10
11.00000000000006
 20
-85.07762007242859
 30
0.0
 11
24.89136645896025
 21
-85.07762007242859
 31
0.0
  0
ARC
  5
7E4B
  8
0
  6
________________
 62
     7
 10
22.00000000000006
 20
-84.27762007242858
 30
0.0
 40
3.000000000000003
 50
270.0
 51
344.5339900465792
  0
LINE
  5
7E4C
  8
0
  6
________________
 62
     7
 10
22.00000000000006
 20
-87.27762007242855
 30
0.0
 11
-21.99999999999994
 21
-87.27762007242855
 31
0.0
  0
ARC
  5
7E4D
  8
0
  6
________________
 62
     7
 10
-21.99999999999994
 20
-84.27762007242858
 30
0.0
 40
2.999999999999996
 50
195.4660099534208
 51
270.0
  0
CIRCLE
  5
7E4E
  8
0
  6
________________
 62
     7
 10
-0.0000000000000568
 20
-81.77762007242858
 30
0.0
 40
4.200000000000002
210
0.0
220
0.0
230
-1.0
  0
LINE
  5
7E4F
  8
0
  6
________________
 62
     7
 10
-24.89136645896014
 20
-85.07762007242859
 30
0.0
 11
-10.99999999999994
 21
-85.07762007242859
 31
0.0
  0
LINE
  5
7E50
  8
0
  6
________________
 62
     7
 10
-10.99999999999994
 20
-85.07762007242859
 30
0.0
 11
-10.24999999999994
 21
-85.07762007242859
 31
0.0
  0
ARC
  5
7E51
  8
0
  6
________________
 62
     7
 10
-10.24999999999994
 20
-80.07762007242859
 30
0.0
 40
5.000000000000004
 50
270.0
 51
25.84193276316716
  0
LINE
  5
7E52
  8
0
  6
________________
 62
     7
 10
-5.249999999999943
 20
-75.27762007242858
 30
0.0
 11
-5.999999999999943
 21
-75.27762007242858
 31
0.0
  0
LINE
  5
7E53
  8
0
  6
________________
 62
     7
 10
6.000000000000057
 20
-75.27762007242858
 30
0.0
 11
5.250000000000057
 21
-75.27762007242858
 31
0.0
  0
LINE
  5
7E54
  8
0
  6
________________
 62
     7
 10
12.49999999999977
 20
-96.77762007242832
 30
0.0
 11
11.99999999999983
 21
-96.27762007242832
 31
0.0
  0
LINE
  5
7E55
  8
0
  6
________________
 62
     7
 10
-11.99999999999977
 20
-96.27762007242832
 30
0.0
 11
-12.49999999999977
 21
-96.77762007242832
 31
0.0
  0
LINE
  5
7E56
  8
0
  6
________________
 62
     7
 10
12.49999999999977
 20
-101.7776200724282
 30
0.0
 11
12.49999999999977
 21
-96.77762007242832
 31
0.0
  0
LINE
  5
7E57
  8
0
  6
________________
 62
     7
 10
-12.49999999999977
 20
-96.77762007242832
 30
0.0
 11
-12.49999999999977
 21
-101.7776200724282
 31
0.0
  0
LINE
  5
7E58
  8
0
  6
________________
 62
     7
 10
-12.49999999999977
 20
-101.7776200724282
 30
0.0
 11
-11.99999999999977
 21
-102.2776200724282
 31
0.0
  0
LINE
  5
7E59
  8
0
  6
________________
 62
     7
 10
11.99999999999983
 20
-102.2776200724282
 30
0.0
 11
12.49999999999977
 21
-101.7776200724282
 31
0.0
  0
LINE
  5
7E5A
  8
0
  6
________________
 62
     7
 10
8.999999999999886
 20
-88.77762007242855
 30
0.0
 11
8.499999999999886
 21
-88.27762007242858
 31
0.0
  0
LINE
  5
7E5B
  8
0
  6
________________
 62
     7
 10
-8.49999999999983
 20
-88.27762007242858
 30
0.0
 11
-8.99999999999983
 21
-88.77762007242855
 31
0.0
  0
LINE
  5
7E5C
  8
0
  6
________________
 62
     7
 10
8.999999999999886
 20
-96.27762007242832
 30
0.0
 11
8.999999999999886
 21
-88.77762007242855
 31
0.0
  0
LINE
  5
7E5D
  8
0
  6
________________
 62
     7
 10
-8.99999999999983
 20
-88.77762007242855
 30
0.0
 11
-8.99999999999983
 21
-96.27762007242832
 31
0.0
  0
LINE
  5
7E5E
  8
0
  6
________________
 62
     7
 10
7.000000000000057
 20
-88.27762007242858
 30
0.0
 11
7.000000000000057
 21
-87.27762007242855
 31
0.0
  0
LINE
  5
7E5F
  8
0
  6
________________
 62
     7
 10
-6.999999999999943
 20
-87.27762007242855
 30
0.0
 11
-6.999999999999943
 21
-88.27762007242858
 31
0.0
  0
LINE
  5
7E60
  8
0
  6
________________
 62
     7
 10
88.09489455743665
 20
34.4053765554326
 30
0.0
 11
88.1497753220375
 21
34.40537655543612
 31
0.0
  0
LINE
  5
7E61
  8
0
  6
________________
 62
     7
 10
86.19999999982736
 20
33.69999999973102
 30
0.0
 11
94.59999999982733
 21
33.70000000026887
 31
0.0
  0
LINE
  5
7E62
  8
0
  6
________________
 62
     7
 10
88.1497753220375
 20
34.40537655543606
 30
0.0
 11
89.89999999976521
 21
34.67044970713586
 31
0.0
  0
LINE
  5
7E63
  8
0
  6
________________
 62
     7
 10
89.89999999976521
 20
34.67044970713586
 30
0.0
 11
89.89999999978215
 21
34.40537655554822
 31
0.0
  0
LINE
  5
7E64
  8
0
  6
________________
 62
     7
 10
89.89999999978215
 20
34.40537655554822
 30
0.0
 11
90.8999999997817
 21
34.40537655561222
 31
0.0
  0
LINE
  5
7E65
  8
0
  6
________________
 62
     7
 10
90.89999999978215
 20
34.40537655561714
 30
0.0
 11
90.89999999976521
 21
34.67044970719989
 31
0.0
  0
LINE
  5
7E66
  8
0
  6
________________
 62
     7
 10
90.89999999976521
 20
34.67044970719989
 30
0.0
 11
92.65022467752681
 21
34.40537655572429
 31
0.0
  0
LINE
  5
7E67
  8
0
  6
________________
 62
     7
 10
92.65022467752681
 20
34.40537655572429
 30
0.0
 11
92.70510544212777
 21
34.40537655572778
 31
0.0
  0
LINE
  5
7E68
  8
0
  6
________________
 62
     7
 10
86.19999999985941
 20
33.19999999973102
 30
0.0
 11
94.59999999985939
 21
33.20000000026887
 31
0.0
  0
LINE
  5
7E69
  8
0
  6
________________
 62
   253
 10
73.4000000000002
 20
26.99999999999996
 30
0.0
 11
74.4000000000002
 21
26.99999999999996
 31
0.0
  0
LINE
  5
7E6A
  8
0
  6
________________
 62
     7
 10
73.4000000000002
 20
28.99999999999996
 30
0.0
 11
74.4000000000002
 21
28.99999999999996
 31
0.0
  0
LINE
  5
7E6B
  8
0
  6
________________
 62
     7
 10
74.4000000000002
 20
28.99999999999996
 30
0.0
 11
74.4000000000002
 21
26.99999999999996
 31
0.0
  0
LINE
  5
7E6C
  8
0
  6
________________
 62
   253
 10
73.4000000000002
 20
-24.00000000000004
 30
0.0
 11
74.4000000000002
 21
-24.00000000000004
 31
0.0
  0
LINE
  5
7E6D
  8
0
  6
________________
 62
     7
 10
74.4000000000002
 20
26.99999999999996
 30
0.0
 11
74.4000000000002
 21
-24.00000000000004
 31
0.0
  0
LINE
  5
7E6E
  8
0
  6
________________
 62
     7
 10
73.4000000000002
 20
-26.00000000000004
 30
0.0
 11
74.4000000000002
 21
-26.00000000000004
 31
0.0
  0
LINE
  5
7E6F
  8
0
  6
________________
 62
     7
 10
74.4000000000002
 20
-24.00000000000004
 30
0.0
 11
74.4000000000002
 21
-26.00000000000004
 31
0.0
  0
LINE
  5
7E70
  8
0
  6
________________
 62
     7
 10
70.4000000000002
 20
32.99999999999999
 30
0.0
 11
95.4000000000002
 21
32.99999999999999
 31
0.0
  0
LINE
  5
7E71
  8
0
  6
________________
 62
     7
 10
95.4000000000002
 20
32.99999999999999
 30
0.0
 11
95.4000000000002
 21
29.99999999999996
 31
0.0
  0
LINE
  5
7E72
  8
0
  6
________________
 62
     7
 10
95.4000000000002
 20
29.99999999999996
 30
0.0
 11
94.60000000000025
 21
29.99999999999996
 31
0.0
  0
LINE
  5
7E73
  8
0
  6
________________
 62
     7
 10
94.60000000000025
 20
29.99999999999996
 30
0.0
 11
85.60000000000025
 21
29.99999999999993
 31
0.0
  0
LINE
  5
7E74
  8
0
  6
________________
 62
     7
 10
85.60000000000025
 20
29.99999999999993
 30
0.0
 11
73.4000000000002
 21
29.99999999999996
 31
0.0
  0
LINE
  5
7E75
  8
0
  6
________________
 62
     7
 10
73.4000000000002
 20
29.99999999999996
 30
0.0
 11
73.4000000000002
 21
-24.00000000000004
 31
0.0
  0
LINE
  5
7E76
  8
0
  6
________________
 62
   253
 10
70.4000000000002
 20
-24.00000000000004
 30
0.0
 11
73.4000000000002
 21
-24.00000000000004
 31
0.0
  0
LINE
  5
7E77
  8
0
  6
________________
 62
     7
 10
70.4000000000002
 20
-24.00000000000004
 30
0.0
 11
70.4000000000002
 21
32.99999999999999
 31
0.0
  0
LINE
  5
7E78
  8
0
  6
________________
 62
     7
 10
73.4000000000002
 20
-27.00000000000004
 30
0.0
 11
70.4000000000002
 21
-27.00000000000001
 31
0.0
  0
LINE
  5
7E79
  8
0
  6
________________
 62
     7
 10
70.4000000000002
 20
-27.00000000000001
 30
0.0
 11
70.4000000000002
 21
-24.00000000000004
 31
0.0
  0
LINE
  5
7E7A
  8
0
  6
________________
 62
     7
 10
73.4000000000002
 20
-24.00000000000004
 30
0.0
 11
73.4000000000002
 21
-27.00000000000004
 31
0.0
  0
LINE
  5
7E7B
  8
0
  6
________________
 62
     7
 10
84.59999999998149
 20
-25.9999999999968
 30
0.0
 11
85.59999999998149
 21
-25.99999999999723
 31
0.0
  0
LINE
  5
7E7C
  8
0
  6
________________
 62
     7
 10
84.59999999998229
 20
-23.99999999999655
 30
0.0
 11
84.59999999998149
 21
-25.9999999999968
 31
0.0
  0
LINE
  5
7E7D
  8
0
  6
________________
 62
   253
 10
84.5999999999816
 20
-23.99999999999655
 30
0.0
 11
85.5999999999816
 21
-23.99999999999694
 31
0.0
  0
LINE
  5
7E7E
  8
0
  6
________________
 62
     7
 10
84.60000000000184
 20
27.00000000000345
 30
0.0
 11
84.5999999999816
 21
-23.99999999999655
 31
0.0
  0
LINE
  5
7E7F
  8
0
  6
________________
 62
   253
 10
84.60000000000184
 20
27.00000000000345
 30
0.0
 11
85.60000000000184
 21
27.00000000000308
 31
0.0
  0
LINE
  5
7E80
  8
0
  6
________________
 62
     7
 10
84.60000000000332
 20
29.0000000000032
 30
0.0
 11
85.60000000000332
 21
29.0000000000028
 31
0.0
  0
LINE
  5
7E81
  8
0
  6
________________
 62
     7
 10
84.60000000000332
 20
29.0000000000032
 30
0.0
 11
84.60000000000252
 21
27.00000000000345
 31
0.0
  0
LINE
  5
7E82
  8
0
  6
________________
 62
     7
 10
102.3000000000003
 20
-8.99999999999055
 30
0.0
 11
104.8927011508362
 21
-8.99999999999055
 31
0.0
  0
LINE
  5
7E83
  8
0
  6
________________
 62
     7
 10
104.8927011508362
 20
-8.99999999999055
 30
0.0
 11
104.9000000000002
 21
-8.99999999999055
 31
0.0
  0
LINE
  5
7E84
  8
0
  6
________________
 62
     7
 10
112.5999999999998
 20
11.99999999999928
 30
0.0
 11
112.5999999999998
 21
-11.9999999999993
 31
0.0
  0
LINE
  5
7E85
  8
0
  6
________________
 62
     7
 10
112.0999999999998
 20
-12.4999999999993
 30
0.0
 11
112.0999999999998
 21
12.49999999999925
 31
0.0
  0
LINE
  5
7E86
  8
0
  6
________________
 62
     7
 10
107.1
 20
12.49999999999925
 30
0.0
 11
107.1
 21
-0.0000000000000142
 31
0.0
  0
LINE
  5
7E87
  8
0
  6
________________
 62
     7
 10
107.1
 20
-0.0000000000000142
 30
0.0
 11
107.1
 21
-12.49999999999891
 31
0.0
  0
LINE
  5
7E88
  8
0
  6
________________
 62
     7
 10
106.6
 20
-11.9999999999993
 30
0.0
 11
106.6
 21
-0.0000000000000142
 31
0.0
  0
LINE
  5
7E89
  8
0
  6
________________
 62
     7
 10
106.6
 20
-0.0000000000000142
 30
0.0
 11
106.6
 21
11.99999999999896
 31
0.0
  0
LINE
  5
7E8A
  8
0
  6
________________
 62
     7
 10
99.10000000000025
 20
8.999999999999474
 30
0.0
 11
99.10000000000025
 21
-0.0000000000000142
 31
0.0
  0
ARC
  5
7E8B
  8
0
  6
________________
 62
     7
 10
103.6000000000001
 20
-17.71428712553596
 30
0.0
 40
9.000072227837025
 50
75.52260653724555
 51
104.4773934627544
  0
LINE
  5
7E8C
  8
0
  6
________________
 62
     7
 10
99.10000000000025
 20
-0.0000000000000142
 30
0.0
 11
99.10000000000025
 21
-8.999999999999218
 31
0.0
  0
LINE
  5
7E8D
  8
0
  6
________________
 62
     7
 10
98.60000000000025
 20
-8.499999999999503
 30
0.0
 11
98.60000000000025
 21
-0.0000000000000142
 31
0.0
  0
LINE
  5
7E8E
  8
0
  6
________________
 62
     7
 10
98.60000000000025
 20
-0.0000000000000142
 30
0.0
 11
98.60000000000025
 21
8.499999999999247
 31
0.0
  0
LINE
  5
7E8F
  8
0
  6
________________
 62
     7
 10
94.33656111229573
 20
33.82647549123242
 30
0.0
 11
94.46890737567128
 21
33.82647549123242
 31
0.0
  0
LINE
  5
7E90
  8
0
  6
________________
 62
     7
 10
94.46890737567128
 20
33.82647549123242
 30
0.0
 11
95.5226497308106
 21
33.82647549123242
 31
0.0
  0
LINE
  5
7E91
  8
0
  6
________________
 62
     7
 10
95.4000000000002
 20
32.99999999999999
 30
0.0
 11
97.60000000000025
 21
32.99999999999999
 31
0.0
  0
LINE
  5
7E92
  8
0
  6
________________
 62
     7
 10
97.60000000000025
 20
32.99999999999999
 30
0.0
 11
97.60000000000025
 21
-24.00000000000004
 31
0.0
  0
LINE
  5
7E93
  8
0
  6
________________
 62
   253
 10
94.60000000000025
 20
-24.00000000000004
 30
0.0
 11
97.60000000000025
 21
-24.00000000000004
 31
0.0
  0
LINE
  5
7E94
  8
0
  6
________________
 62
   253
 10
94.60000000000025
 20
-24.00000000000004
 30
0.0
 11
94.60000000000025
 21
29.99999999999996
 31
0.0
  0
LINE
  5
7E95
  8
0
  6
________________
 62
     7
 10
94.60000000000025
 20
29.99999999999996
 30
0.0
 11
95.4000000000002
 21
29.99999999999996
 31
0.0
  0
ARC
  5
7E96
  8
0
  6
________________
 62
     7
 10
94.60000000000025
 20
-24.00000000000004
 30
0.0
 40
3.000000000000003
 50
270.0
 51
0.0
  0
LINE
  5
7E97
  8
0
  6
________________
 62
   253
 10
94.60000000000025
 20
-24.00000000000004
 30
0.0
 11
94.60000000000025
 21
-27.00000000000004
 31
0.0
  0
LINE
  5
7E98
  8
0
  6
________________
 62
     7
 10
85.60000000000025
 20
29.99999999999996
 30
0.0
 11
85.60000000000025
 21
-24.00000000000004
 31
0.0
  0
LINE
  5
7E99
  8
0
  6
________________
 62
   253
 10
85.60000000000025
 20
-24.00000000000004
 30
0.0
 11
94.60000000000025
 21
-24.00000000000004
 31
0.0
  0
LINE
  5
7E9A
  8
0
  6
________________
 62
     7
 10
85.60000000000025
 20
29.99999999999996
 30
0.0
 11
94.60000000000025
 21
29.99999999999996
 31
0.0
  0
LINE
  5
7E9B
  8
0
  6
________________
 62
     7
 10
94.60000000000025
 20
-27.00000000000004
 30
0.0
 11
85.60000000000025
 21
-27.00000000000004
 31
0.0
  0
LINE
  5
7E9C
  8
0
  6
________________
 62
     7
 10
85.60000000000025
 20
-27.00000000000004
 30
0.0
 11
85.60000000000025
 21
-24.00000000000004
 31
0.0
  0
ARC
  5
7E9D
  8
0
  6
________________
 62
     7
 10
90.35716584966724
 20
25.2000965670389
 30
0.0
 40
9.50000000000002
 50
63.4733439035439
 51
75.690981448589
  0
ARC
  5
7E9E
  8
0
  6
________________
 62
     7
 10
90.442834151076
 20
25.20009656704435
 30
0.0
 40
9.50000000000001
 50
104.3090185587482
 51
116.5266561037938
  0
LINE
  5
7E9F
  8
0
  6
________________
 62
     7
 10
86.19999999982736
 20
33.69999999973102
 30
0.0
 11
86.19999999985941
 21
33.19999999973102
 31
0.0
  0
LINE
  5
7EA0
  8
0
  6
________________
 62
     7
 10
94.59999999985939
 20
33.20000000026887
 30
0.0
 11
94.59999999982733
 21
33.7000000002689
 31
0.0
  0
LINE
  5
7EA1
  8
0
  6
________________
 62
     7
 10
86.19999999985941
 20
33.19999999973102
 30
0.0
 11
86.39999999961606
 21
32.99999999999999
 31
0.0
  0
LINE
  5
7EA2
  8
0
  6
________________
 62
     7
 10
94.39999999961606
 20
32.99999999999999
 30
0.0
 11
94.59999999985939
 21
33.20000000026887
 31
0.0
  0
LINE
  5
7EA3
  8
0
  6
________________
 62
     7
 10
102.0288972270633
 20
-8.854766371631527
 30
0.0
 11
102.3000000000003
 21
-8.99999999999055
 31
0.0
  0
LINE
  5
7EA4
  8
0
  6
________________
 62
     7
 10
104.9000000000002
 20
-8.99999999999055
 30
0.0
 11
105.1711089174491
 21
-8.854763079928645
 31
0.0
  0
LINE
  5
7EA5
  8
0
  6
________________
 62
     7
 10
112.0999999999998
 20
-12.49999999999987
 30
0.0
 11
112.5999999999998
 21
-11.99999999999987
 31
0.0
  0
LINE
  5
7EA6
  8
0
  6
________________
 62
     7
 10
112.5999999999998
 20
11.99999999999987
 30
0.0
 11
112.0999999999998
 21
12.49999999999984
 31
0.0
  0
LINE
  5
7EA7
  8
0
  6
________________
 62
     7
 10
112.0999999999998
 20
12.49999999999984
 30
0.0
 11
107.1
 21
12.49999999999984
 31
0.0
  0
LINE
  5
7EA8
  8
0
  6
________________
 62
     7
 10
107.1
 20
-12.49999999999987
 30
0.0
 11
112.0999999999998
 21
-12.49999999999987
 31
0.0
  0
LINE
  5
7EA9
  8
0
  6
________________
 62
     7
 10
107.1
 20
12.49999999999984
 30
0.0
 11
106.6
 21
11.99999999999987
 31
0.0
  0
LINE
  5
7EAA
  8
0
  6
________________
 62
     7
 10
106.6
 20
-11.99999999999987
 30
0.0
 11
107.1
 21
-12.49999999999987
 31
0.0
  0
LINE
  5
7EAB
  8
0
  6
________________
 62
     7
 10
106.6
 20
8.9999999999999
 30
0.0
 11
99.10000000000025
 21
8.9999999999999
 31
0.0
  0
LINE
  5
7EAC
  8
0
  6
________________
 62
     7
 10
105.85
 20
-8.9999999999999
 30
0.0
 11
106.6
 21
-8.9999999999999
 31
0.0
  0
LINE
  5
7EAD
  8
0
  6
________________
 62
     7
 10
99.10000000000025
 20
-8.9999999999999
 30
0.0
 11
101.3500000000001
 21
-8.9999999999999
 31
0.0
  0
LINE
  5
7EAE
  8
0
  6
________________
 62
     7
 10
101.3500000000001
 20
-8.9999999999999
 30
0.0
 11
101.3504109561914
 21
-8.9999999999999
 31
0.0
  0
LINE
  5
7EAF
  8
0
  6
________________
 62
     7
 10
99.10000000000025
 20
8.9999999999999
 30
0.0
 11
98.60000000000025
 21
8.4999999999999
 31
0.0
  0
LINE
  5
7EB0
  8
0
  6
________________
 62
     7
 10
98.60000000000025
 20
-8.499999999999929
 30
0.0
 11
99.10000000000025
 21
-8.9999999999999
 31
0.0
  0
LINE
  5
7EB1
  8
0
  6
________________
 62
     7
 10
95.99981557815238
 20
32.99999999999999
 30
0.0
 11
95.5226497308106
 21
33.82647549123242
 31
0.0
  0
LINE
  5
7EB2
  8
0
  6
________________
 62
     7
 10
98.60000000000025
 20
6.999999999999957
 30
0.0
 11
97.60000000000025
 21
6.999999999999957
 31
0.0
  0
LINE
  5
7EB3
  8
0
  6
________________
 62
     7
 10
97.60000000000025
 20
-7.000000000000071
 30
0.0
 11
98.60000000000025
 21
-7.000000000000071
 31
0.0
  0
LINE
  5
7EB4
  8
0
  6
________________
 62
     7
 10
-19.19999999999993
 20
33.19999999999995
 30
0.0
 11
-10.79999999999995
 21
33.19999999999995
 31
0.0
  0
LINE
  5
7EB5
  8
0
  6
________________
 62
     7
 10
-19.19999999999993
 20
33.69999999999995
 30
0.0
 11
-10.79999999999995
 21
33.69999999999995
 31
0.0
  0
LINE
  5
7EB6
  8
0
  6
________________
 62
     7
 10
-17.30510544234551
 20
34.40537655558022
 30
0.0
 11
-17.25022467774471
 21
34.40537655558022
 31
0.0
  0
LINE
  5
7EB7
  8
0
  6
________________
 62
     7
 10
-17.25022467774704
 20
34.40537655561714
 30
0.0
 11
-15.49999999999994
 21
34.67044970719989
 31
0.0
  0
LINE
  5
7EB8
  8
0
  6
________________
 62
     7
 10
-15.49999999999994
 20
34.67044970719989
 30
0.0
 11
-15.49999999999994
 21
34.40537655572429
 31
0.0
  0
LINE
  5
7EB9
  8
0
  6
________________
 62
     7
 10
-15.49999999999994
 20
34.40537655558022
 30
0.0
 11
-14.49999999999994
 21
34.40537655558022
 31
0.0
  0
LINE
  5
7EBA
  8
0
  6
________________
 62
     7
 10
-14.49999999999994
 20
34.40537655572423
 30
0.0
 11
-14.49999999999994
 21
34.67044970719989
 31
0.0
  0
LINE
  5
7EBB
  8
0
  6
________________
 62
     7
 10
-14.49999999999994
 20
34.67044970719989
 30
0.0
 11
-12.74977532225529
 21
34.40537655561222
 31
0.0
  0
LINE
  5
7EBC
  8
0
  6
________________
 62
     7
 10
-12.74977532225529
 20
34.40537655558019
 30
0.0
 11
-12.69489455765438
 21
34.40537655558019
 31
0.0
  0
LINE
  5
7EBD
  8
0
  6
________________
 62
     7
 10
10.80000000000007
 20
33.19999999999995
 30
0.0
 11
19.20000000000005
 21
33.19999999999995
 31
0.0
  0
LINE
  5
7EBE
  8
0
  6
________________
 62
     7
 10
10.80000000000007
 20
33.69999999999995
 30
0.0
 11
19.20000000000005
 21
33.69999999999995
 31
0.0
  0
LINE
  5
7EBF
  8
0
  6
________________
 62
     7
 10
12.69489455765449
 20
34.40537655558019
 30
0.0
 11
12.74977532225529
 21
34.40537655558019
 31
0.0
  0
LINE
  5
7EC0
  8
0
  6
________________
 62
     7
 10
12.74977532225296
 20
34.40537655561714
 30
0.0
 11
14.50000000000006
 21
34.67044970719989
 31
0.0
  0
LINE
  5
7EC1
  8
0
  6
________________
 62
     7
 10
14.50000000000006
 20
34.67044970719989
 30
0.0
 11
14.50000000000006
 21
34.40537655572429
 31
0.0
  0
LINE
  5
7EC2
  8
0
  6
________________
 62
     7
 10
14.50000000000006
 20
34.40537655558019
 30
0.0
 11
15.50000000000006
 21
34.40537655558019
 31
0.0
  0
LINE
  5
7EC3
  8
0
  6
________________
 62
     7
 10
15.50000000000006
 20
34.40537655572423
 30
0.0
 11
15.50000000000006
 21
34.67044970719989
 31
0.0
  0
LINE
  5
7EC4
  8
0
  6
________________
 62
     7
 10
15.50000000000006
 20
34.67044970719989
 30
0.0
 11
17.25022467774471
 21
34.40537655561222
 31
0.0
  0
LINE
  5
7EC5
  8
0
  6
________________
 62
     7
 10
17.25022467774471
 20
34.40537655558019
 30
0.0
 11
17.30510544234562
 21
34.40537655558019
 31
0.0
  0
LINE
  5
7EC6
  8
0
  6
________________
 62
     7
 10
25.00000000000006
 20
32.99999999999999
 30
0.0
 11
24.89136645896025
 21
32.99999999999999
 31
0.0
  0
LINE
  5
7EC7
  8
0
  6
________________
 62
     7
 10
25.00000000000006
 20
29.99999999999996
 30
0.0
 11
24.89136645896025
 21
29.99999999999996
 31
0.0
  0
LINE
  5
7EC8
  8
0
  6
________________
 62
     7
 10
25.00000000000006
 20
32.99999999999999
 30
0.0
 11
25.00000000000006
 21
29.99999999999996
 31
0.0
  0
LINE
  5
7EC9
  8
0
  6
________________
 62
     7
 10
-24.99999999999994
 20
32.99999999999999
 30
0.0
 11
-24.99999999999994
 21
29.99999999999996
 31
0.0
  0
LINE
  5
7ECA
  8
0
  6
________________
 62
     7
 10
-24.89136645896014
 20
32.99999999999996
 30
0.0
 11
-24.99999999999994
 21
32.99999999999999
 31
0.0
  0
LINE
  5
7ECB
  8
0
  6
________________
 62
     7
 10
-24.89136645896014
 20
29.99999999999996
 30
0.0
 11
-24.99999999999994
 21
29.99999999999996
 31
0.0
  0
CIRCLE
  5
7ECC
  8
0
  6
________________
 62
     7
 10
0.0
 20
-0.0000000000000142
 30
0.0
 40
11.9999999999993
  0
CIRCLE
  5
7ECD
  8
0
  6
________________
 62
     7
 10
0.0
 20
-0.0000000000000142
 30
0.0
 40
12.49999999999928
210
0.0
220
0.0
230
-1.0
  0
LINE
  5
7ECE
  8
0
  6
________________
 62
     7
 10
-3.422649730810349
 20
33.82647549123242
 30
0.0
 11
-2.470386412144308
 21
33.82647549123242
 31
0.0
  0
LINE
  5
7ECF
  8
0
  6
________________
 62
     7
 10
-2.470386412144308
 20
33.82647549123242
 30
0.0
 11
3.422649730810463
 21
33.82647549123242
 31
0.0
  0
LINE
  5
7ED0
  8
0
  6
________________
 62
   253
 10
22.00000000000006
 20
-24.00000000000004
 30
0.0
 11
22.00000000000006
 21
32.99999999999996
 31
0.0
  0
LINE
  5
7ED1
  8
0
  6
________________
 62
   253
 10
-21.99999999999994
 20
-24.00000000000004
 30
0.0
 11
22.00000000000006
 21
-24.00000000000004
 31
0.0
  0
LINE
  5
7ED2
  8
0
  6
________________
 62
   253
 10
-21.99999999999994
 20
32.99999999999999
 30
0.0
 11
-21.99999999999994
 21
-24.00000000000001
 31
0.0
  0
LINE
  5
7ED3
  8
0
  6
________________
 62
     7
 10
22.00000000000006
 20
32.99999999999999
 30
0.0
 11
-21.99999999999994
 21
32.99999999999999
 31
0.0
  0
LINE
  5
7ED4
  8
0
  6
________________
 62
     7
 10
-24.89136645896014
 20
29.99999999999996
 30
0.0
 11
-24.89136645896014
 21
32.99999999999999
 31
0.0
  0
LINE
  5
7ED5
  8
0
  6
________________
 62
     7
 10
-24.89136645896014
 20
32.99999999999999
 30
0.0
 11
-21.99999999999994
 21
32.99999999999999
 31
0.0
  0
LINE
  5
7ED6
  8
0
  6
________________
 62
   253
 10
-24.99999999999994
 20
-24.00000000000004
 30
0.0
 11
-21.99999999999994
 21
-24.00000000000004
 31
0.0
  0
LINE
  5
7ED7
  8
0
  6
________________
 62
     7
 10
-24.99999999999994
 20
-24.00000000000004
 30
0.0
 11
-24.99999999999994
 21
29.99999999999993
 31
0.0
  0
LINE
  5
7ED8
  8
0
  6
________________
 62
     7
 10
-24.99999999999994
 20
29.99999999999996
 30
0.0
 11
-24.89136645896014
 21
29.99999999999996
 31
0.0
  0
LINE
  5
7ED9
  8
0
  6
________________
 62
     7
 10
24.89136645896025
 20
32.99999999999999
 30
0.0
 11
24.89136645896025
 21
29.99999999999996
 31
0.0
  0
LINE
  5
7EDA
  8
0
  6
________________
 62
     7
 10
24.89136645896025
 20
29.99999999999996
 30
0.0
 11
25.00000000000006
 21
29.99999999999996
 31
0.0
  0
LINE
  5
7EDB
  8
0
  6
________________
 62
     7
 10
25.00000000000006
 20
29.99999999999996
 30
0.0
 11
25.00000000000006
 21
-24.00000000000001
 31
0.0
  0
LINE
  5
7EDC
  8
0
  6
________________
 62
   253
 10
25.00000000000006
 20
-24.00000000000004
 30
0.0
 11
22.00000000000006
 21
-24.00000000000004
 31
0.0
  0
LINE
  5
7EDD
  8
0
  6
________________
 62
     7
 10
22.00000000000006
 20
32.99999999999999
 30
0.0
 11
24.89136645896025
 21
32.99999999999999
 31
0.0
  0
LINE
  5
7EDE
  8
0
  6
________________
 62
     7
 10
22.00000000000006
 20
-27.00000000000004
 30
0.0
 11
-21.99999999999994
 21
-27.00000000000004
 31
0.0
  0
LINE
  5
7EDF
  8
0
  6
________________
 62
   253
 10
-21.99999999999994
 20
-27.00000000000004
 30
0.0
 11
-21.99999999999994
 21
-24.00000000000004
 31
0.0
  0
LINE
  5
7EE0
  8
0
  6
________________
 62
   253
 10
22.00000000000006
 20
-27.00000000000004
 30
0.0
 11
22.00000000000006
 21
-24.00000000000004
 31
0.0
  0
ARC
  5
7EE1
  8
0
  6
________________
 62
     7
 10
22.00000000000006
 20
-24.00000000000004
 30
0.0
 40
2.999999999999999
 50
270.0
 51
0.0
  0
ARC
  5
7EE2
  8
0
  6
________________
 62
     7
 10
-21.99999999999994
 20
-24.00000000000004
 30
0.0
 40
2.999999999999999
 50
180.0
 51
270.0
  0
LINE
  5
7EE3
  8
0
  6
________________
 62
     7
 10
-19.19999999999993
 20
33.19999999999995
 30
0.0
 11
-18.99999999999994
 21
32.99999999999999
 31
0.0
  0
LINE
  5
7EE4
  8
0
  6
________________
 62
     7
 10
-10.99999999999994
 20
32.99999999999999
 30
0.0
 11
-10.79999999999995
 21
33.19999999999995
 31
0.0
  0
LINE
  5
7EE5
  8
0
  6
________________
 62
     7
 10
-19.19999999999993
 20
33.69999999999995
 30
0.0
 11
-19.19999999999993
 21
33.19999999999995
 31
0.0
  0
LINE
  5
7EE6
  8
0
  6
________________
 62
     7
 10
-10.79999999999995
 20
33.19999999999995
 30
0.0
 11
-10.79999999999995
 21
33.69999999999995
 31
0.0
  0
ARC
  5
7EE7
  8
0
  6
________________
 62
     7
 10
-15.04283415070432
 20
25.20009656704163
 30
0.0
 40
9.499999999999998
 50
63.473343899875
 51
75.69098144492037
  0
ARC
  5
7EE8
  8
0
  6
________________
 62
     7
 10
-14.95716584929556
 20
25.20009656704163
 30
0.0
 40
9.499999999999996
 50
104.3090185550796
 51
116.526656100125
  0
LINE
  5
7EE9
  8
0
  6
________________
 62
     7
 10
10.80000000000007
 20
33.19999999999995
 30
0.0
 11
11.0
 21
32.99999999999999
 31
0.0
  0
LINE
  5
7EEA
  8
0
  6
________________
 62
     7
 10
19.00000000000006
 20
32.99999999999999
 30
0.0
 11
19.20000000000005
 21
33.19999999999995
 31
0.0
  0
LINE
  5
7EEB
  8
0
  6
________________
 62
     7
 10
10.80000000000007
 20
33.69999999999995
 30
0.0
 11
10.80000000000007
 21
33.19999999999995
 31
0.0
  0
LINE
  5
7EEC
  8
0
  6
________________
 62
     7
 10
19.20000000000005
 20
33.19999999999995
 30
0.0
 11
19.20000000000005
 21
33.69999999999995
 31
0.0
  0
ARC
  5
7EED
  8
0
  6
________________
 62
     7
 10
14.95716584929568
 20
25.2000965670416
 30
0.0
 40
9.499999999999995
 50
63.473343899875
 51
75.69098144492034
  0
ARC
  5
7EEE
  8
0
  6
________________
 62
     7
 10
15.04283415070444
 20
25.2000965670416
 30
0.0
 40
9.499999999999998
 50
104.3090185550796
 51
116.526656100125
  0
LINE
  5
7EEF
  8
0
  6
________________
 62
     7
 10
3.899815578152129
 20
32.99999999999996
 30
0.0
 11
3.422649730810406
 21
33.82647549123242
 31
0.0
  0
LINE
  5
7EF0
  8
0
  6
________________
 62
     7
 10
-3.422649730810349
 20
33.82647549123242
 30
0.0
 11
-3.899815578152015
 21
32.99999999999999
 31
0.0
  0
POLYLINE
  5
7EF1
  8
0
  6
________________
 62
     7
 66
     1
 10
0.0
 20
0.0
 30
0.0
  0
VERTEX
  5
8095
  8
0
  6
________________
 62
     7
 10
79.98622734083602
 20
-52.6211286490574
 30
0.0
  0
VERTEX
  5
8096
  8
0
  6
________________
 62
     7
 10
79.45720546643145
 20
-52.75419866925911
 30
0.0
  0
VERTEX
  5
8097
  8
0
  6
________________
 62
     7
 10
78.99725157898266
 20
-52.92476260969308
 30
0.0
  0
VERTEX
  5
8098
  8
0
  6
________________
 62
     7
 10
78.62209632980831
 20
-53.12698709891114
 30
0.0
  0
VERTEX
  5
8099
  8
0
  6
________________
 62
     7
 10
78.34457021469547
 20
-53.35395595897721
 30
0.0
  0
VERTEX
  5
809A
  8
0
  6
________________
 62
     7
 10
78.17416476457318
 20
-53.59790674218661
 30
0.0
  0
VERTEX
  5
809B
  8
0
  6
________________
 62
     7
 10
78.11670793044222
 20
-53.85049621063155
 30
0.0
  0
SEQEND
  5
809C
  8
0
  6
________________
 62
     7
  0
LINE
  5
7EF2
  8
0
  6
________________
 62
     7
 10
81.9240019091119
 20
-52.60499963354992
 30
0.0
 11
81.29782249226446
 21
-52.92269092701993
 31
0.0
  0
LINE
  5
7EF3
  8
0
  6
________________
 62
     7
 10
81.29782249226446
 20
-52.92269092701993
 30
0.0
 11
80.04546365855128
 21
-52.86063630992216
 31
0.0
  0
POLYLINE
  5
7EF4
  8
0
  6
________________
 62
     7
 66
     1
 10
0.0
 20
0.0
 30
0.0
  0
VERTEX
  5
809D
  8
0
  6
________________
 62
     7
 10
80.04546365855128
 20
-52.86063630992216
 30
0.0
  0
VERTEX
  5
809E
  8
0
  6
________________
 62
     7
 10
79.82730874185387
 20
-52.99867980983473
 30
0.0
  0
VERTEX
  5
809F
  8
0
  6
________________
 62
     7
 10
79.68769278215142
 20
-53.1527550072113
 30
0.0
  0
SEQEND
  5
80A0
  8
0
  6
________________
 62
     7
  0
LINE
  5
7EF5
  8
0
  6
________________
 62
     7
 10
79.6876927821495
 20
-53.15275500720755
 30
0.0
 11
80.94005161586449
 21
-53.21480962430924
 31
0.0
  0
LINE
  5
7EF6
  8
0
  6
________________
 62
     7
 10
80.94005161586449
 20
-53.21480962430924
 30
0.0
 11
80.31387219900489
 21
-53.91966503649202
 31
0.0
  0
POLYLINE
  5
7EF7
  8
0
  6
________________
 62
     7
 66
     1
 10
0.0
 20
0.0
 30
0.0
  0
VERTEX
  5
80A1
  8
0
  6
________________
 62
     7
 10
80.31387219900483
 20
-53.91966503649201
 30
0.0
  0
VERTEX
  5
80A2
  8
0
  6
________________
 62
     7
 10
80.65200833615606
 20
-54.00872640828748
 30
0.0
  0
VERTEX
  5
80A3
  8
0
  6
________________
 62
     7
 10
81.02941395180478
 20
-54.06572438516005
 30
0.0
  0
SEQEND
  5
80A4
  8
0
  6
________________
 62
     7
  0
LINE
  5
7EF8
  8
0
  6
________________
 62
     7
 10
81.02941395180483
 20
-54.0657243851601
 30
0.0
 11
81.65559336866443
 21
-53.36086897297729
 31
0.0
  0
LINE
  5
7EF9
  8
0
  6
________________
 62
     7
 10
81.65559336866443
 20
-53.36086897297729
 30
0.0
 11
82.90795220236544
 21
-53.8100877087878
 31
0.0
  0
POLYLINE
  5
7EFA
  8
0
  6
________________
 62
     7
 66
     1
 10
0.0
 20
0.0
 30
0.0
  0
VERTEX
  5
80A5
  8
0
  6
________________
 62
     7
 10
82.90795220236544
 20
-53.81008770878779
 30
0.0
  0
VERTEX
  5
80A6
  8
0
  6
________________
 62
     7
 10
83.12610711906294
 20
-53.67204420887515
 30
0.0
  0
VERTEX
  5
80A7
  8
0
  6
________________
 62
     7
 10
83.2657230787654
 20
-53.51796901149848
 30
0.0
  0
SEQEND
  5
80A8
  8
0
  6
________________
 62
     7
  0
LINE
  5
7EFB
  8
0
  6
________________
 62
     7
 10
83.2657230787654
 20
-53.51796901149847
 30
0.0
 11
82.01336424506451
 21
-53.06875027568886
 31
0.0
  0
LINE
  5
7EFC
  8
0
  6
________________
 62
     7
 10
82.01336424506451
 20
-53.06875027568886
 30
0.0
 11
82.63954366191183
 21
-52.75105898221794
 31
0.0
  0
POLYLINE
  5
7EFD
  8
0
  6
________________
 62
     7
 66
     1
 10
0.0
 20
0.0
 30
0.0
  0
VERTEX
  5
80A9
  8
0
  6
________________
 62
     7
 10
82.63954366191189
 20
-52.75105898221793
 30
0.0
  0
VERTEX
  5
80AA
  8
0
  6
________________
 62
     7
 10
82.30140752476068
 20
-52.66199761042245
 30
0.0
  0
VERTEX
  5
80AB
  8
0
  6
________________
 62
     7
 10
81.92400190911195
 20
-52.60499963354989
 30
0.0
  0
SEQEND
  5
80AC
  8
0
  6
________________
 62
     7
  0
POLYLINE
  5
7EFE
  8
0
  6
________________
 62
     7
 66
     1
 10
0.0
 20
0.0
 30
0.0
  0
VERTEX
  5
80AD
  8
0
  6
________________
 62
     7
 10
84.48198329220193
 20
-54.46394547514274
 30
0.0
  0
VERTEX
  5
80AE
  8
0
  6
________________
 62
     7
 10
84.74682453504883
 20
-54.16565156725356
 30
0.0
  0
VERTEX
  5
80AF
  8
0
  6
________________
 62
     7
 10
84.83670793044222
 20
-53.85049621084237
 30
0.0
  0
SEQEND
  5
80B0
  8
0
  6
________________
 62
     7
  0
POLYLINE
  5
7EFF
  8
0
  6
________________
 62
     7
 66
     1
 10
0.0
 20
0.0
 30
0.0
  0
VERTEX
  5
80B1
  8
0
  6
________________
 62
     7
 10
78.11670793043074
 20
-54.21564458231104
 30
0.0
  0
VERTEX
  5
80B2
  8
0
  6
________________
 62
     7
 10
78.20659132577961
 20
-54.53079993868514
 30
0.0
  0
VERTEX
  5
80B3
  8
0
  6
________________
 62
     7
 10
78.47143256853631
 20
-54.82909384655512
 30
0.0
  0
SEQEND
  5
80B4
  8
0
  6
________________
 62
     7
  0
POLYLINE
  5
7F00
  8
0
  6
________________
 62
     7
 66
     1
 10
0.0
 20
0.0
 30
0.0
  0
VERTEX
  5
80B5
  8
0
  6
________________
 62
     7
 10
78.11670793044222
 20
-53.85049621063154
 30
0.0
  0
VERTEX
  5
80B6
  8
0
  6
________________
 62
     7
 10
78.1779897902664
 20
-54.11128304300312
 30
0.0
  0
VERTEX
  5
80B7
  8
0
  6
________________
 62
     7
 10
78.35959997312193
 20
-54.36255707650501
 30
0.0
  0
VERTEX
  5
80B8
  8
0
  6
________________
 62
     7
 10
78.65491383033627
 20
-54.59515251345832
 30
0.0
  0
VERTEX
  5
80B9
  8
0
  6
________________
 62
     7
 10
79.05315911047828
 20
-54.80058490090767
 30
0.0
  0
VERTEX
  5
80BA
  8
0
  6
________________
 62
     7
 10
79.53980890197855
 20
-54.97136062053598
 30
0.0
  0
VERTEX
  5
80BB
  8
0
  6
________________
 62
     7
 10
80.09711153560484
 20
-55.1012502356093
 30
0.0
  0
VERTEX
  5
80BC
  8
0
  6
________________
 62
     7
 10
80.7047381173821
 20
-55.18551572399395
 30
0.0
  0
VERTEX
  5
80BD
  8
0
  6
________________
 62
     7
 10
81.34052407170624
 20
-55.22108330839951
 30
0.0
  0
VERTEX
  5
80BE
  8
0
  6
________________
 62
     7
 10
81.98127764516283
 20
-55.20665557946758
 30
0.0
  0
VERTEX
  5
80BF
  8
0
  6
________________
 62
     7
 10
82.60362587901635
 20
-55.14275882175892
 30
0.0
  0
VERTEX
  5
80C0
  8
0
  6
________________
 62
     7
 10
83.18486719157993
 20
-55.03172381631502
 30
0.0
  0
VERTEX
  5
80C1
  8
0
  6
________________
 62
     7
 10
83.70379947056473
 20
-54.87760082006449
 30
0.0
  0
VERTEX
  5
80C2
  8
0
  6
________________
 62
     7
 10
84.14149346883785
 20
-54.6860118233961
 30
0.0
  0
VERTEX
  5
80C3
  8
0
  6
________________
 62
     7
 10
84.48198329220189
 20
-54.46394547514278
 30
0.0
  0
SEQEND
  5
80C4
  8
0
  6
________________
 62
     7
  0
POLYLINE
  5
7F01
  8
0
  6
________________
 62
     7
 66
     1
 10
0.0
 20
0.0
 30
0.0
  0
VERTEX
  5
80C5
  8
0
  6
________________
 62
     7
 10
84.83670793044222
 20
-53.85049621084237
 30
0.0
  0
VERTEX
  5
80C6
  8
0
  6
________________
 62
     7
 10
84.77930256957305
 20
-53.59801893478762
 30
0.0
  0
VERTEX
  5
80C7
  8
0
  6
________________
 62
     7
 10
84.6090480199598
 20
-53.3541687713157
 30
0.0
  0
VERTEX
  5
80C8
  8
0
  6
________________
 62
     7
 10
84.33176185532956
 20
-53.127278045804
 30
0.0
  0
VERTEX
  5
80C9
  8
0
  6
________________
 62
     7
 10
83.95691890446021
 20
-52.92509958204876
 30
0.0
  0
VERTEX
  5
80CA
  8
0
  6
________________
 62
     7
 10
83.49732749762964
 20
-52.7545417893794
 30
0.0
  0
VERTEX
  5
80CB
  8
0
  6
________________
 62
     7
 10
82.96869180779329
 20
-52.62143260329509
 30
0.0
  0
SEQEND
  5
80CC
  8
0
  6
________________
 62
     7
  0
POLYLINE
  5
7F02
  8
0
  6
________________
 62
     7
 66
     1
 10
0.0
 20
0.0
 30
0.0
  0
VERTEX
  5
80CD
  8
0
  6
________________
 62
     7
 10
84.48198329219045
 20
-54.82909384682222
 30
0.0
  0
VERTEX
  5
80CE
  8
0
  6
________________
 62
     7
 10
84.74682453503735
 20
-54.53079993893304
 30
0.0
  0
VERTEX
  5
80CF
  8
0
  6
________________
 62
     7
 10
84.83670793043073
 20
-54.21564458252185
 30
0.0
  0
SEQEND
  5
80D0
  8
0
  6
________________
 62
     7
  0
POLYLINE
  5
7F03
  8
0
  6
________________
 62
     7
 66
     1
 10
0.0
 20
0.0
 30
0.0
  0
VERTEX
  5
80D1
  8
0
  6
________________
 62
     7
 10
78.47143256853631
 20
-54.82909384655511
 30
0.0
  0
VERTEX
  5
80D2
  8
0
  6
________________
 62
     7
 10
78.83255842930441
 20
-55.0620165863141
 30
0.0
  0
VERTEX
  5
80D3
  8
0
  6
________________
 62
     7
 10
79.30046812891796
 20
-55.26075863711091
 30
0.0
  0
VERTEX
  5
80D4
  8
0
  6
________________
 62
     7
 10
79.85626515871265
 20
-55.41729381165354
 30
0.0
  0
VERTEX
  5
80D5
  8
0
  6
________________
 62
     7
 10
80.47750368480689
 20
-55.5253004451326
 30
0.0
  0
VERTEX
  5
80D6
  8
0
  6
________________
 62
     7
 10
81.13909502192521
 20
-55.58041669532292
 30
0.0
  0
VERTEX
  5
80D7
  8
0
  6
________________
 62
     7
 10
81.81432083863655
 20
-55.58041669535294
 30
0.0
  0
VERTEX
  5
80D8
  8
0
  6
________________
 62
     7
 10
82.475912175767
 20
-55.5253004452214
 30
0.0
  0
VERTEX
  5
80D9
  8
0
  6
________________
 62
     7
 10
83.09715070188494
 20
-55.41729381179756
 30
0.0
  0
VERTEX
  5
80DA
  8
0
  6
________________
 62
     7
 10
83.65294773171401
 20
-55.26075863730434
 30
0.0
  0
VERTEX
  5
80DB
  8
0
  6
________________
 62
     7
 10
84.1208574313712
 20
-55.06201658654912
 30
0.0
  0
VERTEX
  5
80DC
  8
0
  6
________________
 62
     7
 10
84.48198329219045
 20
-54.82909384682223
 30
0.0
  0
SEQEND
  5
80DD
  8
0
  6
________________
 62
     7
  0
LINE
  5
7F04
  8
0
  6
________________
 62
     7
 10
80.94005161586449
 20
-53.21480962430924
 30
0.0
 11
80.94005161583812
 21
-54.05562204379528
 31
0.0
  0
LINE
  5
7F05
  8
0
  6
________________
 62
     7
 10
82.01336424506451
 20
-53.06875027568886
 30
0.0
 11
82.013364245052
 21
-53.46463408156767
 31
0.0
  0
LINE
  5
7F06
  8
0
  6
________________
 62
     7
 10
80.04546365855128
 20
-52.86063630992216
 30
0.0
 11
80.17367512591136
 21
-53.14818198060409
 31
0.0
  0
LINE
  5
7F07
  8
0
  6
________________
 62
     7
 10
81.9240019091119
 20
-52.60499963354992
 30
0.0
 11
81.76298594661523
 21
-53.39048170889039
 31
0.0
  0
LINE
  5
7F08
  8
0
  6
________________
 62
     7
 10
81.29782249226446
 20
-52.92269092701993
 30
0.0
 11
81.29782249223899
 21
-53.73408975030897
 31
0.0
  0
POLYLINE
  5
7F09
  8
0
  6
________________
 62
     7
 66
     1
 10
0.0
 20
0.0
 30
0.0
  0
VERTEX
  5
80DE
  8
0
  6
________________
 62
     7
 10
101.452479924834
 20
-57.00290910909875
 30
0.0
  0
VERTEX
  5
80DF
  8
0
  6
________________
 62
     7
 10
100.9234580504294
 20
-57.13597912930047
 30
0.0
  0
VERTEX
  5
80E0
  8
0
  6
________________
 62
     7
 10
100.4635041629806
 20
-57.30654306973443
 30
0.0
  0
VERTEX
  5
80E1
  8
0
  6
________________
 62
     7
 10
100.0883489138063
 20
-57.50876755895248
 30
0.0
  0
VERTEX
  5
80E2
  8
0
  6
________________
 62
     7
 10
99.81082279869344
 20
-57.73573641901856
 30
0.0
  0
VERTEX
  5
80E3
  8
0
  6
________________
 62
     7
 10
99.64041734857115
 20
-57.97968720222796
 30
0.0
  0
VERTEX
  5
80E4
  8
0
  6
________________
 62
     7
 10
99.58296051444019
 20
-58.2322766706729
 30
0.0
  0
SEQEND
  5
80E5
  8
0
  6
________________
 62
     7
  0
LINE
  5
7F0A
  8
0
  6
________________
 62
     7
 10
103.3902544931099
 20
-56.98678009359126
 30
0.0
 11
102.7640750762624
 21
-57.30447138706127
 31
0.0
  0
LINE
  5
7F0B
  8
0
  6
________________
 62
     7
 10
102.7640750762624
 20
-57.30447138706127
 30
0.0
 11
101.5117162425493
 21
-57.2424167699635
 31
0.0
  0
POLYLINE
  5
7F0C
  8
0
  6
________________
 62
     7
 66
     1
 10
0.0
 20
0.0
 30
0.0
  0
VERTEX
  5
80E6
  8
0
  6
________________
 62
     7
 10
101.5117162425492
 20
-57.2424167699635
 30
0.0
  0
VERTEX
  5
80E7
  8
0
  6
________________
 62
     7
 10
101.2935613258518
 20
-57.38046026987607
 30
0.0
  0
VERTEX
  5
80E8
  8
0
  6
________________
 62
     7
 10
101.1539453661494
 20
-57.53453546725265
 30
0.0
  0
SEQEND
  5
80E9
  8
0
  6
________________
 62
     7
  0
LINE
  5
7F0D
  8
0
  6
________________
 62
     7
 10
101.1539453661476
 20
-57.53453546724889
 30
0.0
 11
102.4063041998625
 21
-57.59659008435058
 31
0.0
  0
LINE
  5
7F0E
  8
0
  6
________________
 62
     7
 10
102.4063041998625
 20
-57.59659008435058
 30
0.0
 11
101.7801247830029
 21
-58.30144549653336
 31
0.0
  0
POLYLINE
  5
7F0F
  8
0
  6
________________
 62
     7
 66
     1
 10
0.0
 20
0.0
 30
0.0
  0
VERTEX
  5
80EA
  8
0
  6
________________
 62
     7
 10
101.7801247830028
 20
-58.30144549653335
 30
0.0
  0
VERTEX
  5
80EB
  8
0
  6
________________
 62
     7
 10
102.1182609201541
 20
-58.39050686832882
 30
0.0
  0
VERTEX
  5
80EC
  8
0
  6
________________
 62
     7
 10
102.4956665358028
 20
-58.44750484520139
 30
0.0
  0
SEQEND
  5
80ED
  8
0
  6
________________
 62
     7
  0
LINE
  5
7F10
  8
0
  6
________________
 62
     7
 10
102.4956665358028
 20
-58.44750484520144
 30
0.0
 11
103.1218459526624
 21
-57.74264943301863
 31
0.0
  0
LINE
  5
7F11
  8
0
  6
________________
 62
     7
 10
103.1218459526624
 20
-57.74264943301863
 30
0.0
 11
104.3742047863634
 21
-58.19186816882915
 31
0.0
  0
POLYLINE
  5
7F12
  8
0
  6
________________
 62
     7
 66
     1
 10
0.0
 20
0.0
 30
0.0
  0
VERTEX
  5
80EE
  8
0
  6
________________
 62
     7
 10
104.3742047863634
 20
-58.19186816882912
 30
0.0
  0
VERTEX
  5
80EF
  8
0
  6
________________
 62
     7
 10
104.5923597030609
 20
-58.05382466891648
 30
0.0
  0
VERTEX
  5
80F0
  8
0
  6
________________
 62
     7
 10
104.7319756627634
 20
-57.89974947153982
 30
0.0
  0
SEQEND
  5
80F1
  8
0
  6
________________
 62
     7
  0
LINE
  5
7F13
  8
0
  6
________________
 62
     7
 10
104.7319756627634
 20
-57.89974947153981
 30
0.0
 11
103.4796168290625
 21
-57.4505307357302
 31
0.0
  0
LINE
  5
7F14
  8
0
  6
________________
 62
     7
 10
103.4796168290625
 20
-57.4505307357302
 30
0.0
 11
104.1057962459098
 21
-57.13283944225928
 31
0.0
  0
POLYLINE
  5
7F15
  8
0
  6
________________
 62
     7
 66
     1
 10
0.0
 20
0.0
 30
0.0
  0
VERTEX
  5
80F2
  8
0
  6
________________
 62
     7
 10
104.1057962459099
 20
-57.13283944225928
 30
0.0
  0
VERTEX
  5
80F3
  8
0
  6
________________
 62
     7
 10
103.7676601087587
 20
-57.04377807046379
 30
0.0
  0
VERTEX
  5
80F4
  8
0
  6
________________
 62
     7
 10
103.3902544931099
 20
-56.98678009359122
 30
0.0
  0
SEQEND
  5
80F5
  8
0
  6
________________
 62
     7
  0
POLYLINE
  5
7F16
  8
0
  6
________________
 62
     7
 66
     1
 10
0.0
 20
0.0
 30
0.0
  0
VERTEX
  5
80F6
  8
0
  6
________________
 62
     7
 10
105.9482358761999
 20
-58.84572593518408
 30
0.0
  0
VERTEX
  5
80F7
  8
0
  6
________________
 62
     7
 10
106.2130771190468
 20
-58.54743202729489
 30
0.0
  0
VERTEX
  5
80F8
  8
0
  6
________________
 62
     7
 10
106.3029605144402
 20
-58.23227667088368
 30
0.0
  0
SEQEND
  5
80F9
  8
0
  6
________________
 62
     7
  0
POLYLINE
  5
7F17
  8
0
  6
________________
 62
     7
 66
     1
 10
0.0
 20
0.0
 30
0.0
  0
VERTEX
  5
80FA
  8
0
  6
________________
 62
     7
 10
99.5829605144287
 20
-58.59742504235236
 30
0.0
  0
VERTEX
  5
80FB
  8
0
  6
________________
 62
     7
 10
99.67284390977758
 20
-58.91258039872648
 30
0.0
  0
VERTEX
  5
80FC
  8
0
  6
________________
 62
     7
 10
99.9376851525343
 20
-59.21087430659646
 30
0.0
  0
SEQEND
  5
80FD
  8
0
  6
________________
 62
     7
  0
POLYLINE
  5
7F18
  8
0
  6
________________
 62
     7
 66
     1
 10
0.0
 20
0.0
 30
0.0
  0
VERTEX
  5
80FE
  8
0
  6
________________
 62
     7
 10
99.58296051444019
 20
-58.2322766706729
 30
0.0
  0
VERTEX
  5
80FF
  8
0
  6
________________
 62
     7
 10
99.64424237426437
 20
-58.49306350304447
 30
0.0
  0
VERTEX
  5
8100
  8
0
  6
________________
 62
     7
 10
99.8258525571199
 20
-58.74433753654637
 30
0.0
  0
VERTEX
  5
8101
  8
0
  6
________________
 62
     7
 10
100.1211664143343
 20
-58.97693297349967
 30
0.0
  0
VERTEX
  5
8102
  8
0
  6
________________
 62
     7
 10
100.5194116944763
 20
-59.18236536094902
 30
0.0
  0
VERTEX
  5
8103
  8
0
  6
________________
 62
     7
 10
101.0060614859765
 20
-59.35314108057733
 30
0.0
  0
VERTEX
  5
8104
  8
0
  6
________________
 62
     7
 10
101.5633641196028
 20
-59.48303069565065
 30
0.0
  0
VERTEX
  5
8105
  8
0
  6
________________
 62
     7
 10
102.1709907013801
 20
-59.5672961840353
 30
0.0
  0
VERTEX
  5
8106
  8
0
  6
________________
 62
     7
 10
102.8067766557043
 20
-59.60286376844086
 30
0.0
  0
VERTEX
  5
8107
  8
0
  6
________________
 62
     7
 10
103.4475302291609
 20
-59.58843603950891
 30
0.0
  0
VERTEX
  5
8108
  8
0
  6
________________
 62
     7
 10
104.0698784630144
 20
-59.52453928180026
 30
0.0
  0
VERTEX
  5
8109
  8
0
  6
________________
 62
     7
 10
104.651119775578
 20
-59.41350427635635
 30
0.0
  0
VERTEX
  5
810A
  8
0
  6
________________
 62
     7
 10
105.1700520545627
 20
-59.2593812801058
 30
0.0
  0
VERTEX
  5
810B
  8
0
  6
________________
 62
     7
 10
105.6077460528359
 20
-59.06779228343741
 30
0.0
  0
VERTEX
  5
810C
  8
0
  6
________________
 62
     7
 10
105.9482358761999
 20
-58.84572593518408
 30
0.0
  0
SEQEND
  5
810D
  8
0
  6
________________
 62
     7
  0
POLYLINE
  5
7F19
  8
0
  6
________________
 62
     7
 66
     1
 10
0.0
 20
0.0
 30
0.0
  0
VERTEX
  5
810E
  8
0
  6
________________
 62
     7
 10
106.3029605144402
 20
-58.23227667088371
 30
0.0
  0
VERTEX
  5
810F
  8
0
  6
________________
 62
     7
 10
106.245555153571
 20
-57.97979939482897
 30
0.0
  0
VERTEX
  5
8110
  8
0
  6
________________
 62
     7
 10
106.0753006039578
 20
-57.73594923135705
 30
0.0
  0
VERTEX
  5
8111
  8
0
  6
________________
 62
     7
 10
105.7980144393275
 20
-57.50905850584534
 30
0.0
  0
VERTEX
  5
8112
  8
0
  6
________________
 62
     7
 10
105.4231714884582
 20
-57.3068800420901
 30
0.0
  0
VERTEX
  5
8113
  8
0
  6
________________
 62
     7
 10
104.9635800816276
 20
-57.13632224942074
 30
0.0
  0
VERTEX
  5
8114
  8
0
  6
________________
 62
     7
 10
104.4349443917912
 20
-57.00321306333643
 30
0.0
  0
SEQEND
  5
8115
  8
0
  6
________________
 62
     7
  0
POLYLINE
  5
7F1A
  8
0
  6
________________
 62
     7
 66
     1
 10
0.0
 20
0.0
 30
0.0
  0
VERTEX
  5
8116
  8
0
  6
________________
 62
     7
 10
105.9482358761884
 20
-59.21087430686356
 30
0.0
  0
VERTEX
  5
8117
  8
0
  6
________________
 62
     7
 10
106.2130771190353
 20
-58.91258039897437
 30
0.0
  0
VERTEX
  5
8118
  8
0
  6
________________
 62
     7
 10
106.3029605144287
 20
-58.59742504256316
 30
0.0
  0
SEQEND
  5
8119
  8
0
  6
________________
 62
     7
  0
POLYLINE
  5
7F1B
  8
0
  6
________________
 62
     7
 66
     1
 10
0.0
 20
0.0
 30
0.0
  0
VERTEX
  5
811A
  8
0
  6
________________
 62
     7
 10
99.9376851525343
 20
-59.21087430659647
 30
0.0
  0
VERTEX
  5
811B
  8
0
  6
________________
 62
     7
 10
100.2988110133024
 20
-59.44379704635546
 30
0.0
  0
VERTEX
  5
811C
  8
0
  6
________________
 62
     7
 10
100.766720712916
 20
-59.64253909715227
 30
0.0
  0
VERTEX
  5
811D
  8
0
  6
________________
 62
     7
 10
101.3225177427106
 20
-59.79907427169488
 30
0.0
  0
VERTEX
  5
811E
  8
0
  6
________________
 62
     7
 10
101.9437562688049
 20
-59.90708090517395
 30
0.0
  0
VERTEX
  5
811F
  8
0
  6
________________
 62
     7
 10
102.6053476059232
 20
-59.96219715536427
 30
0.0
  0
VERTEX
  5
8120
  8
0
  6
________________
 62
     7
 10
103.2805734226345
 20
-59.96219715539428
 30
0.0
  0
VERTEX
  5
8121
  8
0
  6
________________
 62
     7
 10
103.942164759765
 20
-59.90708090526275
 30
0.0
  0
VERTEX
  5
8122
  8
0
  6
________________
 62
     7
 10
104.5634032858829
 20
-59.7990742718389
 30
0.0
  0
VERTEX
  5
8123
  8
0
  6
________________
 62
     7
 10
105.119200315712
 20
-59.64253909734568
 30
0.0
  0
VERTEX
  5
8124
  8
0
  6
________________
 62
     7
 10
105.5871100153692
 20
-59.44379704659046
 30
0.0
  0
VERTEX
  5
8125
  8
0
  6
________________
 62
     7
 10
105.9482358761884
 20
-59.21087430686357
 30
0.0
  0
SEQEND
  5
8126
  8
0
  6
________________
 62
     7
  0
LINE
  5
7F1C
  8
0
  6
________________
 62
     7
 10
102.4063041998625
 20
-57.59659008435058
 30
0.0
 11
102.4063041998361
 21
-58.43740250383662
 31
0.0
  0
LINE
  5
7F1D
  8
0
  6
________________
 62
     7
 10
103.4796168290625
 20
-57.4505307357302
 30
0.0
 11
103.47961682905
 21
-57.84641454160901
 31
0.0
  0
LINE
  5
7F1E
  8
0
  6
________________
 62
     7
 10
101.5117162425493
 20
-57.2424167699635
 30
0.0
 11
101.6399277099093
 21
-57.52996244064541
 31
0.0
  0
LINE
  5
7F1F
  8
0
  6
________________
 62
     7
 10
103.3902544931099
 20
-56.98678009359126
 30
0.0
 11
103.2292385306132
 21
-57.77226216893173
 31
0.0
  0
LINE
  5
7F20
  8
0
  6
________________
 62
     7
 10
102.7640750762624
 20
-57.30447138706127
 30
0.0
 11
102.764075076237
 21
-58.11587021035031
 31
0.0
  0
POLYLINE
  5
7F21
  8
0
  6
________________
 62
     7
 66
     1
 10
0.0
 20
0.0
 30
0.0
  0
VERTEX
  5
8127
  8
0
  6
________________
 62
     7
 10
115.4649411883772
 20
-59.4737811345072
 30
0.0
  0
VERTEX
  5
8128
  8
0
  6
________________
 62
     7
 10
115.4374433200976
 20
-59.18322050199777
 30
0.0
  0
VERTEX
  5
8129
  8
0
  6
________________
 62
     7
 10
115.3560064429156
 20
-58.89259999393082
 30
0.0
  0
VERTEX
  5
812A
  8
0
  6
________________
 62
     7
 10
115.2237601303511
 20
-58.6130879934495
 30
0.0
  0
VERTEX
  5
812B
  8
0
  6
________________
 62
     7
 10
115.0457865340313
 20
-58.35542598998018
 30
0.0
  0
SEQEND
  5
812C
  8
0
  6
________________
 62
     7
  0
LINE
  5
7F22
  8
0
  6
________________
 62
   253
 10
115.4649411883771
 20
-59.47378113450721
 30
0.0
 11
115.1071703119773
 21
-59.76589983184327
 31
0.0
  0
POLYLINE
  5
7F23
  8
0
  6
________________
 62
     7
 66
     1
 10
0.0
 20
0.0
 30
0.0
  0
VERTEX
  5
812D
  8
0
  6
________________
 62
     7
 10
115.1071703119773
 20
-59.76589983184329
 30
0.0
  0
VERTEX
  5
812E
  8
0
  6
________________
 62
     7
 10
115.0796724436976
 20
-59.47533919933386
 30
0.0
  0
VERTEX
  5
812F
  8
0
  6
________________
 62
     7
 10
114.9982355665156
 20
-59.18471869126691
 30
0.0
  0
VERTEX
  5
8130
  8
0
  6
________________
 62
     7
 10
114.8659892539511
 20
-58.9052066907856
 30
0.0
  0
VERTEX
  5
8131
  8
0
  6
________________
 62
     7
 10
114.6880156576313
 20
-58.64754468731628
 30
0.0
  0
SEQEND
  5
8132
  8
0
  6
________________
 62
     7
  0
LINE
  5
7F24
  8
0
  6
________________
 62
     7
 10
115.1071703119773
 20
-97.01103374219457
 30
0.0
 11
115.1071703119773
 21
-59.76589983184327
 31
0.0
  0
POLYLINE
  5
7F25
  8
0
  6
________________
 62
     7
 66
     1
 10
0.0
 20
0.0
 30
0.0
  0
VERTEX
  5
8133
  8
0
  6
________________
 62
     7
 10
113.6760868063774
 20
-98.17950853153893
 30
0.0
  0
VERTEX
  5
8134
  8
0
  6
________________
 62
     7
 10
113.9552773483168
 20
-98.20843316797773
 30
0.0
  0
VERTEX
  5
8135
  8
0
  6
________________
 62
     7
 10
114.2237387543014
 20
-98.18011645827644
 30
0.0
  0
VERTEX
  5
8136
  8
0
  6
________________
 62
     7
 10
114.471154203054
 20
-98.0956465977087
 30
0.0
  0
VERTEX
  5
8137
  8
0
  6
________________
 62
     7
 10
114.6880156576313
 20
-97.95826971564486
 30
0.0
  0
SEQEND
  5
8138
  8
0
  6
________________
 62
     7
  0
LINE
  5
7F26
  8
0
  6
________________
 62
     7
 10
111.8156782490975
 20
-97.79975422500202
 30
0.0
 11
113.6760868063774
 21
-98.17950853153893
 31
0.0
  0
LINE
  5
7F27
  8
0
  6
________________
 62
   253
 10
115.4649411883772
 20
-96.71891504485849
 30
0.0
 11
115.1071703119773
 21
-97.01103374219457
 31
0.0
  0
LINE
  5
7F28
  8
0
  6
________________
 62
     7
 10
115.4649411883772
 20
-96.71891504485849
 30
0.0
 11
115.4649411883771
 21
-59.47378113450721
 31
0.0
  0
POLYLINE
  5
7F29
  8
0
  6
________________
 62
     7
 66
     1
 10
0.0
 20
0.0
 30
0.0
  0
VERTEX
  5
8139
  8
0
  6
________________
 62
     7
 10
115.0457865340312
 20
-97.66615101830877
 30
0.0
  0
VERTEX
  5
813A
  8
0
  6
________________
 62
     7
 10
115.223760130351
 20
-97.48114643128471
 30
0.0
  0
VERTEX
  5
813B
  8
0
  6
________________
 62
     7
 10
115.3560064429156
 20
-97.25562376182803
 30
0.0
  0
VERTEX
  5
813C
  8
0
  6
________________
 62
     7
 10
115.4374433200976
 20
-96.99824971965134
 30
0.0
  0
VERTEX
  5
813D
  8
0
  6
________________
 62
     7
 10
115.4649411883772
 20
-96.71891504485846
 30
0.0
  0
SEQEND
  5
813E
  8
0
  6
________________
 62
     7
  0
POLYLINE
  5
7F2A
  8
0
  6
________________
 62
     7
 66
     1
 10
0.0
 20
0.0
 30
0.0
  0
VERTEX
  5
813F
  8
0
  6
________________
 62
     7
 10
114.6880156576313
 20
-97.95826971564486
 30
0.0
  0
VERTEX
  5
8140
  8
0
  6
________________
 62
     7
 10
114.8659892539511
 20
-97.77326512862082
 30
0.0
  0
VERTEX
  5
8141
  8
0
  6
________________
 62
     7
 10
114.9982355665156
 20
-97.54774245916413
 30
0.0
  0
VERTEX
  5
8142
  8
0
  6
________________
 62
     7
 10
115.0796724436976
 20
-97.29036841698745
 30
0.0
  0
VERTEX
  5
8143
  8
0
  6
________________
 62
     7
 10
115.1071703119772
 20
-97.01103374219458
 30
0.0
  0
SEQEND
  5
8144
  8
0
  6
________________
 62
     7
  0
LINE
  5
7F2B
  8
0
  6
________________
 62
     7
 10
108.3095236603779
 20
-63.85556159454852
 30
0.0
 11
108.5957403614979
 21
-63.62186663667963
 31
0.0
  0
LINE
  5
7F2C
  8
0
  6
________________
 62
     7
 10
108.5957403614979
 20
-63.62186663667963
 30
0.0
 11
111.8156782490975
 21
-60.99279836065485
 31
0.0
  0
LINE
  5
7F2D
  8
0
  6
________________
 62
     7
 10
111.8156782490975
 20
-60.99279836065485
 30
0.0
 11
116.180482941177
 21
-57.42895025315455
 31
0.0
  0
LINE
  5
7F2E
  8
0
  6
________________
 62
     7
 10
108.3095236603779
 20
-61.66467136452785
 30
0.0
 11
108.3095236603779
 21
-63.85556159454852
 31
0.0
  0
LINE
  5
7F2F
  8
0
  6
________________
 62
     7
 10
117.253795570377
 20
-54.3617039311256
 30
0.0
 11
108.3095236603779
 21
-61.66467136452785
 31
0.0
  0
LINE
  5
7F30
  8
0
  6
________________
 62
     7
 10
117.253795570377
 20
-95.98861830151826
 30
0.0
 11
117.253795570377
 21
-54.3617039311256
 31
0.0
  0
LINE
  5
7F31
  8
0
  6
________________
 62
   253
 10
116.180482941177
 20
-96.86497439352651
 30
0.0
 11
117.253795570377
 21
-95.98861830151826
 31
0.0
  0
LINE
  5
7F32
  8
0
  6
________________
 62
     7
 10
116.180482941177
 20
-57.42895025315455
 30
0.0
 11
116.180482941177
 21
-96.86497439352651
 31
0.0
  0
LINE
  5
7F33
  8
0
  6
________________
 62
     7
 10
108.3095236603779
 20
-63.85556159454852
 30
0.0
 11
108.2317918260094
 21
-63.83969465030073
 31
0.0
  0
LINE
  5
7F34
  8
0
  6
________________
 62
     7
 10
108.3095236603779
 20
-61.66467136452785
 30
0.0
 11
108.2317918260094
 21
-61.64880442028006
 31
0.0
  0
LINE
  5
7F35
  8
0
  6
________________
 62
     7
 10
108.2317918260094
 20
-61.64880442028006
 30
0.0
 11
98.29193912117876
 21
-59.6198404831752
 31
0.0
  0
LINE
  5
7F36
  8
0
  6
________________
 62
     7
 10
98.29193912117876
 20
-55.96835676647412
 30
0.0
 11
89.70543808757964
 21
-54.21564458245759
 31
0.0
  0
LINE
  5
7F37
  8
0
  6
________________
 62
     7
 10
89.70543808757964
 20
-54.21564458245759
 30
0.0
 11
87.9165837055798
 21
-55.67623806913802
 31
0.0
  0
POLYLINE
  5
7F38
  8
0
  6
________________
 62
     7
 66
     1
 10
0.0
 20
0.0
 30
0.0
  0
VERTEX
  5
8145
  8
0
  6
________________
 62
     7
 10
82.55002055958029
 20
-56.40653481247823
 30
0.0
  0
VERTEX
  5
8146
  8
0
  6
________________
 62
     7
 10
83.28236924977848
 20
-56.52094374501237
 30
0.0
  0
VERTEX
  5
8147
  8
0
  6
________________
 62
     7
 10
84.05531886121739
 20
-56.57482621784764
 30
0.0
  0
VERTEX
  5
8148
  8
0
  6
________________
 62
     7
 10
84.83916537380456
 20
-56.56611155777059
 30
0.0
  0
VERTEX
  5
8149
  8
0
  6
________________
 62
     7
 10
85.60378600564745
 20
-56.49513466428076
 30
0.0
  0
VERTEX
  5
814A
  8
0
  6
________________
 62
     7
 10
86.31979681466854
 20
-56.36462313959067
 30
0.0
  0
VERTEX
  5
814B
  8
0
  6
________________
 62
     7
 10
86.95968190702061
 20
-56.17959246840245
 30
0.0
  0
VERTEX
  5
814C
  8
0
  6
________________
 62
     7
 10
87.49885085745629
 20
-55.94715327564346
 30
0.0
  0
VERTEX
  5
814D
  8
0
  6
________________
 62
     7
 10
87.91658370557977
 20
-55.67623806913803
 30
0.0
  0
SEQEND
  5
814E
  8
0
  6
________________
 62
     7
  0
LINE
  5
7F39
  8
0
  6
________________
 62
     7
 10
82.55002055958028
 20
-56.40653481247823
 30
0.0
 11
72.61016785474965
 21
-54.37757087537339
 31
0.0
  0
LINE
  5
7F3A
  8
0
  6
________________
 62
     7
 10
72.61016785474965
 20
-54.37757087537337
 30
0.0
 11
72.53243602038117
 21
-54.3617039311256
 31
0.0
  0
LINE
  5
7F3B
  8
0
  6
________________
 62
     7
 10
81.47670793038037
 20
-47.05873649772342
 30
0.0
 11
72.53243602038117
 21
-54.3617039311256
 31
0.0
  0
LINE
  5
7F3C
  8
0
  6
________________
 62
     7
 10
117.253795570377
 20
-54.3617039311256
 30
0.0
 11
81.47670793038037
 21
-47.05873649772342
 31
0.0
  0
POLYLINE
  5
7F3D
  8
0
  6
________________
 62
     7
 66
     1
 10
0.0
 20
0.0
 30
0.0
  0
VERTEX
  5
814F
  8
0
  6
________________
 62
     7
 10
96.50308473917896
 20
-57.42895025315455
 30
0.0
  0
VERTEX
  5
8150
  8
0
  6
________________
 62
     7
 10
96.18779754530769
 20
-57.78406204832461
 30
0.0
  0
VERTEX
  5
8151
  8
0
  6
________________
 62
     7
 10
96.0807935031786
 20
-58.15924699649479
 30
0.0
  0
SEQEND
  5
8152
  8
0
  6
________________
 62
     7
  0
LINE
  5
7F3E
  8
0
  6
________________
 62
     7
 10
96.50308473917892
 20
-57.42895025315453
 30
0.0
 11
98.29193912117876
 21
-55.96835676647412
 31
0.0
  0
POLYLINE
  5
7F3F
  8
0
  6
________________
 62
     7
 66
     1
 10
0.0
 20
0.0
 30
0.0
  0
VERTEX
  5
8153
  8
0
  6
________________
 62
     7
 10
105.8051275255781
 20
-59.32772178583912
 30
0.0
  0
VERTEX
  5
8154
  8
0
  6
________________
 62
     7
 10
105.4611981343377
 20
-59.54955296656042
 30
0.0
  0
VERTEX
  5
8155
  8
0
  6
________________
 62
     7
 10
105.0155698489736
 20
-59.7388311101673
 30
0.0
  0
VERTEX
  5
8156
  8
0
  6
________________
 62
     7
 10
104.4862393444033
 20
-59.8879122287636
 30
0.0
  0
VERTEX
  5
8157
  8
0
  6
________________
 62
     7
 10
103.8945836052744
 20
-59.99077568919864
 30
0.0
  0
VERTEX
  5
8158
  8
0
  6
________________
 62
     7
 10
103.2644966175612
 20
-60.04326735602108
 30
0.0
  0
VERTEX
  5
8159
  8
0
  6
________________
 62
     7
 10
102.6214244111954
 20
-60.04326735602108
 30
0.0
  0
VERTEX
  5
815A
  8
0
  6
________________
 62
     7
 10
101.9913374234823
 20
-59.99077568919864
 30
0.0
  0
VERTEX
  5
815B
  8
0
  6
________________
 62
     7
 10
101.3996816843534
 20
-59.8879122287636
 30
0.0
  0
VERTEX
  5
815C
  8
0
  6
________________
 62
     7
 10
100.8703511797831
 20
-59.7388311101673
 30
0.0
  0
VERTEX
  5
815D
  8
0
  6
________________
 62
     7
 10
100.4247228944189
 20
-59.54955296656042
 30
0.0
  0
VERTEX
  5
815E
  8
0
  6
________________
 62
     7
 10
100.0807935031786
 20
-59.32772178583912
 30
0.0
  0
SEQEND
  5
815F
  8
0
  6
________________
 62
     7
  0
POLYLINE
  5
7F40
  8
0
  6
________________
 62
     7
 66
     1
 10
0.0
 20
0.0
 30
0.0
  0
VERTEX
  5
8160
  8
0
  6
________________
 62
     7
 10
96.0807935031786
 20
-58.15924699649479
 30
0.0
  0
VERTEX
  5
8161
  8
0
  6
________________
 62
     7
 10
96.14869928896807
 20
-58.45886761510331
 30
0.0
  0
VERTEX
  5
8162
  8
0
  6
________________
 62
     7
 10
96.35011104846467
 20
-58.74831524693916
 30
0.0
  0
VERTEX
  5
8163
  8
0
  6
________________
 62
     7
 10
96.67819026977044
 20
-59.01776230755999
 30
0.0
  0
VERTEX
  5
8164
  8
0
  6
________________
 62
     7
 10
97.1217977142234
 20
-59.25806028977573
 30
0.0
  0
VERTEX
  5
8165
  8
0
  6
________________
 62
     7
 10
97.66587162577476
 20
-59.46105038193338
 30
0.0
  0
VERTEX
  5
8166
  8
0
  6
________________
 62
     7
 10
98.29193912117876
 20
-59.61984048317522
 30
0.0
  0
SEQEND
  5
8167
  8
0
  6
________________
 62
     7
  0
LINE
  5
7F41
  8
0
  6
________________
 62
   253
 10
87.9165837055798
 20
-55.67623806913802
 30
0.0
 11
87.9165837055798
 21
-56.11630313228103
 31
0.0
  0
LINE
  5
7F42
  8
0
  6
________________
 62
     7
 10
72.53243602038117
 20
-54.3617039311256
 30
0.0
 11
72.53243602038117
 21
-56.55259416114627
 31
0.0
  0
LINE
  5
7F43
  8
0
  6
________________
 62
     7
 10
72.565277979901
 20
-56.55929799806101
 30
0.0
 11
72.53243602038117
 21
-56.55259416114627
 31
0.0
  0
POLYLINE
  5
7F44
  8
0
  6
________________
 62
     7
 66
     1
 10
0.0
 20
0.0
 30
0.0
  0
VERTEX
  5
8168
  8
0
  6
________________
 62
     7
 10
84.33887494158012
 20
-54.94594132579778
 30
0.0
  0
VERTEX
  5
8169
  8
0
  6
________________
 62
     7
 10
83.99494555033978
 20
-55.16777250651908
 30
0.0
  0
VERTEX
  5
816A
  8
0
  6
________________
 62
     7
 10
83.54931726497563
 20
-55.35705065012596
 30
0.0
  0
VERTEX
  5
816B
  8
0
  6
________________
 62
     7
 10
83.01998676040532
 20
-55.50613176872226
 30
0.0
  0
VERTEX
  5
816C
  8
0
  6
________________
 62
     7
 10
82.42833102127642
 20
-55.60899522915729
 30
0.0
  0
VERTEX
  5
816D
  8
0
  6
________________
 62
     7
 10
81.79824403356328
 20
-55.66148689597973
 30
0.0
  0
VERTEX
  5
816E
  8
0
  6
________________
 62
     7
 10
81.15517182719746
 20
-55.66148689597973
 30
0.0
  0
VERTEX
  5
816F
  8
0
  6
________________
 62
     7
 10
80.52508483948434
 20
-55.60899522915729
 30
0.0
  0
VERTEX
  5
8170
  8
0
  6
________________
 62
     7
 10
79.93342910035543
 20
-55.50613176872226
 30
0.0
  0
VERTEX
  5
8171
  8
0
  6
________________
 62
     7
 10
79.40409859578511
 20
-55.35705065012596
 30
0.0
  0
VERTEX
  5
8172
  8
0
  6
________________
 62
     7
 10
78.95847031042096
 20
-55.16777250651908
 30
0.0
  0
VERTEX
  5
8173
  8
0
  6
________________
 62
     7
 10
78.61454091918063
 20
-54.94594132579778
 30
0.0
  0
SEQEND
  5
8174
  8
0
  6
________________
 62
     7
  0
LINE
  5
7F45
  8
0
  6
________________
 62
     7
 10
89.70543808757964
 20
-54.21564458245759
 30
0.0
 11
89.70543808757964
 21
-54.44690521784865
 31
0.0
  0
POLYLINE
  5
7F46
  8
0
  6
________________
 62
     7
 66
     1
 10
0.0
 20
0.0
 30
0.0
  0
VERTEX
  5
8175
  8
0
  6
________________
 62
     7
 10
114.0338576827774
 20
-98.61768657754305
 30
0.0
  0
VERTEX
  5
8176
  8
0
  6
________________
 62
     7
 10
114.4526434956865
 20
-98.66107353220124
 30
0.0
  0
VERTEX
  5
8177
  8
0
  6
________________
 62
     7
 10
114.8553356046634
 20
-98.61859846764932
 30
0.0
  0
VERTEX
  5
8178
  8
0
  6
________________
 62
     7
 10
115.2264587777923
 20
-98.49189367679769
 30
0.0
  0
VERTEX
  5
8179
  8
0
  6
________________
 62
     7
 10
115.5517509596582
 20
-98.28582835370194
 30
0.0
  0
SEQEND
  5
817A
  8
0
  6
________________
 62
     7
  0
LINE
  5
7F47
  8
0
  6
________________
 62
     7
 10
114.0338576827774
 20
-98.61768657754305
 30
0.0
 11
111.8156782490975
 21
-98.16490259667212
 31
0.0
  0
POLYLINE
  5
7F48
  8
0
  6
________________
 62
     7
 66
     1
 10
0.0
 20
0.0
 30
0.0
  0
VERTEX
  5
817B
  8
0
  6
________________
 62
     7
 10
115.5517509596582
 20
-98.28582835370194
 30
0.0
  0
VERTEX
  5
817C
  8
0
  6
________________
 62
     7
 10
115.8187113541379
 20
-98.00832147316588
 30
0.0
  0
VERTEX
  5
817D
  8
0
  6
________________
 62
     7
 10
116.0170808229847
 20
-97.67003746898084
 30
0.0
  0
VERTEX
  5
817E
  8
0
  6
________________
 62
     7
 10
116.1392361387577
 20
-97.2839764057158
 30
0.0
  0
VERTEX
  5
817F
  8
0
  6
________________
 62
     7
 10
116.1804829411771
 20
-96.8649743935265
 30
0.0
  0
SEQEND
  5
8180
  8
0
  6
________________
 62
     7
  0
POLYLINE
  5
7F49
  8
0
  6
________________
 62
     7
 66
     1
 10
0.0
 20
0.0
 30
0.0
  0
VERTEX
  5
8181
  8
0
  6
________________
 62
     7
 10
117.2537955703771
 20
-95.98861830151826
 30
0.0
  0
VERTEX
  5
8182
  8
0
  6
________________
 62
     7
 10
117.2125487679576
 20
-96.40762031370755
 30
0.0
  0
VERTEX
  5
8183
  8
0
  6
________________
 62
     7
 10
117.0903934521846
 20
-96.79368137697259
 30
0.0
  0
VERTEX
  5
8184
  8
0
  6
________________
 62
     7
 10
116.8920239833378
 20
-97.13196538115761
 30
0.0
  0
VERTEX
  5
8185
  8
0
  6
________________
 62
     7
 10
116.6250635888581
 20
-97.4094722616937
 30
0.0
  0
SEQEND
  5
8186
  8
0
  6
________________
 62
     7
  0
POLYLINE
  5
7F4A
  8
0
  6
________________
 62
     7
 66
     1
 10
0.0
 20
0.0
 30
0.0
 70
     1
  0
VERTEX
  5
8187
  8
0
  6
________________
 62
     7
 10
90.33889387382355
 20
-94.57354979695286
 30
0.0
  0
VERTEX
  5
8188
  8
0
  6
________________
 62
     7
 10
91.40673545174228
 20
-93.46352227480867
 30
0.0
  0
VERTEX
  5
8189
  8
0
  6
________________
 62
     7
 10
92.20021332712936
 20
-92.1103862580686
 30
0.0
  0
VERTEX
  5
818A
  8
0
  6
________________
 62
     7
 10
92.68883459022119
 20
-90.56614200500854
 30
0.0
  0
VERTEX
  5
818B
  8
0
  6
________________
 62
     7
 10
92.85382179989908
 20
-88.89013395625145
 30
0.0
  0
VERTEX
  5
818C
  8
0
  6
________________
 62
     7
 10
92.68883459022103
 20
-87.14677016119491
 30
0.0
  0
VERTEX
  5
818D
  8
0
  6
________________
 62
     7
 10
92.20021332712908
 20
-85.40304711279325
 30
0.0
  0
VERTEX
  5
818E
  8
0
  6
________________
 62
     7
 10
91.40673545174187
 20
-83.72597510990542
 30
0.0
  0
VERTEX
  5
818F
  8
0
  6
________________
 62
     7
 10
90.33889387382303
 20
-82.18000308908955
 30
0.0
  0
VERTEX
  5
8190
  8
0
  6
________________
 62
     7
 10
89.03772514635949
 20
-80.82454188811454
 30
0.0
  0
VERTEX
  5
8191
  8
0
  6
________________
 62
     7
 10
87.5532324538439
 20
-79.71168112078243
 30
0.0
  0
VERTEX
  5
8192
  8
0
  6
________________
 62
     7
 10
85.94246401793652
 20
-78.8841874022823
 30
0.0
  0
VERTEX
  5
8193
  8
0
  6
________________
 62
     7
 10
84.26732076629987
 20
-78.37386085215226
 30
0.0
  0
VERTEX
  5
8194
  8
0
  6
________________
 62
     7
 10
82.59217751466328
 20
-78.20031303351941
 30
0.0
  0
VERTEX
  5
8195
  8
0
  6
________________
 62
     7
 10
80.98140907875593
 20
-78.37021329172708
 30
0.0
  0
VERTEX
  5
8196
  8
0
  6
________________
 62
     7
 10
79.49691638624039
 20
-78.87703245513349
 30
0.0
  0
VERTEX
  5
8197
  8
0
  6
________________
 62
     7
 10
78.19574765877697
 20
-79.70129374751637
 30
0.0
  0
VERTEX
  5
8198
  8
0
  6
________________
 62
     7
 10
77.12790608085822
 20
-80.81132126966057
 30
0.0
  0
VERTEX
  5
8199
  8
0
  6
________________
 62
     7
 10
76.33442820547116
 20
-82.16445728640063
 30
0.0
  0
VERTEX
  5
819A
  8
0
  6
________________
 62
     7
 10
75.84580694237934
 20
-83.70870153946069
 30
0.0
  0
VERTEX
  5
819B
  8
0
  6
________________
 62
     7
 10
75.68081973270144
 20
-85.38470958821779
 30
0.0
  0
VERTEX
  5
819C
  8
0
  6
________________
 62
     7
 10
75.84580694237948
 20
-87.12807338327434
 30
0.0
  0
VERTEX
  5
819D
  8
0
  6
________________
 62
     7
 10
76.33442820547145
 20
-88.871796431676
 30
0.0
  0
VERTEX
  5
819E
  8
0
  6
________________
 62
     7
 10
77.12790608085866
 20
-90.54886843456384
 30
0.0
  0
VERTEX
  5
819F
  8
0
  6
________________
 62
     7
 10
78.1957476587775
 20
-92.0948404553797
 30
0.0
  0
VERTEX
  5
81A0
  8
0
  6
________________
 62
     7
 10
79.49691638624104
 20
-93.45030165635471
 30
0.0
  0
VERTEX
  5
81A1
  8
0
  6
________________
 62
     7
 10
80.98140907875664
 20
-94.56316242368683
 30
0.0
  0
VERTEX
  5
81A2
  8
0
  6
________________
 62
     7
 10
82.59217751466403
 20
-95.39065614218696
 30
0.0
  0
VERTEX
  5
81A3
  8
0
  6
________________
 62
     7
 10
84.26732076630067
 20
-95.90098269231697
 30
0.0
  0
VERTEX
  5
81A4
  8
0
  6
________________
 62
     7
 10
85.94246401793727
 20
-96.07453051094981
 30
0.0
  0
VERTEX
  5
81A5
  8
0
  6
________________
 62
     7
 10
87.55323245384463
 20
-95.90463025274215
 30
0.0
  0
VERTEX
  5
81A6
  8
0
  6
________________
 62
     7
 10
89.03772514636015
 20
-95.39781108933575
 30
0.0
  0
SEQEND
  5
81A7
  8
0
  6
________________
 62
     7
  0
POLYLINE
  5
7F4B
  8
0
  6
________________
 62
     7
 66
     1
 10
0.0
 20
0.0
 30
0.0
  0
VERTEX
  5
81A8
  8
0
  6
________________
 62
     7
 10
93.39047811449922
 20
-88.81710428191711
 30
0.0
  0
VERTEX
  5
81A9
  8
0
  6
________________
 62
     7
 10
93.21861643775138
 20
-90.56294599937249
 30
0.0
  0
VERTEX
  5
81AA
  8
0
  6
________________
 62
     7
 10
92.70963595536402
 20
-92.17153376297678
 30
0.0
  0
VERTEX
  5
81AB
  8
0
  6
________________
 62
     7
 10
91.88309650183578
 20
-93.58105044708108
 30
0.0
  0
VERTEX
  5
81AC
  8
0
  6
________________
 62
     7
 10
90.77076152483704
 20
-94.73732911598137
 30
0.0
  0
SEQEND
  5
81AD
  8
0
  6
________________
 62
     7
  0
POLYLINE
  5
7F4C
  8
0
  6
________________
 62
     7
 66
     1
 10
0.0
 20
0.0
 30
0.0
  0
VERTEX
  5
81AE
  8
0
  6
________________
 62
     7
 10
92.5596159068368
 20
-93.27673562930102
 30
0.0
  0
VERTEX
  5
81AF
  8
0
  6
________________
 62
     7
 10
93.67195088383555
 20
-92.12045696040076
 30
0.0
  0
VERTEX
  5
81B0
  8
0
  6
________________
 62
     7
 10
94.49849033736382
 20
-90.71094027629647
 30
0.0
  0
VERTEX
  5
81B1
  8
0
  6
________________
 62
     7
 10
95.00747081975119
 20
-89.10235251269219
 30
0.0
  0
VERTEX
  5
81B2
  8
0
  6
________________
 62
     7
 10
95.17933249649907
 20
-87.35651079523683
 30
0.0
  0
VERTEX
  5
81B3
  8
0
  6
________________
 62
     7
 10
95.00747081975115
 20
-85.54050684205289
 30
0.0
  0
VERTEX
  5
81B4
  8
0
  6
________________
 62
     7
 10
94.49849033736372
 20
-83.72412866663447
 30
0.0
  0
VERTEX
  5
81B5
  8
0
  6
________________
 62
     7
 10
93.67195088383541
 20
-81.97717866362628
 30
0.0
  0
VERTEX
  5
81B6
  8
0
  6
________________
 62
     7
 10
92.55961590683661
 20
-80.3667911419431
 30
0.0
  0
VERTEX
  5
81B7
  8
0
  6
________________
 62
     7
 10
91.20423181572876
 20
-78.95485239092746
 30
0.0
  0
VERTEX
  5
81B8
  8
0
  6
________________
 62
     7
 10
89.65788526102499
 20
-77.79562242495652
 30
0.0
  0
VERTEX
  5
81B9
  8
0
  6
________________
 62
     7
 10
87.98000147362143
 20
-76.93364980151891
 30
0.0
  0
VERTEX
  5
81BA
  8
0
  6
________________
 62
     7
 10
86.2350605864999
 20
-76.4020596451335
 30
0.0
  0
VERTEX
  5
81BB
  8
0
  6
________________
 62
     7
 10
84.49011969937838
 20
-76.221280667391
 30
0.0
  0
VERTEX
  5
81BC
  8
0
  6
________________
 62
     7
 10
82.81223591197482
 20
-76.39826010302403
 30
0.0
  0
VERTEX
  5
81BD
  8
0
  6
________________
 62
     7
 10
81.26588935727106
 20
-76.92619673157243
 30
0.0
  0
VERTEX
  5
81BE
  8
0
  6
________________
 62
     7
 10
79.91050526616326
 20
-77.78480224447134
 30
0.0
  0
SEQEND
  5
81BF
  8
0
  6
________________
 62
     7
  0
POLYLINE
  5
7F4D
  8
0
  6
________________
 62
     7
 66
     1
 10
0.0
 20
0.0
 30
0.0
  0
VERTEX
  5
81C0
  8
0
  6
________________
 62
     7
 10
78.12165088416343
 20
-79.24539573115176
 30
0.0
  0
VERTEX
  5
81C1
  8
0
  6
________________
 62
     7
 10
79.47703497527124
 20
-78.38679021825286
 30
0.0
  0
VERTEX
  5
81C2
  8
0
  6
________________
 62
     7
 10
81.02338152997498
 20
-77.85885358970445
 30
0.0
  0
VERTEX
  5
81C3
  8
0
  6
________________
 62
     7
 10
82.70126531737854
 20
-77.68187415407142
 30
0.0
  0
VERTEX
  5
81C4
  8
0
  6
________________
 62
     7
 10
84.44620620450004
 20
-77.86265313181393
 30
0.0
  0
VERTEX
  5
81C5
  8
0
  6
________________
 62
     7
 10
86.19114709162159
 20
-78.39424328819933
 30
0.0
  0
VERTEX
  5
81C6
  8
0
  6
________________
 62
     7
 10
87.86903087902515
 20
-79.25621591163696
 30
0.0
  0
VERTEX
  5
81C7
  8
0
  6
________________
 62
     7
 10
89.41537743372892
 20
-80.41544587760788
 30
0.0
  0
VERTEX
  5
81C8
  8
0
  6
________________
 62
     7
 10
90.77076152483677
 20
-81.82738462862352
 30
0.0
  0
VERTEX
  5
81C9
  8
0
  6
________________
 62
     7
 10
91.88309650183555
 20
-83.43777215030671
 30
0.0
  0
VERTEX
  5
81CA
  8
0
  6
________________
 62
     7
 10
92.70963595536386
 20
-85.18472215331488
 30
0.0
  0
VERTEX
  5
81CB
  8
0
  6
________________
 62
     7
 10
93.21861643775131
 20
-87.00110032873332
 30
0.0
  0
VERTEX
  5
81CC
  8
0
  6
________________
 62
     7
 10
93.39047811449922
 20
-88.81710428191725
 30
0.0
  0
SEQEND
  5
81CD
  8
0
  6
________________
 62
     7
  0
POLYLINE
  5
7F4E
  8
0
  6
________________
 62
     7
 66
     1
 10
0.0
 20
0.0
 30
0.0
  0
VERTEX
  5
81CE
  8
0
  6
________________
 62
     7
 10
90.77076152483696
 20
-94.73732911598142
 30
0.0
  0
VERTEX
  5
81CF
  8
0
  6
________________
 62
     7
 10
89.41537743372915
 20
-95.59593462888034
 30
0.0
  0
VERTEX
  5
81D0
  8
0
  6
________________
 62
     7
 10
87.8690308790254
 20
-96.12387125742873
 30
0.0
  0
VERTEX
  5
81D1
  8
0
  6
________________
 62
     7
 10
86.19114709162184
 20
-96.30085069306176
 30
0.0
  0
VERTEX
  5
81D2
  8
0
  6
________________
 62
     7
 10
84.44620620450033
 20
-96.12007171531926
 30
0.0
  0
VERTEX
  5
81D3
  8
0
  6
________________
 62
     7
 10
82.7012653173788
 20
-95.58848155893386
 30
0.0
  0
VERTEX
  5
81D4
  8
0
  6
________________
 62
     7
 10
81.02338152997523
 20
-94.72650893549624
 30
0.0
  0
VERTEX
  5
81D5
  8
0
  6
________________
 62
     7
 10
79.47703497527145
 20
-93.56727896952532
 30
0.0
  0
VERTEX
  5
81D6
  8
0
  6
________________
 62
     7
 10
78.12165088416361
 20
-92.15534021850968
 30
0.0
  0
VERTEX
  5
81D7
  8
0
  6
________________
 62
     7
 10
77.0093159071648
 20
-90.54495269682648
 30
0.0
  0
VERTEX
  5
81D8
  8
0
  6
________________
 62
     7
 10
76.18277645363649
 20
-88.79800269381829
 30
0.0
  0
VERTEX
  5
81D9
  8
0
  6
________________
 62
     7
 10
75.67379597124908
 20
-86.98162451839988
 30
0.0
  0
VERTEX
  5
81DA
  8
0
  6
________________
 62
     7
 10
75.50193429450115
 20
-85.16562056521593
 30
0.0
  0
VERTEX
  5
81DB
  8
0
  6
________________
 62
     7
 10
75.67379597124904
 20
-83.41977884776057
 30
0.0
  0
VERTEX
  5
81DC
  8
0
  6
________________
 62
     7
 10
76.18277645363641
 20
-81.81119108415629
 30
0.0
  0
VERTEX
  5
81DD
  8
0
  6
________________
 62
     7
 10
77.00931590716469
 20
-80.401674400052
 30
0.0
  0
VERTEX
  5
81DE
  8
0
  6
________________
 62
     7
 10
78.12165088416343
 20
-79.24539573115176
 30
0.0
  0
SEQEND
  5
81DF
  8
0
  6
________________
 62
     7
  0
POLYLINE
  5
7F4F
  8
0
  6
________________
 62
     7
 66
     1
 10
0.0
 20
0.0
 30
0.0
  0
VERTEX
  5
81E0
  8
0
  6
________________
 62
     7
 10
95.15391047946764
 20
-86.66354388660486
 30
0.0
  0
VERTEX
  5
81E1
  8
0
  6
________________
 62
     7
 10
95.45686499047216
 20
-85.52628840136582
 30
0.0
  0
VERTEX
  5
81E2
  8
0
  6
________________
 62
     7
 10
95.53407645265136
 20
-84.30623909620023
 30
0.0
  0
VERTEX
  5
81E3
  8
0
  6
________________
 62
     7
 10
95.38280415143304
 20
-83.046703102137
 30
0.0
  0
VERTEX
  5
81E4
  8
0
  6
________________
 62
     7
 10
95.00841768076894
 20
-81.79238917815792
 30
0.0
  0
VERTEX
  5
81E5
  8
0
  6
________________
 62
     7
 10
94.42420634287981
 20
-80.58782071952841
 30
0.0
  0
VERTEX
  5
81E6
  8
0
  6
________________
 62
     7
 10
93.65090742834185
 20
-79.47575534583834
 30
0.0
  0
VERTEX
  5
81E7
  8
0
  6
________________
 62
     7
 10
92.71597012078614
 20
-78.49566716739395
 30
0.0
  0
VERTEX
  5
81E8
  8
0
  6
________________
 62
     7
 10
91.65258115480668
 20
-77.68234560375727
 30
0.0
  0
VERTEX
  5
81E9
  8
0
  6
________________
 62
     7
 10
90.49848681253272
 20
-77.06466049107014
 30
0.0
  0
VERTEX
  5
81EA
  8
0
  6
________________
 62
     7
 10
89.29465307352673
 20
-76.66453731217696
 30
0.0
  0
VERTEX
  5
81EB
  8
0
  6
________________
 62
     7
 10
88.08381147761376
 20
-76.49617892499722
 30
0.0
  0
VERTEX
  5
81EC
  8
0
  6
________________
 62
     7
 10
86.90894231700611
 20
-76.56556141484369
 30
0.0
  0
SEQEND
  5
81ED
  8
0
  6
________________
 62
     7
  0
LINE
  5
7F50
  8
0
  6
________________
 62
     7
 10
94.69311743835317
 20
-56.83861071317565
 30
0.0
 11
94.80162373249944
 21
-57.1759203302603
 31
0.0
  0
POLYLINE
  5
7F51
  8
0
  6
________________
 62
     7
 66
     1
 10
0.0
 20
0.0
 30
0.0
  0
VERTEX
  5
81EE
  8
0
  6
________________
 62
     7
 10
88.95634870746386
 20
-56.15700041939145
 30
0.0
  0
VERTEX
  5
81EF
  8
0
  6
________________
 62
     7
 10
88.87096588502334
 20
-56.36315371858452
 30
0.0
  0
VERTEX
  5
81F0
  8
0
  6
________________
 62
     7
 10
88.88111231708191
 20
-56.57219214124629
 30
0.0
  0
VERTEX
  5
81F1
  8
0
  6
________________
 62
     7
 10
88.98643304115633
 20
-56.77680269329476
 30
0.0
  0
SEQEND
  5
81F2
  8
0
  6
________________
 62
     7
  0
POLYLINE
  5
7F52
  8
0
  6
________________
 62
     7
 66
     1
 10
0.0
 20
0.0
 30
0.0
  0
VERTEX
  5
81F3
  8
0
  6
________________
 62
     7
 10
94.246898757535
 20
-56.15700041939145
 30
0.0
  0
VERTEX
  5
81F4
  8
0
  6
________________
 62
     7
 10
94.05190472613653
 20
-55.94672095658971
 30
0.0
  0
VERTEX
  5
81F5
  8
0
  6
________________
 62
     7
 10
93.75777669503054
 20
-55.75662620457734
 30
0.0
  0
VERTEX
  5
81F6
  8
0
  6
________________
 62
     7
 10
93.37641455987202
 20
-55.59440705804735
 30
0.0
  0
VERTEX
  5
81F7
  8
0
  6
________________
 62
     7
 10
92.92324755261166
 20
-55.46662661440224
 30
0.0
  0
VERTEX
  5
81F8
  8
0
  6
________________
 62
     7
 10
92.41661000228434
 20
-55.37845464253618
 30
0.0
  0
VERTEX
  5
81F9
  8
0
  6
________________
 62
     7
 10
91.87699956074974
 20
-55.33345842320426
 30
0.0
  0
VERTEX
  5
81FA
  8
0
  6
________________
 62
     7
 10
91.32624790424913
 20
-55.33345842320426
 30
0.0
  0
VERTEX
  5
81FB
  8
0
  6
________________
 62
     7
 10
90.78663746271454
 20
-55.37845464253618
 30
0.0
  0
VERTEX
  5
81FC
  8
0
  6
________________
 62
     7
 10
90.27999991238721
 20
-55.46662661440224
 30
0.0
  0
VERTEX
  5
81FD
  8
0
  6
________________
 62
     7
 10
89.82683290512686
 20
-55.59440705804735
 30
0.0
  0
VERTEX
  5
81FE
  8
0
  6
________________
 62
     7
 10
89.44547076996834
 20
-55.75662620457733
 30
0.0
  0
VERTEX
  5
81FF
  8
0
  6
________________
 62
     7
 10
89.15134273886234
 20
-55.94672095658971
 30
0.0
  0
VERTEX
  5
8200
  8
0
  6
________________
 62
     7
 10
88.95634870746386
 20
-56.15700041939145
 30
0.0
  0
SEQEND
  5
8201
  8
0
  6
________________
 62
     7
  0
POLYLINE
  5
7F53
  8
0
  6
________________
 62
     7
 66
     1
 10
0.0
 20
0.0
 30
0.0
  0
VERTEX
  5
8202
  8
0
  6
________________
 62
     7
 10
88.5452891414352
 20
-57.56296444218732
 30
0.0
  0
VERTEX
  5
8203
  8
0
  6
________________
 62
     7
 10
88.43774393931784
 20
-57.37165171690078
 30
0.0
  0
VERTEX
  5
8204
  8
0
  6
________________
 62
     7
 10
88.40162373249943
 20
-57.1759203302603
 30
0.0
  0
SEQEND
  5
8205
  8
0
  6
________________
 62
     7
  0
POLYLINE
  5
7F54
  8
0
  6
________________
 62
     7
 66
     1
 10
0.0
 20
0.0
 30
0.0
  0
VERTEX
  5
8206
  8
0
  6
________________
 62
     7
 10
88.98643304115633
 20
-56.77680269329477
 30
0.0
  0
VERTEX
  5
8207
  8
0
  6
________________
 62
     7
 10
89.19171763093752
 20
-56.97629180353271
 30
0.0
  0
VERTEX
  5
8208
  8
0
  6
________________
 62
     7
 10
89.4872992693254
 20
-57.15589724539102
 30
0.0
  0
VERTEX
  5
8209
  8
0
  6
________________
 62
     7
 10
89.86210277395027
 20
-57.30888936193286
 30
0.0
  0
VERTEX
  5
820A
  8
0
  6
________________
 62
     7
 10
90.3020845892341
 20
-57.42953567396542
 30
0.0
  0
VERTEX
  5
820B
  8
0
  6
________________
 62
     7
 10
90.79075898598809
 20
-57.51331567096143
 30
0.0
  0
VERTEX
  5
820C
  8
0
  6
________________
 62
     7
 10
91.30981576709381
 20
-57.55709019058751
 30
0.0
  0
VERTEX
  5
820D
  8
0
  6
________________
 62
     7
 10
91.83980633438271
 20
-57.5592190403383
 30
0.0
  0
VERTEX
  5
820E
  8
0
  6
________________
 62
     7
 10
92.36087241039556
 20
-57.51962245409788
 30
0.0
  0
VERTEX
  5
820F
  8
0
  6
________________
 62
     7
 10
92.85349011046208
 20
-57.43978408090558
 30
0.0
  0
VERTEX
  5
8210
  8
0
  6
________________
 62
     7
 10
93.29920148537894
 20
-57.3226953939396
 30
0.0
  0
VERTEX
  5
8211
  8
0
  6
________________
 62
     7
 10
93.68130612442917
 20
-57.17274360266482
 30
0.0
  0
VERTEX
  5
8212
  8
0
  6
________________
 62
     7
 10
93.98548690499008
 20
-56.9955472679773
 30
0.0
  0
VERTEX
  5
8213
  8
0
  6
________________
 62
     7
 10
94.20034644244588
 20
-56.79774577970051
 30
0.0
  0
VERTEX
  5
8214
  8
0
  6
________________
 62
     7
 10
94.31783414010121
 20
-56.58675058452519
 30
0.0
  0
VERTEX
  5
8215
  8
0
  6
________________
 62
     7
 10
94.33354783791386
 20
-56.37046748566175
 30
0.0
  0
VERTEX
  5
8216
  8
0
  6
________________
 62
     7
 10
94.246898757535
 20
-56.15700041939145
 30
0.0
  0
SEQEND
  5
8217
  8
0
  6
________________
 62
     7
  0
POLYLINE
  5
7F55
  8
0
  6
________________
 62
     7
 66
     1
 10
0.0
 20
0.0
 30
0.0
  0
VERTEX
  5
8218
  8
0
  6
________________
 62
     7
 10
94.80162373249944
 20
-57.1759203302603
 30
0.0
  0
VERTEX
  5
8219
  8
0
  6
________________
 62
     7
 10
94.7572001095274
 20
-57.39284494417915
 30
0.0
  0
VERTEX
  5
821A
  8
0
  6
________________
 62
     7
 10
94.62516265203502
 20
-57.60374669730921
 30
0.0
  0
VERTEX
  5
821B
  8
0
  6
________________
 62
     7
 10
94.40917734891593
 20
-57.80276995217221
 30
0.0
  0
SEQEND
  5
821C
  8
0
  6
________________
 62
     7
  0
LINE
  5
7F56
  8
0
  6
________________
 62
     7
 10
88.79407011703199
 20
-57.80276995288065
 30
0.0
 11
88.5452891414352
 21
-57.56296444218732
 31
0.0
  0
LINE
  5
7F57
  8
0
  6
________________
 62
     7
 10
88.40162373249943
 20
-57.1759203302603
 30
0.0
 11
88.5101300266457
 21
-56.83861071317565
 31
0.0
  0
LINE
  5
7F58
  8
0
  6
________________
 62
     7
 10
108.2317918260094
 20
-61.64880442028006
 30
0.0
 11
108.2317918260094
 21
-63.83969465030073
 31
0.0
  0
LINE
  5
7F59
  8
0
  6
________________
 62
     7
 10
108.2317918260094
 20
-63.83969465030075
 30
0.0
 11
108.5957403614979
 21
-63.62186663667964
 31
0.0
  0
LINE
  5
7F5A
  8
0
  6
________________
 62
   253
 10
108.5957403614979
 20
-63.62186663667963
 30
0.0
 11
108.5957403614979
 21
-103.0578907770516
 31
0.0
  0
POLYLINE
  5
7F5B
  8
0
  6
________________
 62
   253
 66
     1
 10
0.0
 20
0.0
 30
0.0
  0
VERTEX
  5
821D
  8
0
  6
________________
 62
   253
 10
108.5957403614979
 20
-103.0578907770516
 30
0.0
  0
VERTEX
  5
821E
  8
0
  6
________________
 62
   253
 10
108.3451006526238
 20
-103.2204399009549
 30
0.0
  0
VERTEX
  5
821F
  8
0
  6
________________
 62
   253
 10
108.0215992823624
 20
-103.3599034166103
 30
0.0
  0
VERTEX
  5
8220
  8
0
  6
________________
 62
   253
 10
107.6376682269511
 20
-103.4709218193232
 30
0.0
  0
VERTEX
  5
8221
  8
0
  6
________________
 62
   253
 10
107.2080617415385
 20
-103.5492287341373
 30
0.0
  0
VERTEX
  5
8222
  8
0
  6
________________
 62
   253
 10
106.7492893624327
 20
-103.5918148702312
 30
0.0
  0
VERTEX
  5
8223
  8
0
  6
________________
 62
   253
 10
106.2789814548804
 20
-103.5970436662774
 30
0.0
  0
VERTEX
  5
8224
  8
0
  6
________________
 62
   253
 10
105.8152116880171
 20
-103.5647141825762
 30
0.0
  0
VERTEX
  5
8225
  8
0
  6
________________
 62
   253
 10
105.3758024738981
 20
-103.4960688230558
 30
0.0
  0
SEQEND
  5
8226
  8
0
  6
________________
 62
   253
  0
LINE
  5
7F5C
  8
0
  6
________________
 62
   253
 10
105.3758024738981
 20
-103.4960688230557
 30
0.0
 11
105.3758024738981
 21
-61.86915445266312
 31
0.0
  0
POLYLINE
  5
7F5D
  8
0
  6
________________
 62
     7
 66
     1
 10
0.0
 20
0.0
 30
0.0
  0
VERTEX
  5
8227
  8
0
  6
________________
 62
     7
 10
105.3758024738982
 20
-61.86915445266312
 30
0.0
  0
VERTEX
  5
8228
  8
0
  6
________________
 62
     7
 10
105.7909145287529
 20
-61.93502727869367
 30
0.0
  0
VERTEX
  5
8229
  8
0
  6
________________
 62
     7
 10
106.2286926109375
 20
-61.96845317708582
 30
0.0
  0
VERTEX
  5
822A
  8
0
  6
________________
 62
     7
 10
106.6740612398736
 20
-61.96828108180284
 30
0.0
  0
VERTEX
  5
822B
  8
0
  6
________________
 62
     7
 10
107.1116835442354
 20
-61.93451691917864
 30
0.0
  0
VERTEX
  5
822C
  8
0
  6
________________
 62
     7
 10
107.5264894078645
 20
-61.86832340383646
 30
0.0
  0
VERTEX
  5
822D
  8
0
  6
________________
 62
     7
 10
107.90419442961
 20
-61.77197999903765
 30
0.0
  0
VERTEX
  5
822E
  8
0
  6
________________
 62
     7
 10
108.2317918260094
 20
-61.64880442028008
 30
0.0
  0
SEQEND
  5
822F
  8
0
  6
________________
 62
     7
  0
LINE
  5
7F5E
  8
0
  6
________________
 62
     7
 10
88.87521269136448
 20
-55.07609496570167
 30
0.0
 11
89.63388391229955
 21
-54.45664250775984
 31
0.0
  0
LINE
  5
7F5F
  8
0
  6
________________
 62
     7
 10
90.17054022689956
 20
-54.38361283342583
 30
0.0
 11
89.63388391229955
 21
-54.45664250775984
 31
0.0
  0
LINE
  5
7F60
  8
0
  6
________________
 62
     7
 10
97.68372863129878
 20
-55.9172359944403
 30
0.0
 11
90.17054022689956
 21
-54.38361283342583
 31
0.0
  0
LINE
  5
7F61
  8
0
  6
________________
 62
     7
 10
97.86261406949882
 20
-56.13632501744239
 30
0.0
 11
97.68372863129878
 21
-55.9172359944403
 31
0.0
  0
LINE
  5
7F62
  8
0
  6
________________
 62
     7
 10
97.86261406949882
 20
-56.13632501744239
 30
0.0
 11
97.10394284856363
 21
-56.75577747538416
 31
0.0
  0
POLYLINE
  5
7F63
  8
0
  6
________________
 62
     7
 66
     1
 10
0.0
 20
0.0
 30
0.0
  0
VERTEX
  5
8230
  8
0
  6
________________
 62
     7
 10
97.10394284856373
 20
-56.75577747538416
 30
0.0
  0
VERTEX
  5
8231
  8
0
  6
________________
 62
     7
 10
96.56808426328558
 20
-56.9585937991567
 30
0.0
  0
VERTEX
  5
8232
  8
0
  6
________________
 62
     7
 10
96.13154236566956
 20
-57.19782254679297
 30
0.0
  0
VERTEX
  5
8233
  8
0
  6
________________
 62
     7
 10
95.80888540983791
 20
-57.46548018862963
 30
0.0
  0
VERTEX
  5
8234
  8
0
  6
________________
 62
     7
 10
95.61088108739719
 20
-57.7526344673843
 30
0.0
  0
VERTEX
  5
8235
  8
0
  6
________________
 62
     7
 10
95.5441371885787
 20
-58.04970248499374
 30
0.0
  0
SEQEND
  5
8236
  8
0
  6
________________
 62
     7
  0
LINE
  5
7F64
  8
0
  6
________________
 62
     7
 10
97.75528280657886
 20
-59.51029597167418
 30
0.0
 11
98.29193912117876
 21
-59.6198404831752
 31
0.0
  0
LINE
  5
7F65
  8
0
  6
________________
 62
     7
 10
98.29193912117876
 20
-59.6198404831752
 30
0.0
 11
108.2317918260094
 21
-61.64880442028006
 31
0.0
  0
LINE
  5
7F66
  8
0
  6
________________
 62
     7
 10
105.3758024738981
 20
-61.86915445266312
 30
0.0
 11
73.89196535070107
 21
-55.44254311126916
 31
0.0
  0
LINE
  5
7F67
  8
0
  6
________________
 62
     7
 10
72.61016785474969
 20
-54.3775708753734
 30
0.0
 11
72.56527797990097
 21
-54.56618701926088
 31
0.0
  0
LINE
  5
7F68
  8
0
  6
________________
 62
     7
 10
72.61016785474965
 20
-54.37757087537339
 30
0.0
 11
82.55002055958028
 21
-56.40653481247823
 31
0.0
  0
LINE
  5
7F69
  8
0
  6
________________
 62
     7
 10
82.55002055958028
 20
-56.40653481247823
 30
0.0
 11
83.08667687418017
 21
-56.5160793239793
 31
0.0
  0
POLYLINE
  5
7F6A
  8
0
  6
________________
 62
     7
 66
     1
 10
0.0
 20
0.0
 30
0.0
  0
VERTEX
  5
8237
  8
0
  6
________________
 62
     7
 10
83.08667687418018
 20
-56.51607932397928
 30
0.0
  0
VERTEX
  5
8238
  8
0
  6
________________
 62
     7
 10
83.84154596842845
 20
-56.63297722262731
 30
0.0
  0
VERTEX
  5
8239
  8
0
  6
________________
 62
     7
 10
84.63853820555732
 20
-56.6856102852044
 30
0.0
  0
VERTEX
  5
823A
  8
0
  6
________________
 62
     7
 10
85.44518521461706
 20
-56.67183431290865
 30
0.0
  0
VERTEX
  5
823B
  8
0
  6
________________
 62
     7
 10
86.22862530248747
 20
-56.59221051996255
 30
0.0
  0
VERTEX
  5
823C
  8
0
  6
________________
 62
     7
 10
86.95694219419767
 20
-56.44998267051506
 30
0.0
  0
VERTEX
  5
823D
  8
0
  6
________________
 62
     7
 10
87.60046525820648
 20
-56.25094493213786
 30
0.0
  0
VERTEX
  5
823E
  8
0
  6
________________
 62
     7
 10
88.13297824724877
 20
-56.00320582938309
 30
0.0
  0
VERTEX
  5
823F
  8
0
  6
________________
 62
     7
 10
88.53278731230276
 20
-55.71685791361109
 30
0.0
  0
VERTEX
  5
8240
  8
0
  6
________________
 62
     7
 10
88.78360478025382
 20
-55.40356660628628
 30
0.0
  0
VERTEX
  5
8241
  8
0
  6
________________
 62
     7
 10
88.87521269136442
 20
-55.07609496570165
 30
0.0
  0
SEQEND
  5
8242
  8
0
  6
________________
 62
     7
  0
POLYLINE
  5
7F6B
  8
0
  6
________________
 62
     7
 66
     1
 10
0.0
 20
0.0
 30
0.0
  0
VERTEX
  5
8243
  8
0
  6
________________
 62
     7
 10
94.60689909425915
 20
-57.66264521102341
 30
0.0
  0
VERTEX
  5
8244
  8
0
  6
________________
 62
     7
 10
94.24577323345679
 20
-57.89556795078077
 30
0.0
  0
VERTEX
  5
8245
  8
0
  6
________________
 62
     7
 10
93.77786353382443
 20
-58.09431000156799
 30
0.0
  0
VERTEX
  5
8246
  8
0
  6
________________
 62
     7
 10
93.22206650402562
 20
-58.2508451760941
 30
0.0
  0
VERTEX
  5
8247
  8
0
  6
________________
 62
     7
 10
92.60082797794028
 20
-58.35885180955089
 30
0.0
  0
VERTEX
  5
8248
  8
0
  6
________________
 62
     7
 10
91.9392366408415
 20
-58.41396805971445
 30
0.0
  0
VERTEX
  5
8249
  8
0
  6
________________
 62
     7
 10
91.26401082415741
 20
-58.41396805971446
 30
0.0
  0
VERTEX
  5
824A
  8
0
  6
________________
 62
     7
 10
90.60241948705863
 20
-58.3588518095509
 30
0.0
  0
VERTEX
  5
824B
  8
0
  6
________________
 62
     7
 10
89.98118096097329
 20
-58.25084517609411
 30
0.0
  0
VERTEX
  5
824C
  8
0
  6
________________
 62
     7
 10
89.42538393117447
 20
-58.094310001568
 30
0.0
  0
VERTEX
  5
824D
  8
0
  6
________________
 62
     7
 10
88.95747423154211
 20
-57.89556795078079
 30
0.0
  0
VERTEX
  5
824E
  8
0
  6
________________
 62
     7
 10
88.59634837073975
 20
-57.66264521102342
 30
0.0
  0
SEQEND
  5
824F
  8
0
  6
________________
 62
     7
  0
LINE
  5
7F6C
  8
0
  6
________________
 62
   253
 10
73.89196535070107
 20
-97.06945748166179
 30
0.0
 11
105.3758024738981
 21
-103.4960688230557
 31
0.0
  0
LINE
  5
7F6D
  8
0
  6
________________
 62
   253
 10
73.89196535070107
 20
-55.44254311126916
 30
0.0
 11
73.89196535070107
 21
-97.06945748166179
 31
0.0
  0
LINE
  5
7F6E
  8
0
  6
________________
 62
     7
 10
108.5957403614979
 20
-63.62186663667963
 30
0.0
 11
111.8156782490975
 21
-60.99279836065485
 31
0.0
  0
LINE
  5
7F6F
  8
0
  6
________________
 62
     7
 10
111.8156782490975
 20
-100.4288225010268
 30
0.0
 11
111.8156782490975
 21
-60.99279836065485
 31
0.0
  0
LINE
  5
7F70
  8
0
  6
________________
 62
   253
 10
108.5957403614979
 20
-103.0578907770516
 30
0.0
 11
111.8156782490975
 21
-100.4288225010268
 31
0.0
  0
POLYLINE
  5
7F71
  8
0
  6
________________
 62
     7
 66
     1
 10
0.0
 20
0.0
 30
0.0
  0
VERTEX
  5
8250
  8
0
  6
________________
 62
     7
 10
95.5441371885787
 20
-58.04970248499374
 30
0.0
  0
VERTEX
  5
8251
  8
0
  6
________________
 62
     7
 10
95.61204297436818
 20
-58.34932310360227
 30
0.0
  0
VERTEX
  5
8252
  8
0
  6
________________
 62
     7
 10
95.81345473386476
 20
-58.63877073543812
 30
0.0
  0
VERTEX
  5
8253
  8
0
  6
________________
 62
     7
 10
96.14153395517053
 20
-58.90821779605895
 30
0.0
  0
VERTEX
  5
8254
  8
0
  6
________________
 62
     7
 10
96.58514139962351
 20
-59.14851577827469
 30
0.0
  0
VERTEX
  5
8255
  8
0
  6
________________
 62
     7
 10
97.12921531117485
 20
-59.35150587043234
 30
0.0
  0
VERTEX
  5
8256
  8
0
  6
________________
 62
     7
 10
97.75528280657885
 20
-59.51029597167418
 30
0.0
  0
SEQEND
  5
8257
  8
0
  6
________________
 62
     7
  0
LINE
  5
7F72
  8
0
  6
________________
 62
     7
 10
97.10394284856363
 20
-56.75577747538416
 30
0.0
 11
97.10394284856363
 21
-56.93835166121924
 31
0.0
  0
POLYLINE
  5
7F73
  8
0
  6
________________
 62
     7
 66
     1
 10
0.0
 20
0.0
 30
0.0
  0
VERTEX
  5
8258
  8
0
  6
________________
 62
     7
 10
88.59634837073975
 20
-57.66264521102342
 30
0.0
  0
VERTEX
  5
8259
  8
0
  6
________________
 62
     7
 10
88.37196896342394
 20
-57.42755425840419
 30
0.0
  0
VERTEX
  5
825A
  8
0
  6
________________
 62
     7
 10
88.25685606794192
 20
-57.17966258994743
 30
0.0
  0
VERTEX
  5
825B
  8
0
  6
________________
 62
     7
 10
88.254904213417
 20
-56.92735694041633
 30
0.0
  0
VERTEX
  5
825C
  8
0
  6
________________
 62
     7
 10
88.36617943549412
 20
-56.67917337951849
 30
0.0
  0
VERTEX
  5
825D
  8
0
  6
________________
 62
     7
 10
88.58691704220483
 20
-56.44350851739731
 30
0.0
  0
VERTEX
  5
825E
  8
0
  6
________________
 62
     7
 10
88.90964898199555
 20
-56.22833542835547
 30
0.0
  0
SEQEND
  5
825F
  8
0
  6
________________
 62
     7
  0
POLYLINE
  5
7F74
  8
0
  6
________________
 62
     7
 66
     1
 10
0.0
 20
0.0
 30
0.0
  0
VERTEX
  5
8260
  8
0
  6
________________
 62
     7
 10
94.29359848300331
 20
-56.22833542835547
 30
0.0
  0
VERTEX
  5
8261
  8
0
  6
________________
 62
     7
 10
94.61633042279402
 20
-56.44350851739731
 30
0.0
  0
VERTEX
  5
8262
  8
0
  6
________________
 62
     7
 10
94.83706802950475
 20
-56.67917337951847
 30
0.0
  0
VERTEX
  5
8263
  8
0
  6
________________
 62
     7
 10
94.94834325158186
 20
-56.92735694041632
 30
0.0
  0
VERTEX
  5
8264
  8
0
  6
________________
 62
     7
 10
94.94639139705696
 20
-57.17966258994741
 30
0.0
  0
VERTEX
  5
8265
  8
0
  6
________________
 62
     7
 10
94.83127850157494
 20
-57.42755425840417
 30
0.0
  0
VERTEX
  5
8266
  8
0
  6
________________
 62
     7
 10
94.60689909425915
 20
-57.66264521102341
 30
0.0
  0
SEQEND
  5
8267
  8
0
  6
________________
 62
     7
  0
POLYLINE
  5
7F75
  8
0
  6
________________
 62
     7
 66
     1
 10
0.0
 20
0.0
 30
0.0
  0
VERTEX
  5
8268
  8
0
  6
________________
 62
     7
 10
88.6722688545594
 20
-57.72106895034626
 30
0.0
  0
VERTEX
  5
8269
  8
0
  6
________________
 62
     7
 10
88.47001586996235
 20
-57.46390382505894
 30
0.0
  0
VERTEX
  5
826A
  8
0
  6
________________
 62
     7
 10
88.40162373249943
 20
-57.19525529528569
 30
0.0
  0
SEQEND
  5
826B
  8
0
  6
________________
 62
     7
  0
POLYLINE
  5
7F76
  8
0
  6
________________
 62
     7
 66
     1
 10
0.0
 20
0.0
 30
0.0
  0
VERTEX
  5
826C
  8
0
  6
________________
 62
     7
 10
94.80162373249944
 20
-57.19525529528569
 30
0.0
  0
VERTEX
  5
826D
  8
0
  6
________________
 62
     7
 10
94.73323159500026
 20
-57.46390382512936
 30
0.0
  0
VERTEX
  5
826E
  8
0
  6
________________
 62
     7
 10
94.53097861029757
 20
-57.72106895047802
 30
0.0
  0
SEQEND
  5
826F
  8
0
  6
________________
 62
     7
  0
LINE
  5
7F77
  8
0
  6
________________
 62
     7
 10
97.86261406949882
 20
-56.31889920327744
 30
0.0
 11
97.86261406949882
 21
-56.13632501744239
 31
0.0
  0
POLYLINE
  5
7F78
  8
0
  6
________________
 62
     7
 66
     1
 10
0.0
 20
0.0
 30
0.0
  0
VERTEX
  5
8270
  8
0
  6
________________
 62
     7
 10
72.56527797990097
 20
-54.56618701926088
 30
0.0
  0
VERTEX
  5
8271
  8
0
  6
________________
 62
     7
 10
72.60602145137466
 20
-54.74595939042599
 30
0.0
  0
VERTEX
  5
8272
  8
0
  6
________________
 62
     7
 10
72.72686850707261
 20
-54.91962796952751
 30
0.0
  0
VERTEX
  5
8273
  8
0
  6
________________
 62
     7
 10
72.92371603985607
 20
-55.0812962059
 30
0.0
  0
VERTEX
  5
8274
  8
0
  6
________________
 62
     7
 10
73.18988050652786
 20
-55.22547499522945
 30
0.0
  0
VERTEX
  5
8275
  8
0
  6
________________
 62
     7
 10
73.51632485345867
 20
-55.34726905052403
 30
0.0
  0
VERTEX
  5
8276
  8
0
  6
________________
 62
     7
 10
73.89196535070107
 20
-55.44254311126915
 30
0.0
  0
SEQEND
  5
8277
  8
0
  6
________________
 62
     7
  0
POLYLINE
  5
7F79
  8
0
  6
________________
 62
   253
 66
     1
 10
0.0
 20
0.0
 30
0.0
  0
VERTEX
  5
8278
  8
0
  6
________________
 62
   253
 10
72.56527797990097
 20
-96.19310138965352
 30
0.0
  0
VERTEX
  5
8279
  8
0
  6
________________
 62
   253
 10
72.60602145137466
 20
-96.37287376081863
 30
0.0
  0
VERTEX
  5
827A
  8
0
  6
________________
 62
   253
 10
72.72686850707261
 20
-96.54654233992015
 30
0.0
  0
VERTEX
  5
827B
  8
0
  6
________________
 62
   253
 10
72.92371603985607
 20
-96.70821057629264
 30
0.0
  0
VERTEX
  5
827C
  8
0
  6
________________
 62
   253
 10
73.18988050652786
 20
-96.85238936562209
 30
0.0
  0
VERTEX
  5
827D
  8
0
  6
________________
 62
   253
 10
73.51632485345867
 20
-96.97418342091667
 30
0.0
  0
VERTEX
  5
827E
  8
0
  6
________________
 62
   253
 10
73.89196535070107
 20
-97.06945748166179
 30
0.0
  0
SEQEND
  5
827F
  8
0
  6
________________
 62
   253
  0
POLYLINE
  5
7F7A
  8
0
  6
________________
 62
   253
 66
     1
 10
0.0
 20
0.0
 30
0.0
  0
VERTEX
  5
8280
  8
0
  6
________________
 62
   253
 10
105.9691151030981
 20
-104.9712228841193
 30
0.0
  0
VERTEX
  5
8281
  8
0
  6
________________
 62
   253
 10
105.8011235657109
 20
-104.8953481237022
 30
0.0
  0
VERTEX
  5
8282
  8
0
  6
________________
 62
   253
 10
105.6551332155893
 20
-104.7422089585309
 30
0.0
  0
VERTEX
  5
8283
  8
0
  6
________________
 62
   253
 10
105.5361008474547
 20
-104.5170049062782
 30
0.0
  0
VERTEX
  5
8284
  8
0
  6
________________
 62
   253
 10
105.4480679545533
 20
-104.22738229601
 30
0.0
  0
VERTEX
  5
8285
  8
0
  6
________________
 62
   253
 10
105.3940235082691
 20
-103.8831746531925
 30
0.0
  0
VERTEX
  5
8286
  8
0
  6
________________
 62
   253
 10
105.3758024738982
 20
-103.4960688230557
 30
0.0
  0
SEQEND
  5
8287
  8
0
  6
________________
 62
   253
  0
POLYLINE
  5
7F7B
  8
0
  6
________________
 62
   253
 66
     1
 10
0.0
 20
0.0
 30
0.0
  0
VERTEX
  5
8288
  8
0
  6
________________
 62
   253
 10
107.9670083799789
 20
-104.478744737227
 30
0.0
  0
VERTEX
  5
8289
  8
0
  6
________________
 62
   253
 10
108.2339687744586
 20
-104.201237856691
 30
0.0
  0
VERTEX
  5
828A
  8
0
  6
________________
 62
   253
 10
108.4323382433054
 20
-103.8629538525059
 30
0.0
  0
VERTEX
  5
828B
  8
0
  6
________________
 62
   253
 10
108.5544935590784
 20
-103.4768927892409
 30
0.0
  0
VERTEX
  5
828C
  8
0
  6
________________
 62
   253
 10
108.5957403614979
 20
-103.0578907770516
 30
0.0
  0
SEQEND
  5
828D
  8
0
  6
________________
 62
   253
  0
POLYLINE
  5
7F7C
  8
0
  6
________________
 62
   253
 66
     1
 10
0.0
 20
0.0
 30
0.0
  0
VERTEX
  5
828E
  8
0
  6
________________
 62
   253
 10
74.48527797990097
 20
-98.54461154272536
 30
0.0
  0
VERTEX
  5
828F
  8
0
  6
________________
 62
   253
 10
74.31728644251382
 20
-98.46873678230827
 30
0.0
  0
VERTEX
  5
8290
  8
0
  6
________________
 62
   253
 10
74.17129609239224
 20
-98.31559761713689
 30
0.0
  0
VERTEX
  5
8291
  8
0
  6
________________
 62
   253
 10
74.05226372425763
 20
-98.09039356488428
 30
0.0
  0
VERTEX
  5
8292
  8
0
  6
________________
 62
   253
 10
73.96423083135623
 20
-97.80077095461604
 30
0.0
  0
VERTEX
  5
8293
  8
0
  6
________________
 62
   253
 10
73.91018638507197
 20
-97.4565633117985
 30
0.0
  0
VERTEX
  5
8294
  8
0
  6
________________
 62
   253
 10
73.89196535070107
 20
-97.06945748166179
 30
0.0
  0
SEQEND
  5
8295
  8
0
  6
________________
 62
   253
  0
POLYLINE
  5
7F7D
  8
0
  6
________________
 62
     7
 66
     1
 10
0.0
 20
0.0
 30
0.0
  0
VERTEX
  5
8296
  8
0
  6
________________
 62
     7
 10
111.8156782490976
 20
-100.4288225010268
 30
0.0
  0
VERTEX
  5
8297
  8
0
  6
________________
 62
     7
 10
111.7744314466781
 20
-100.8478245132161
 30
0.0
  0
VERTEX
  5
8298
  8
0
  6
________________
 62
     7
 10
111.6522761309051
 20
-101.2338855764811
 30
0.0
  0
VERTEX
  5
8299
  8
0
  6
________________
 62
     7
 10
111.4539066620583
 20
-101.5721695806662
 30
0.0
  0
VERTEX
  5
829A
  8
0
  6
________________
 62
     7
 10
111.1869462675786
 20
-101.8496764612023
 30
0.0
  0
SEQEND
  5
829B
  8
0
  6
________________
 62
     7
  0
ARC
  5
7F7E
  8
0
  6
________________
 62
     7
 10
81.47670890794564
 20
-59.99180455001503
 30
0.0
 40
7.519866709557129
 50
78.5581224874044
 51
101.4094095441363
  0
LINE
  5
7F7F
  8
0
  6
________________
 62
     7
 10
78.1167079304422
 20
-53.85049621063156
 30
0.0
 11
78.11670793043072
 21
-54.21564458231104
 31
0.0
  0
LINE
  5
7F80
  8
0
  6
________________
 62
     7
 10
84.83670793043075
 20
-54.21564458252185
 30
0.0
 11
84.83670793044223
 21
-53.85049621084237
 31
0.0
  0
LINE
  5
7F81
  8
0
  6
________________
 62
     7
 10
78.47143256853633
 20
-54.8290938465551
 30
0.0
 11
78.61454091954579
 21
-54.94594132587154
 31
0.0
  0
LINE
  5
7F82
  8
0
  6
________________
 62
     7
 10
84.33887494158012
 20
-54.94594132579782
 30
0.0
 11
84.48198329228671
 21
-54.82909384674367
 31
0.0
  0
ARC
  5
7F83
  8
0
  6
________________
 62
     7
 10
102.9429614919436
 20
-64.37358501005558
 30
0.0
 40
7.519866709556353
 50
78.55812248740321
 51
101.4094095441374
  0
LINE
  5
7F84
  8
0
  6
________________
 62
     7
 10
99.58296051444017
 20
-58.2322766706729
 30
0.0
 11
99.58296051442869
 21
-58.59742504235238
 31
0.0
  0
LINE
  5
7F85
  8
0
  6
________________
 62
     7
 10
106.3029605144287
 20
-58.59742504256316
 30
0.0
 11
106.3029605144402
 21
-58.23227667088371
 31
0.0
  0
LINE
  5
7F86
  8
0
  6
________________
 62
     7
 10
99.9376851525343
 20
-59.21087430659647
 30
0.0
 11
100.0807935035548
 21
-59.32772178592184
 31
0.0
  0
LINE
  5
7F87
  8
0
  6
________________
 62
     7
 10
105.8051275255781
 20
-59.32772178583913
 30
0.0
 11
105.9482358762847
 21
-59.21087430678502
 31
0.0
  0
LINE
  5
7F88
  8
0
  6
________________
 62
     7
 10
114.6880156576312
 20
-97.95826971564486
 30
0.0
 11
115.0457865340312
 21
-97.66615101830877
 31
0.0
  0
LINE
  5
7F89
  8
0
  6
________________
 62
     7
 10
96.0807935031786
 20
-58.15924699649479
 30
0.0
 11
96.0807935031786
 21
-58.86673476881116
 31
0.0
  0
LINE
  5
7F8A
  8
0
  6
________________
 62
     7
 10
115.5517509596581
 20
-98.28582835370196
 30
0.0
 11
116.625063588858
 21
-97.40947226169368
 31
0.0
  0
LINE
  5
7F8B
  8
0
  6
________________
 62
     7
 10
90.77076152483687
 20
-94.73732911598131
 30
0.0
 11
92.5596159068366
 21
-93.27673562930092
 31
0.0
  0
LINE
  5
7F8C
  8
0
  6
________________
 62
     7
 10
79.91050526616334
 20
-77.78480224447146
 30
0.0
 11
78.1216508841635
 21
-79.24539573115186
 31
0.0
  0
LINE
  5
7F8D
  8
0
  6
________________
 62
     7
 10
94.69311743835317
 20
-56.83861071317564
 30
0.0
 11
94.24689875753495
 21
-56.15700041939145
 31
0.0
  0
LINE
  5
7F8E
  8
0
  6
________________
 62
     7
 10
88.9563487074638
 20
-56.15700041939145
 30
0.0
 11
88.5101300266457
 21
-56.83861071317564
 31
0.0
  0
LINE
  5
7F8F
  8
0
  6
________________
 62
     7
 10
94.80162373249937
 20
-57.19525529528569
 30
0.0
 11
94.80162373249937
 21
-57.1759203302603
 31
0.0
  0
LINE
  5
7F90
  8
0
  6
________________
 62
     7
 10
88.40162373249939
 20
-57.1759203302603
 30
0.0
 11
88.40162373249939
 21
-57.19525529528569
 31
0.0
  0
LINE
  5
7F91
  8
0
  6
________________
 62
     7
 10
72.565277979901
 20
-54.56618701926088
 30
0.0
 11
72.565277979901
 21
-96.19310138965352
 31
0.0
  0
ARC
  5
7F92
  8
0
  6
________________
 62
     7
 10
106.4491151030981
 20
-102.6197127310475
 30
0.0
 40
2.399999999999996
 50
258.463040967184
 51
309.2315204835896
  0
LINE
  5
7F93
  8
0
  6
________________
 62
     7
 10
74.48527797990096
 20
-98.54461154272538
 30
0.0
 11
105.969115103098
 21
-104.9712228841193
 31
0.0
  0
LINE
  5
7F94
  8
0
  6
________________
 62
     7
 10
107.9670083799789
 20
-104.478744737227
 30
0.0
 11
111.1869462675785
 21
-101.8496764612022
 31
0.0
  0
ARC
  5
7F95
  8
0
  6
________________
 62
     7
 10
74.96527797990097
 20
-96.19310138965352
 30
0.0
 40
2.399999999999999
 50
180.0
 51
258.463040967184
  0
LINE
  5
7FA9
  8
0
  6
CENTER
 62
     1
 10
201.7345482497624
 20
-48.7523892161422
 30
0.0
 11
201.7345482497624
 21
-67.7523892161422
 31
0.0
  0
POLYLINE
  5
7FCC
  8
0
  6
________________
 62
     7
 66
     1
 10
0.0
 20
0.0
 30
0.0
  0
VERTEX
  5
829C
  8
0
  6
________________
 62
     7
 10
233.3353429579786
 20
-87.28327751150498
 30
0.0
  0
VERTEX
  5
829D
  8
0
  6
________________
 62
     7
 10
234.3071496117614
 20
-86.66553193019504
 30
0.0
  0
VERTEX
  5
829E
  8
0
  6
________________
 62
     7
 10
235.5787756951099
 20
-86.14639275555878
 30
0.0
  0
VERTEX
  5
829F
  8
0
  6
________________
 62
     7
 10
237.0919371601782
 20
-85.7496543504905
 30
0.0
  0
SEQEND
  5
82A0
  8
0
  6
________________
 62
     7
  0
POLYLINE
  5
7FCD
  8
0
  6
________________
 62
     7
 66
     1
 10
0.0
 20
0.0
 30
0.0
  0
VERTEX
  5
82A1
  8
0
  6
________________
 62
     7
 10
248.3617197667772
 20
-87.28327751150496
 30
0.0
  0
VERTEX
  5
82A2
  8
0
  6
________________
 62
     7
 10
248.944450965218
 20
-87.90256249799563
 30
0.0
  0
VERTEX
  5
82A3
  8
0
  6
________________
 62
     7
 10
249.2241979927851
 20
-88.5560659559258
 30
0.0
  0
VERTEX
  5
82A4
  8
0
  6
________________
 62
     7
 10
249.1904915111747
 20
-89.21933097205061
 30
0.0
  0
VERTEX
  5
82A5
  8
0
  6
________________
 62
     7
 10
248.8445929620619
 20
-89.8675353135863
 30
0.0
  0
VERTEX
  5
82A6
  8
0
  6
________________
 62
     7
 10
248.1994473585211
 20
-90.4764203830404
 30
0.0
  0
VERTEX
  5
82A7
  8
0
  6
________________
 62
     7
 10
247.2791988268988
 20
-91.02319907938225
 30
0.0
  0
VERTEX
  5
82A8
  8
0
  6
________________
 62
     7
 10
246.1182870296458
 20
-91.4874085894801
 30
0.0
  0
VERTEX
  5
82A9
  8
0
  6
________________
 62
     7
 10
244.7601582848587
 20
-91.85167619467708
 30
0.0
  0
VERTEX
  5
82AA
  8
0
  6
________________
 62
     7
 10
243.2556396179855
 20
-92.10236943272668
 30
0.0
  0
VERTEX
  5
82AB
  8
0
  6
________________
 62
     7
 10
241.661036595683
 20
-92.23010628322842
 30
0.0
  0
VERTEX
  5
82AC
  8
0
  6
________________
 62
     7
 10
240.0360261290728
 20
-92.23010628322842
 30
0.0
  0
VERTEX
  5
82AD
  8
0
  6
________________
 62
     7
 10
238.4414231067703
 20
-92.10236943272668
 30
0.0
  0
VERTEX
  5
82AE
  8
0
  6
________________
 62
     7
 10
236.9369044398971
 20
-91.8516761946771
 30
0.0
  0
VERTEX
  5
82AF
  8
0
  6
________________
 62
     7
 10
235.57877569511
 20
-91.48740858948011
 30
0.0
  0
VERTEX
  5
82B0
  8
0
  6
________________
 62
     7
 10
234.417863897857
 20
-91.02319907938227
 30
0.0
  0
VERTEX
  5
82B1
  8
0
  6
________________
 62
     7
 10
233.4976153662346
 20
-90.47642038304043
 30
0.0
  0
VERTEX
  5
82B2
  8
0
  6
________________
 62
     7
 10
232.8524697626938
 20
-89.86753531358633
 30
0.0
  0
VERTEX
  5
82B3
  8
0
  6
________________
 62
     7
 10
232.506571213581
 20
-89.21933097205063
 30
0.0
  0
VERTEX
  5
82B4
  8
0
  6
________________
 62
     7
 10
232.4728647319706
 20
-88.55606595592583
 30
0.0
  0
VERTEX
  5
82B5
  8
0
  6
________________
 62
     7
 10
232.7526117595377
 20
-87.90256249799566
 30
0.0
  0
VERTEX
  5
82B6
  8
0
  6
________________
 62
     7
 10
233.3353429579786
 20
-87.28327751150499
 30
0.0
  0
SEQEND
  5
82B7
  8
0
  6
________________
 62
     7
  0
POLYLINE
  5
7FCE
  8
0
  6
________________
 62
     7
 66
     1
 10
0.0
 20
0.0
 30
0.0
  0
VERTEX
  5
82B8
  8
0
  6
________________
 62
     7
 10
248.7194906431771
 20
-87.57539620884106
 30
0.0
  0
VERTEX
  5
82B9
  8
0
  6
________________
 62
     7
 10
249.4131224696939
 20
-88.3566421582152
 30
0.0
  0
VERTEX
  5
82BA
  8
0
  6
________________
 62
     7
 10
249.6485313623779
 20
-89.18204904418954
 30
0.0
  0
SEQEND
  5
82BB
  8
0
  6
________________
 62
     7
  0
POLYLINE
  5
7FCF
  8
0
  6
________________
 62
     7
 66
     1
 10
0.0
 20
0.0
 30
0.0
  0
VERTEX
  5
82BC
  8
0
  6
________________
 62
     7
 10
237.0919371601782
 20
-85.7496543504905
 30
0.0
  0
VERTEX
  5
82BD
  8
0
  6
________________
 62
     7
 10
238.6298694095944
 20
-85.50939559216881
 30
0.0
  0
VERTEX
  5
82BE
  8
0
  6
________________
 62
     7
 10
240.2530635936161
 20
-85.39624239921477
 30
0.0
  0
VERTEX
  5
82BF
  8
0
  6
________________
 62
     7
 10
241.8991412700492
 20
-85.41454318537657
 30
0.0
  0
VERTEX
  5
82C0
  8
0
  6
________________
 62
     7
 10
243.5048445969193
 20
-85.56359466170521
 30
0.0
  0
VERTEX
  5
82C1
  8
0
  6
________________
 62
     7
 10
245.0084672958636
 20
-85.8376688635544
 30
0.0
  0
VERTEX
  5
82C2
  8
0
  6
________________
 62
     7
 10
246.3522259898029
 20
-86.22623327304969
 30
0.0
  0
VERTEX
  5
82C3
  8
0
  6
________________
 62
     7
 10
247.4844807857179
 20
-86.71435557784356
 30
0.0
  0
VERTEX
  5
82C4
  8
0
  6
________________
 62
     7
 10
248.3617197667772
 20
-87.28327751150496
 30
0.0
  0
SEQEND
  5
82C5
  8
0
  6
________________
 62
     7
  0
POLYLINE
  5
7FD0
  8
0
  6
________________
 62
     7
 66
     1
 10
0.0
 20
0.0
 30
0.0
  0
VERTEX
  5
82C6
  8
0
  6
________________
 62
     7
 10
232.0485313623778
 20
-89.18204904418954
 30
0.0
  0
VERTEX
  5
82C7
  8
0
  6
________________
 62
     7
 10
232.2839402550618
 20
-88.3566421582152
 30
0.0
  0
VERTEX
  5
82C8
  8
0
  6
________________
 62
     7
 10
232.9775720815786
 20
-87.57539620884106
 30
0.0
  0
SEQEND
  5
82C9
  8
0
  6
________________
 62
     7
  0
POLYLINE
  5
7FD1
  8
0
  6
________________
 62
     7
 66
     1
 10
0.0
 20
0.0
 30
0.0
  0
VERTEX
  5
82CA
  8
0
  6
________________
 62
     7
 10
249.6485313623779
 20
-89.18204904418954
 30
0.0
  0
VERTEX
  5
82CB
  8
0
  6
________________
 62
     7
 10
249.4794418299263
 20
-89.88292760014187
 30
0.0
  0
VERTEX
  5
82CC
  8
0
  6
________________
 62
     7
 10
248.9786712484772
 20
-90.55687178624618
 30
0.0
  0
VERTEX
  5
82CD
  8
0
  6
________________
 62
     7
 10
248.1654639506403
 20
-91.17798230538273
 30
0.0
  0
VERTEX
  5
82CE
  8
0
  6
________________
 62
     7
 10
247.0710710368195
 20
-91.7223902286239
 30
0.0
  0
VERTEX
  5
82CF
  8
0
  6
________________
 62
     7
 10
245.7375494129504
 20
-92.16917426478699
 30
0.0
  0
VERTEX
  5
82D0
  8
0
  6
________________
 62
     7
 10
244.2161455671906
 20
-92.50116475392166
 30
0.0
  0
VERTEX
  5
82D1
  8
0
  6
________________
 62
     7
 10
242.5653261961198
 20
-92.70560348771285
 30
0.0
  0
VERTEX
  5
82D2
  8
0
  6
________________
 62
     7
 10
240.8485313623779
 20
-92.77463400027153
 30
0.0
  0
VERTEX
  5
82D3
  8
0
  6
________________
 62
     7
 10
239.1317365286359
 20
-92.70560348771285
 30
0.0
  0
VERTEX
  5
82D4
  8
0
  6
________________
 62
     7
 10
237.4809171575651
 20
-92.50116475392166
 30
0.0
  0
VERTEX
  5
82D5
  8
0
  6
________________
 62
     7
 10
235.9595133118054
 20
-92.16917426478699
 30
0.0
  0
VERTEX
  5
82D6
  8
0
  6
________________
 62
     7
 10
234.6259916879362
 20
-91.7223902286239
 30
0.0
  0
VERTEX
  5
82D7
  8
0
  6
________________
 62
     7
 10
233.5315987741155
 20
-91.17798230538273
 30
0.0
  0
VERTEX
  5
82D8
  8
0
  6
________________
 62
     7
 10
232.7183914762785
 20
-90.55687178624618
 30
0.0
  0
VERTEX
  5
82D9
  8
0
  6
________________
 62
     7
 10
232.2176208948294
 20
-89.88292760014187
 30
0.0
  0
VERTEX
  5
82DA
  8
0
  6
________________
 62
     7
 10
232.0485313623778
 20
-89.18204904418954
 30
0.0
  0
SEQEND
  5
82DB
  8
0
  6
________________
 62
     7
  0
POLYLINE
  5
7FD2
  8
0
  6
________________
 62
     7
 66
     1
 10
0.0
 20
0.0
 30
0.0
  0
VERTEX
  5
82DC
  8
0
  6
________________
 62
     7
 10
249.6485313623779
 20
-90.64264253086998
 30
0.0
  0
VERTEX
  5
82DD
  8
0
  6
________________
 62
     7
 10
249.4794418299263
 20
-91.3435210868223
 30
0.0
  0
VERTEX
  5
82DE
  8
0
  6
________________
 62
     7
 10
248.9786712484772
 20
-92.01746527292661
 30
0.0
  0
VERTEX
  5
82DF
  8
0
  6
________________
 62
     7
 10
248.1654639506403
 20
-92.63857579206316
 30
0.0
  0
VERTEX
  5
82E0
  8
0
  6
________________
 62
     7
 10
247.0710710368195
 20
-93.18298371530433
 30
0.0
  0
VERTEX
  5
82E1
  8
0
  6
________________
 62
     7
 10
245.7375494129504
 20
-93.62976775146743
 30
0.0
  0
VERTEX
  5
82E2
  8
0
  6
________________
 62
     7
 10
244.2161455671906
 20
-93.9617582406021
 30
0.0
  0
VERTEX
  5
82E3
  8
0
  6
________________
 62
     7
 10
242.5653261961198
 20
-94.16619697439329
 30
0.0
  0
VERTEX
  5
82E4
  8
0
  6
________________
 62
     7
 10
240.8485313623779
 20
-94.23522748695197
 30
0.0
  0
VERTEX
  5
82E5
  8
0
  6
________________
 62
     7
 10
239.1317365286359
 20
-94.16619697439329
 30
0.0
  0
VERTEX
  5
82E6
  8
0
  6
________________
 62
     7
 10
237.4809171575651
 20
-93.9617582406021
 30
0.0
  0
VERTEX
  5
82E7
  8
0
  6
________________
 62
     7
 10
235.9595133118054
 20
-93.62976775146743
 30
0.0
  0
VERTEX
  5
82E8
  8
0
  6
________________
 62
     7
 10
234.6259916879362
 20
-93.18298371530433
 30
0.0
  0
VERTEX
  5
82E9
  8
0
  6
________________
 62
     7
 10
233.5315987741155
 20
-92.63857579206316
 30
0.0
  0
VERTEX
  5
82EA
  8
0
  6
________________
 62
     7
 10
232.7183914762785
 20
-92.01746527292661
 30
0.0
  0
VERTEX
  5
82EB
  8
0
  6
________________
 62
     7
 10
232.2176208948294
 20
-91.3435210868223
 30
0.0
  0
VERTEX
  5
82EC
  8
0
  6
________________
 62
     7
 10
232.0485313623778
 20
-90.64264253086998
 30
0.0
  0
SEQEND
  5
82ED
  8
0
  6
________________
 62
     7
  0
POLYLINE
  5
7FD3
  8
0
  6
________________
 62
     7
 66
     1
 10
0.0
 20
0.0
 30
0.0
  0
VERTEX
  5
82EE
  8
0
  6
________________
 62
     7
 10
239.023899892738
 20
-87.32709531610539
 30
0.0
  0
VERTEX
  5
82EF
  8
0
  6
________________
 62
     7
 10
239.7544222433974
 20
-87.21225506077397
 30
0.0
  0
VERTEX
  5
82F0
  8
0
  6
________________
 62
     7
 10
240.5252212894955
 20
-87.15648553382808
 30
0.0
  0
VERTEX
  5
82F1
  8
0
  6
________________
 62
     7
 10
241.3079221295847
 20
-87.16183974096208
 30
0.0
  0
VERTEX
  5
82F2
  8
0
  6
________________
 62
     7
 10
242.0737117295633
 20
-87.22812058138749
 30
0.0
  0
VERTEX
  5
82F3
  8
0
  6
________________
 62
     7
 10
242.7943995973192
 20
-87.35288810357031
 30
0.0
  0
VERTEX
  5
82F4
  8
0
  6
________________
 62
     7
 10
243.4434555401573
 20
-87.5315493255086
 30
0.0
  0
VERTEX
  5
82F5
  8
0
  6
________________
 62
     7
 10
243.9969863027534
 20
-87.75752731305761
 30
0.0
  0
VERTEX
  5
82F6
  8
0
  6
________________
 62
     7
 10
244.4346151333244
 20
-88.02250329213669
 30
0.0
  0
VERTEX
  5
82F7
  8
0
  6
________________
 62
     7
 10
244.7402318991437
 20
-88.3167228821061
 30
0.0
  0
VERTEX
  5
82F8
  8
0
  6
________________
 62
     7
 10
244.9025861379088
 20
-88.62935517715238
 30
0.0
  0
VERTEX
  5
82F9
  8
0
  6
________________
 62
     7
 10
244.9157012133643
 20
-88.9488914570634
 30
0.0
  0
VERTEX
  5
82FA
  8
0
  6
________________
 62
     7
 10
244.7790943291504
 20
-89.26356884992413
 30
0.0
  0
VERTEX
  5
82FB
  8
0
  6
________________
 62
     7
 10
244.4977943016575
 20
-89.56180335072646
 30
0.0
  0
SEQEND
  5
82FC
  8
0
  6
________________
 62
     7
  0
POLYLINE
  5
7FD4
  8
0
  6
________________
 62
     7
 66
     1
 10
0.0
 20
0.0
 30
0.0
  0
VERTEX
  5
82FD
  8
0
  6
________________
 62
     7
 10
245.6885313623779
 20
-95.38957136258142
 30
0.0
  0
VERTEX
  5
82FE
  8
0
  6
________________
 62
     7
 10
245.5955321195295
 20
-95.7750545683552
 30
0.0
  0
VERTEX
  5
82FF
  8
0
  6
________________
 62
     7
 10
245.3201082997325
 20
-96.14572387071257
 30
0.0
  0
VERTEX
  5
8300
  8
0
  6
________________
 62
     7
 10
244.8728442859222
 20
-96.48733465623768
 30
0.0
  0
VERTEX
  5
8301
  8
0
  6
________________
 62
     7
 10
244.2709281833207
 20
-96.78675901402032
 30
0.0
  0
VERTEX
  5
8302
  8
0
  6
________________
 62
     7
 10
243.5374912901927
 20
-97.03249023391002
 30
0.0
  0
VERTEX
  5
8303
  8
0
  6
________________
 62
     7
 10
242.7007191750249
 20
-97.21508500293409
 30
0.0
  0
VERTEX
  5
8304
  8
0
  6
________________
 62
     7
 10
241.7927685209359
 20
-97.32752630651923
 30
0.0
  0
VERTEX
  5
8305
  8
0
  6
________________
 62
     7
 10
240.8485313623779
 20
-97.36549308842652
 30
0.0
  0
VERTEX
  5
8306
  8
0
  6
________________
 62
     7
 10
239.9042942038198
 20
-97.32752630651923
 30
0.0
  0
VERTEX
  5
8307
  8
0
  6
________________
 62
     7
 10
238.9963435497308
 20
-97.21508500293409
 30
0.0
  0
VERTEX
  5
8308
  8
0
  6
________________
 62
     7
 10
238.159571434563
 20
-97.03249023391002
 30
0.0
  0
VERTEX
  5
8309
  8
0
  6
________________
 62
     7
 10
237.426134541435
 20
-96.78675901402032
 30
0.0
  0
VERTEX
  5
830A
  8
0
  6
________________
 62
     7
 10
236.8242184388335
 20
-96.48733465623768
 30
0.0
  0
VERTEX
  5
830B
  8
0
  6
________________
 62
     7
 10
236.3769544250232
 20
-96.14572387071257
 30
0.0
  0
VERTEX
  5
830C
  8
0
  6
________________
 62
     7
 10
236.1015306052262
 20
-95.7750545683552
 30
0.0
  0
VERTEX
  5
830D
  8
0
  6
________________
 62
     7
 10
236.0085313623779
 20
-95.38957136258142
 30
0.0
  0
SEQEND
  5
830E
  8
0
  6
________________
 62
     7
  0
POLYLINE
  5
7FD5
  8
0
  6
________________
 62
     7
 66
     1
 10
0.0
 20
0.0
 30
0.0
  0
VERTEX
  5
830F
  8
0
  6
________________
 62
     7
 10
237.1992684230982
 20
-89.56180335072646
 30
0.0
  0
VERTEX
  5
8310
  8
0
  6
________________
 62
     7
 10
236.9134200462385
 20
-89.25684364791366
 30
0.0
  0
VERTEX
  5
8311
  8
0
  6
________________
 62
     7
 10
236.7787957904223
 20
-88.93497718327933
 30
0.0
  0
VERTEX
  5
8312
  8
0
  6
________________
 62
     7
 10
236.8005691903022
 20
-88.60857310455455
 30
0.0
  0
VERTEX
  5
8313
  8
0
  6
________________
 62
     7
 10
236.9779035063318
 20
-88.29017493743522
 30
0.0
  0
VERTEX
  5
8314
  8
0
  6
________________
 62
     7
 10
237.303983880196
 20
-87.992018544924
 30
0.0
  0
VERTEX
  5
8315
  8
0
  6
________________
 62
     7
 10
237.7662792259954
 20
-87.72556190997703
 30
0.0
  0
VERTEX
  5
8316
  8
0
  6
________________
 62
     7
 10
238.347023792849
 20
-87.50104481164473
 30
0.0
  0
VERTEX
  5
8317
  8
0
  6
________________
 62
     7
 10
239.023899892738
 20
-87.32709531610539
 30
0.0
  0
SEQEND
  5
8318
  8
0
  6
________________
 62
     7
  0
POLYLINE
  5
7FD6
  8
0
  6
________________
 62
     7
 66
     1
 10
0.0
 20
0.0
 30
0.0
  0
VERTEX
  5
8319
  8
0
  6
________________
 62
     7
 10
244.4977943016575
 20
-89.56180335072646
 30
0.0
  0
VERTEX
  5
831A
  8
0
  6
________________
 62
     7
 10
244.0592843278261
 20
-89.84463810614612
 30
0.0
  0
VERTEX
  5
831B
  8
0
  6
________________
 62
     7
 10
243.4911082639868
 20
-90.0859677392449
 30
0.0
  0
VERTEX
  5
831C
  8
0
  6
________________
 62
     7
 10
242.8162118706597
 20
-90.27604616545517
 30
0.0
  0
VERTEX
  5
831D
  8
0
  6
________________
 62
     7
 10
242.0618508032703
 20
-90.40719707750985
 30
0.0
  0
VERTEX
  5
831E
  8
0
  6
________________
 62
     7
 10
241.2584898939361
 20
-90.47412395270845
 30
0.0
  0
VERTEX
  5
831F
  8
0
  6
________________
 62
     7
 10
240.4385728308197
 20
-90.47412395270845
 30
0.0
  0
VERTEX
  5
8320
  8
0
  6
________________
 62
     7
 10
239.6352119214854
 20
-90.40719707750985
 30
0.0
  0
VERTEX
  5
8321
  8
0
  6
________________
 62
     7
 10
238.8808508540961
 20
-90.27604616545517
 30
0.0
  0
VERTEX
  5
8322
  8
0
  6
________________
 62
     7
 10
238.2059544607689
 20
-90.0859677392449
 30
0.0
  0
VERTEX
  5
8323
  8
0
  6
________________
 62
     7
 10
237.6377783969296
 20
-89.84463810614612
 30
0.0
  0
VERTEX
  5
8324
  8
0
  6
________________
 62
     7
 10
237.1992684230982
 20
-89.56180335072646
 30
0.0
  0
SEQEND
  5
8325
  8
0
  6
________________
 62
     7
  0
LINE
  5
7FD7
  8
0
  6
________________
 62
     7
 10
244.0413232441014
 20
-89.85392204806254
 30
0.0
 11
244.1285313623779
 21
-89.54719741585966
 31
0.0
  0
POLYLINE
  5
7FD8
  8
0
  6
________________
 62
     7
 66
     1
 10
0.0
 20
0.0
 30
0.0
  0
VERTEX
  5
8326
  8
0
  6
________________
 62
     7
 10
239.381670769138
 20
-88.34951075678168
 30
0.0
  0
VERTEX
  5
8327
  8
0
  6
________________
 62
     7
 10
238.8682954229067
 20
-88.4797186398
 30
0.0
  0
VERTEX
  5
8328
  8
0
  6
________________
 62
     7
 10
238.4221548154346
 20
-88.64617051536928
 30
0.0
  0
VERTEX
  5
8329
  8
0
  6
________________
 62
     7
 10
238.0583967109832
 20
-88.84321486078619
 30
0.0
  0
VERTEX
  5
832A
  8
0
  6
________________
 62
     7
 10
237.7893717495124
 20
-89.06416145049526
 30
0.0
  0
VERTEX
  5
832B
  8
0
  6
________________
 62
     7
 10
237.6242141067252
 20
-89.30150850860066
 30
0.0
  0
VERTEX
  5
832C
  8
0
  6
________________
 62
     7
 10
237.5685313623779
 20
-89.54719741585966
 30
0.0
  0
SEQEND
  5
832D
  8
0
  6
________________
 62
     7
  0
POLYLINE
  5
7FD9
  8
0
  6
________________
 62
     7
 66
     1
 10
0.0
 20
0.0
 30
0.0
  0
VERTEX
  5
832E
  8
0
  6
________________
 62
     7
 10
244.1285313623779
 20
-89.54719741585966
 30
0.0
  0
VERTEX
  5
832F
  8
0
  6
________________
 62
     7
 10
244.0608861844783
 20
-89.2766496699416
 30
0.0
  0
VERTEX
  5
8330
  8
0
  6
________________
 62
     7
 10
243.8607408154705
 20
-89.01726122304974
 30
0.0
  0
VERTEX
  5
8331
  8
0
  6
________________
 62
     7
 10
243.5363506633376
 20
-88.77973108593717
 30
0.0
  0
VERTEX
  5
8332
  8
0
  6
________________
 62
     7
 10
243.1010958680491
 20
-88.5738566783487
 30
0.0
  0
VERTEX
  5
8333
  8
0
  6
________________
 62
     7
 10
242.5729294101286
 20
-88.4081297142638
 30
0.0
  0
VERTEX
  5
8334
  8
0
  6
________________
 62
     7
 10
241.9736366029949
 20
-88.28938594366306
 30
0.0
  0
VERTEX
  5
8335
  8
0
  6
________________
 62
     7
 10
241.3279365128384
 20
-88.2225231979409
 30
0.0
  0
VERTEX
  5
8336
  8
0
  6
________________
 62
     7
 10
240.6624623698229
 20
-88.21029936876147
 30
0.0
  0
VERTEX
  5
8337
  8
0
  6
________________
 62
     7
 10
240.0046630256507
 20
-88.25321865313663
 30
0.0
  0
VERTEX
  5
8338
  8
0
  6
________________
 62
     7
 10
239.381670769138
 20
-88.3495107567817
 30
0.0
  0
SEQEND
  5
8339
  8
0
  6
________________
 62
     7
  0
LINE
  5
7FDA
  8
0
  6
________________
 62
     7
 10
237.5685313623779
 20
-89.54719741585966
 30
0.0
 11
237.6557394806543
 21
-89.85392204806254
 31
0.0
  0
POLYLINE
  5
7FDB
  8
0
  6
________________
 62
     7
 66
     1
 10
0.0
 20
0.0
 30
0.0
  0
VERTEX
  5
833A
  8
0
  6
________________
 62
     7
 10
245.3240085380542
 20
-96.14186829531477
 30
0.0
  0
VERTEX
  5
833B
  8
0
  6
________________
 62
     7
 10
245.5667031716302
 20
-96.4898745083846
 30
0.0
  0
VERTEX
  5
833C
  8
0
  6
________________
 62
     7
 10
245.6485313623779
 20
-96.85016484926187
 30
0.0
  0
SEQEND
  5
833D
  8
0
  6
________________
 62
     7
  0
POLYLINE
  5
7FDC
  8
0
  6
________________
 62
     7
 66
     1
 10
0.0
 20
0.0
 30
0.0
  0
VERTEX
  5
833E
  8
0
  6
________________
 62
     7
 10
236.0485313623778
 20
-96.85016484926187
 30
0.0
  0
VERTEX
  5
833F
  8
0
  6
________________
 62
     7
 10
236.1303595531255
 20
-96.4898745083846
 30
0.0
  0
VERTEX
  5
8340
  8
0
  6
________________
 62
     7
 10
236.3730541867015
 20
-96.14186829531478
 30
0.0
  0
SEQEND
  5
8341
  8
0
  6
________________
 62
     7
  0
POLYLINE
  5
7FDD
  8
0
  6
________________
 62
     7
 66
     1
 10
0.0
 20
0.0
 30
0.0
  0
VERTEX
  5
8342
  8
0
  6
________________
 62
     7
 10
245.6485313623779
 20
-96.85016484926187
 30
0.0
  0
VERTEX
  5
8343
  8
0
  6
________________
 62
     7
 10
245.5563007083134
 20
-97.23246224341769
 30
0.0
  0
VERTEX
  5
8344
  8
0
  6
________________
 62
     7
 10
245.283153118432
 20
-97.60006816311095
 30
0.0
  0
VERTEX
  5
8345
  8
0
  6
________________
 62
     7
 10
244.8395855014301
 20
-97.93885571900361
 30
0.0
  0
VERTEX
  5
8346
  8
0
  6
________________
 62
     7
 10
244.2426439120733
 20
-98.23580549531697
 30
0.0
  0
VERTEX
  5
8347
  8
0
  6
________________
 62
     7
 10
243.515268480872
 20
-98.47950587867867
 30
0.0
  0
VERTEX
  5
8348
  8
0
  6
________________
 62
     7
 10
242.6854118377303
 20
-98.66059160002484
 30
0.0
  0
VERTEX
  5
8349
  8
0
  6
________________
 62
     7
 10
241.7849649080553
 20
-98.77210363663822
 30
0.0
  0
VERTEX
  5
834A
  8
0
  6
________________
 62
     7
 10
240.8485313623779
 20
-98.80975664348841
 30
0.0
  0
VERTEX
  5
834B
  8
0
  6
________________
 62
     7
 10
239.9120978167005
 20
-98.77210363663822
 30
0.0
  0
VERTEX
  5
834C
  8
0
  6
________________
 62
     7
 10
239.0116508870254
 20
-98.66059160002484
 30
0.0
  0
VERTEX
  5
834D
  8
0
  6
________________
 62
     7
 10
238.1817942438838
 20
-98.47950587867867
 30
0.0
  0
VERTEX
  5
834E
  8
0
  6
________________
 62
     7
 10
237.4544188126824
 20
-98.23580549531697
 30
0.0
  0
VERTEX
  5
834F
  8
0
  6
________________
 62
     7
 10
236.8574772233256
 20
-97.93885571900361
 30
0.0
  0
VERTEX
  5
8350
  8
0
  6
________________
 62
     7
 10
236.4139096063237
 20
-97.60006816311095
 30
0.0
  0
VERTEX
  5
8351
  8
0
  6
________________
 62
     7
 10
236.1407620164424
 20
-97.23246224341769
 30
0.0
  0
VERTEX
  5
8352
  8
0
  6
________________
 62
     7
 10
236.0485313623778
 20
-96.85016484926187
 30
0.0
  0
SEQEND
  5
8353
  8
0
  6
________________
 62
     7
  0
POLYLINE
  5
7FDE
  8
0
  6
________________
 62
     7
 66
     1
 10
0.0
 20
0.0
 30
0.0
  0
VERTEX
  5
8354
  8
0
  6
________________
 62
     7
 10
245.6485313623779
 20
-100.501648565963
 30
0.0
  0
VERTEX
  5
8355
  8
0
  6
________________
 62
     7
 10
245.520126511823
 20
-100.9518705037672
 30
0.0
  0
VERTEX
  5
8356
  8
0
  6
________________
 62
     7
 10
245.1417818791774
 20
-101.3780046579712
 30
0.0
  0
SEQEND
  5
8357
  8
0
  6
________________
 62
     7
  0
POLYLINE
  5
7FDF
  8
0
  6
________________
 62
     7
 66
     1
 10
0.0
 20
0.0
 30
0.0
  0
VERTEX
  5
8358
  8
0
  6
________________
 62
     7
 10
245.0485313623778
 20
-96.85016484926187
 30
0.0
  0
VERTEX
  5
8359
  8
0
  6
________________
 62
     7
 10
244.9678295400714
 20
-97.18467506914821
 30
0.0
  0
VERTEX
  5
835A
  8
0
  6
________________
 62
     7
 10
244.7288253989253
 20
-97.50633024887982
 30
0.0
  0
VERTEX
  5
835B
  8
0
  6
________________
 62
     7
 10
244.3407037340485
 20
-97.8027693602859
 30
0.0
  0
VERTEX
  5
835C
  8
0
  6
________________
 62
     7
 10
243.8183798433614
 20
-98.06260041456008
 30
0.0
  0
VERTEX
  5
835D
  8
0
  6
________________
 62
     7
 10
243.1819263410602
 20
-98.27583825000157
 30
0.0
  0
VERTEX
  5
835E
  8
0
  6
________________
 62
     7
 10
242.4558017783112
 20
-98.43428825617947
 30
0.0
  0
VERTEX
  5
835F
  8
0
  6
________________
 62
     7
 10
241.6679107148456
 20
-98.53186128821618
 30
0.0
  0
VERTEX
  5
8360
  8
0
  6
________________
 62
     7
 10
240.8485313623779
 20
-98.5648076692101
 30
0.0
  0
VERTEX
  5
8361
  8
0
  6
________________
 62
     7
 10
240.0291520099101
 20
-98.53186128821618
 30
0.0
  0
VERTEX
  5
8362
  8
0
  6
________________
 62
     7
 10
239.2412609464445
 20
-98.43428825617947
 30
0.0
  0
VERTEX
  5
8363
  8
0
  6
________________
 62
     7
 10
238.5151363836955
 20
-98.27583825000157
 30
0.0
  0
VERTEX
  5
8364
  8
0
  6
________________
 62
     7
 10
237.8786828813944
 20
-98.06260041456008
 30
0.0
  0
VERTEX
  5
8365
  8
0
  6
________________
 62
     7
 10
237.3563589907072
 20
-97.8027693602859
 30
0.0
  0
VERTEX
  5
8366
  8
0
  6
________________
 62
     7
 10
236.9682373258304
 20
-97.50633024887982
 30
0.0
  0
VERTEX
  5
8367
  8
0
  6
________________
 62
     7
 10
236.7292331846843
 20
-97.18467506914821
 30
0.0
  0
VERTEX
  5
8368
  8
0
  6
________________
 62
     7
 10
236.6485313623779
 20
-96.85016484926187
 30
0.0
  0
SEQEND
  5
8369
  8
0
  6
________________
 62
     7
  0
POLYLINE
  5
7FE0
  8
0
  6
________________
 62
     7
 66
     1
 10
0.0
 20
0.0
 30
0.0
  0
VERTEX
  5
836A
  8
0
  6
________________
 62
     7
 10
236.5552808455783
 20
-101.3780046579712
 30
0.0
  0
VERTEX
  5
836B
  8
0
  6
________________
 62
     7
 10
236.1769362129328
 20
-100.9518705037672
 30
0.0
  0
VERTEX
  5
836C
  8
0
  6
________________
 62
     7
 10
236.0485313623778
 20
-100.501648565963
 30
0.0
  0
SEQEND
  5
836D
  8
0
  6
________________
 62
     7
  0
POLYLINE
  5
7FE1
  8
0
  6
________________
 62
     7
 66
     1
 10
0.0
 20
0.0
 30
0.0
  0
VERTEX
  5
836E
  8
0
  6
________________
 62
     7
 10
245.1417818791774
 20
-101.3780046579712
 30
0.0
  0
VERTEX
  5
836F
  8
0
  6
________________
 62
     7
 10
244.6258877923169
 20
-101.7107514290532
 30
0.0
  0
VERTEX
  5
8370
  8
0
  6
________________
 62
     7
 10
243.9574453642707
 20
-101.9946686444635
 30
0.0
  0
VERTEX
  5
8371
  8
0
  6
________________
 62
     7
 10
243.1634496074153
 20
-102.218290322358
 30
0.0
  0
VERTEX
  5
8372
  8
0
  6
________________
 62
     7
 10
242.2759659987219
 20
-102.3725855130105
 30
0.0
  0
VERTEX
  5
8373
  8
0
  6
________________
 62
     7
 10
241.3308355171522
 20
-102.4513230132442
 30
0.0
  0
VERTEX
  5
8374
  8
0
  6
________________
 62
     7
 10
240.3662272076035
 20
-102.4513230132442
 30
0.0
  0
VERTEX
  5
8375
  8
0
  6
________________
 62
     7
 10
239.4210967260338
 20
-102.3725855130105
 30
0.0
  0
VERTEX
  5
8376
  8
0
  6
________________
 62
     7
 10
238.5336131173405
 20
-102.218290322358
 30
0.0
  0
VERTEX
  5
8377
  8
0
  6
________________
 62
     7
 10
237.739617360485
 20
-101.9946686444635
 30
0.0
  0
VERTEX
  5
8378
  8
0
  6
________________
 62
     7
 10
237.0711749324388
 20
-101.7107514290532
 30
0.0
  0
VERTEX
  5
8379
  8
0
  6
________________
 62
     7
 10
236.5552808455783
 20
-101.3780046579712
 30
0.0
  0
SEQEND
  5
837A
  8
0
  6
________________
 62
     7
  0
POLYLINE
  5
7FE2
  8
0
  6
________________
 62
     7
 66
     1
 10
0.0
 20
0.0
 30
0.0
  0
VERTEX
  5
837B
  8
0
  6
________________
 62
     7
 10
244.4262401263775
 20
-101.9622420526434
 30
0.0
  0
VERTEX
  5
837C
  8
0
  6
________________
 62
     7
 10
243.9963283873271
 20
-102.239531028545
 30
0.0
  0
VERTEX
  5
837D
  8
0
  6
________________
 62
     7
 10
243.4392930306219
 20
-102.4761287080537
 30
0.0
  0
VERTEX
  5
837E
  8
0
  6
________________
 62
     7
 10
242.777629899909
 20
-102.662480106299
 30
0.0
  0
VERTEX
  5
837F
  8
0
  6
________________
 62
     7
 10
242.0380602259979
 20
-102.7910594318428
 30
0.0
  0
VERTEX
  5
8380
  8
0
  6
________________
 62
     7
 10
241.2504514913565
 20
-102.8566740153709
 30
0.0
  0
VERTEX
  5
8381
  8
0
  6
________________
 62
     7
 10
240.4466112333992
 20
-102.8566740153709
 30
0.0
  0
VERTEX
  5
8382
  8
0
  6
________________
 62
     7
 10
239.6590024987578
 20
-102.7910594318428
 30
0.0
  0
VERTEX
  5
8383
  8
0
  6
________________
 62
     7
 10
238.9194328248467
 20
-102.662480106299
 30
0.0
  0
VERTEX
  5
8384
  8
0
  6
________________
 62
     7
 10
238.2577696941338
 20
-102.4761287080537
 30
0.0
  0
VERTEX
  5
8385
  8
0
  6
________________
 62
     7
 10
237.7007343374286
 20
-102.239531028545
 30
0.0
  0
VERTEX
  5
8386
  8
0
  6
________________
 62
     7
 10
237.2708225983782
 20
-101.9622420526434
 30
0.0
  0
SEQEND
  5
8387
  8
0
  6
________________
 62
     7
  0
LINE
  5
7FE3
  8
0
  6
________________
 62
     7
 10
248.7194906431772
 20
-87.57539620884106
 30
0.0
 11
248.3617197667771
 21
-87.28327751150498
 31
0.0
  0
LINE
  5
7FE4
  8
0
  6
________________
 62
     7
 10
233.3353429579786
 20
-87.28327751150498
 30
0.0
 11
232.9775720815786
 21
-87.57539620884106
 31
0.0
  0
LINE
  5
7FE5
  8
0
  6
________________
 62
     7
 10
249.6485313623779
 20
-90.64264253086998
 30
0.0
 11
249.6485313623779
 21
-89.18204904418954
 31
0.0
  0
LINE
  5
7FE6
  8
0
  6
________________
 62
     7
 10
232.0485313623778
 20
-89.18204904418954
 30
0.0
 11
232.0485313623778
 21
-90.64264253086998
 31
0.0
  0
LINE
  5
7FE7
  8
0
  6
________________
 62
     7
 10
245.6885313623778
 20
-95.38957136258142
 30
0.0
 11
245.6885313623778
 21
-93.64304250420687
 31
0.0
  0
LINE
  5
7FE8
  8
0
  6
________________
 62
     7
 10
236.0085313623779
 20
-93.64304250420687
 30
0.0
 11
236.0085313623779
 21
-95.38957136258142
 31
0.0
  0
LINE
  5
7FE9
  8
0
  6
________________
 62
     7
 10
245.6485313623779
 20
-100.501648565963
 30
0.0
 11
245.6485313623779
 21
-96.85016484926187
 31
0.0
  0
LINE
  5
7FEA
  8
0
  6
________________
 62
     7
 10
236.0485313623778
 20
-96.85016484926187
 30
0.0
 11
236.0485313623778
 21
-100.501648565963
 31
0.0
  0
LINE
  5
7FEB
  8
0
  6
________________
 62
     7
 10
245.0485313623778
 20
-96.85016484926187
 30
0.0
 11
245.0485313623778
 21
-96.3715421700226
 31
0.0
  0
LINE
  5
7FEC
  8
0
  6
________________
 62
     7
 10
236.6485313623779
 20
-96.3715421700226
 30
0.0
 11
236.6485313623779
 21
-96.85016484926187
 31
0.0
  0
LINE
  5
7FED
  8
0
  6
________________
 62
     7
 10
236.5552808455782
 20
-101.3780046579712
 30
0.0
 11
237.2708225983782
 21
-101.9622420526434
 31
0.0
  0
LINE
  5
7FEE
  8
0
  6
________________
 62
     7
 10
244.4262401263775
 20
-101.9622420526434
 30
0.0
 11
245.1417818791775
 21
-101.3780046579712
 31
0.0
  0
LINE
  5
8005
  8
0
 62
     5
 10
201.7657982497624
 20
-50.7523892161422
 30
0.0
 11
203.6995482497624
 21
-50.7523892161422
 31
0.0
  0
LINE
  5
8006
  8
0
 62
     5
 10
201.7657982497624
 20
-49.7523892161422
 30
0.0
 11
203.6995482497624
 21
-49.7523892161422
 31
0.0
  0
POINT
  5
8027
  8
0
 62
   253
 10
207.7345482497624
 20
-65.7523892161422
 30
0.0
  0
POLYLINE
  5
8028
  8
0
 62
   253
 10
0.0
 20
0.0
 30
0.0
 66
     1
 70
     8
  0
VERTEX
  5
8029
  8
0
 62
   253
 10
207.7345482497624
 20
-65.7523892161422
 30
0.0
 70
    32
  0
SEQEND
  5
802A
  8
0
 62
   253
  0
LINE
  5
802C
  8
0
 62
   253
 10
191.8246432497624
 20
-49.84248421614219
 30
0.0
 11
191.9147407510366
 21
-49.75238671614219
 31
0.0
  0
LINE
  5
8041
  8
0
 62
   253
 10
195.7345507497624
 20
-60.78182671614223
 30
0.0
 11
195.7639907497624
 21
-60.75238671614215
 31
0.0
  0
LINE
  5
8066
  8
0
 62
   253
 10
206.7345457497624
 20
-66.75239171614217
 30
0.0
 11
207.7345482497624
 21
-65.7523892161422
 31
0.0
  0
LINE
  5
8067
  8
0
  6
________________
 62
     7
 10
212.7345482497624
 20
-50.2523892161422
 30
0.0
 11
212.2345482497624
 21
-49.7523892161422
 31
0.0
  0
LINE
  5
8068
  8
0
  6
________________
 62
     7
 10
191.2345482497624
 20
-49.7523892161422
 30
0.0
 11
190.7345482497624
 21
-50.2523892161422
 31
0.0
  0
LINE
  5
8069
  8
0
  6
________________
 62
     7
 10
196.6345482497624
 20
-49.7523892161422
 30
0.0
 11
197.6345482497624
 21
-50.7523892161422
 31
0.0
  0
LINE
  5
806A
  8
0
  6
________________
 62
     7
 10
205.8345482497624
 20
-50.7523892161422
 30
0.0
 11
206.8345482497624
 21
-49.7523892161422
 31
0.0
  0
LINE
  5
806B
  8
0
  6
________________
 62
     7
 10
197.6345482497624
 20
-50.7523892161422
 30
0.0
 11
205.8345482497624
 21
-50.7523892161422
 31
0.0
  0
LINE
  5
806C
  8
0
  6
________________
 62
     7
 10
206.8345482497624
 20
-49.7523892161422
 30
0.0
 11
196.6345482497624
 21
-49.7523892161422
 31
0.0
  0
LINE
  5
806E
  8
0
  6
________________
 62
     7
 10
196.7345482497624
 20
-66.7523892161422
 30
0.0
 11
206.7345482497624
 21
-66.7523892161422
 31
0.0
  0
LINE
  5
806F
  8
0
  6
________________
 62
     7
 10
195.7345482497624
 20
-65.7523892161422
 30
0.0
 11
196.7345482497624
 21
-66.7523892161422
 31
0.0
  0
LINE
  5
8070
  8
0
  6
________________
 62
     7
 10
195.7345482497624
 20
-60.75238921614218
 30
0.0
 11
195.7345482497624
 21
-65.7523892161422
 31
0.0
  0
LINE
  5
8071
  8
0
  6
________________
 62
     7
 10
196.4845482497624
 20
-60.75238921614218
 30
0.0
 11
195.7345482497624
 21
-60.75238921614218
 31
0.0
  0
LINE
  5
8072
  8
0
  6
________________
 62
     7
 10
196.4845482497624
 20
-58.75238921614218
 30
0.0
 11
196.4845482497624
 21
-60.75238921614218
 31
0.0
  0
LINE
  5
8073
  8
0
  6
________________
 62
     7
 10
195.6845482497624
 20
-58.75238921614218
 30
0.0
 11
196.4845482497624
 21
-58.75238921614218
 31
0.0
  0
LINE
  5
8074
  8
0
  6
________________
 62
     7
 10
195.6845482497624
 20
-52.2523892161422
 30
0.0
 11
195.6845482497624
 21
-58.75238921614218
 31
0.0
  0
LINE
  5
8075
  8
0
  6
________________
 62
     7
 10
190.7345482497624
 20
-52.2523892161422
 30
0.0
 11
195.6845482497624
 21
-52.2523892161422
 31
0.0
  0
LINE
  5
8076
  8
0
  6
________________
 62
     7
 10
190.7345482497624
 20
-50.2523892161422
 30
0.0
 11
190.7345482497624
 21
-52.2523892161422
 31
0.0
  0
LINE
  5
8077
  8
0
  6
________________
 62
     7
 10
197.6345482497624
 20
-62.88525311246472
 30
0.0
 11
197.6345482497624
 21
-50.7523892161422
 31
0.0
  0
LINE
  5
8078
  8
0
  6
________________
 62
     7
 10
201.7345482497624
 20
-65.2523892161422
 30
0.0
 11
197.6345482497624
 21
-62.88525311246472
 31
0.0
  0
LINE
  5
8079
  8
0
  6
________________
 62
     7
 10
205.8345482497624
 20
-62.88525311246472
 30
0.0
 11
201.7345482497624
 21
-65.2523892161422
 31
0.0
  0
LINE
  5
807A
  8
0
  6
________________
 62
     7
 10
205.8345482497624
 20
-50.7523892161422
 30
0.0
 11
205.8345482497624
 21
-62.88525311246472
 31
0.0
  0
LINE
  5
807B
  8
0
  6
________________
 62
     7
 10
212.7345482497624
 20
-52.2523892161422
 30
0.0
 11
212.7345482497624
 21
-50.2523892161422
 31
0.0
  0
LINE
  5
807C
  8
0
  6
________________
 62
     7
 10
207.7845482497624
 20
-52.2523892161422
 30
0.0
 11
212.7345482497624
 21
-52.2523892161422
 31
0.0
  0
LINE
  5
807D
  8
0
  6
________________
 62
     7
 10
207.7845482497624
 20
-58.75238921614218
 30
0.0
 11
207.7845482497624
 21
-52.2523892161422
 31
0.0
  0
LINE
  5
807E
  8
0
  6
________________
 62
     7
 10
206.9845482497624
 20
-58.75238921614218
 30
0.0
 11
207.7845482497624
 21
-58.75238921614218
 31
0.0
  0
LINE
  5
807F
  8
0
  6
________________
 62
     7
 10
206.9845482497624
 20
-60.75238921614218
 30
0.0
 11
206.9845482497624
 21
-58.75238921614218
 31
0.0
  0
LINE
  5
8080
  8
0
  6
________________
 62
     7
 10
207.7345482497624
 20
-60.75238921614218
 30
0.0
 11
206.9845482497624
 21
-60.75238921614218
 31
0.0
  0
LINE
  5
8081
  8
0
  6
________________
 62
     7
 10
207.7345482497624
 20
-65.7523892161422
 30
0.0
 11
207.7345482497624
 21
-60.75238921614218
 31
0.0
  0
LINE
  5
8082
  8
0
  6
________________
 62
     7
 10
196.6345482497624
 20
-49.7523892161422
 30
0.0
 11
191.2345482497624
 21
-49.7523892161422
 31
0.0
  0
LINE
  5
8083
  8
0
  6
________________
 62
     7
 10
212.2345482497624
 20
-49.7523892161422
 30
0.0
 11
206.8345482497624
 21
-49.7523892161422
 31
0.0
  0
LINE
  5
8084
  8
0
  6
________________
 62
     7
 10
205.8345482497624
 20
-62.88525311246472
 30
0.0
 11
197.6345482497624
 21
-62.88525311246472
 31
0.0
  0
CIRCLE
  5
808D
  8
0
  6
CONTINUOUS
 10
201.7345482497624
 20
-93.59362156531346
 30
0.0
 40
4.100000000000009
  0
CIRCLE
  5
808E
  8
0
  6
CONTINUOUS
 10
201.7345482497624
 20
-93.59362156531346
 30
0.0
 40
5.100000000000009
  0
CIRCLE
  5
808F
  8
0
  6
CONTINUOUS
 10
201.7345482497624
 20
-93.59362156531346
 30
0.0
 40
10.5
  0
CIRCLE
  5
8090
  8
0
  6
CONTINUOUS
 10
201.7345482497624
 20
-93.59362156531346
 30
0.0
 40
11.0
  0
LINE
  5
8092
  8
0
  6
CENTER
 62
     1
 10
188.6845482497631
 20
-93.59362156531346
 30
0.0
 11
214.7845482497618
 21
-93.59362156531346
 31
0.0
  0
LINE
  5
8093
  8
0
  6
CENTER
 62
     1
 10
201.7345482497624
 20
-106.6436215653128
 30
0.0
 11
201.7345482497624
 21
-80.54362156531408
 31
0.0
  0
TEXT
  5
8094
  8
0
  6
CONTINUOUS
 62
     7
 10
188.0566625410382
 20
-32.46097435454848
 30
0.0
 40
10.0
  1
0152
  0
ENDSEC
  0
EOF
