  0
SECTION
  2
HEADER
  9
$ACADVER
  1
AC1015
  9
$ACADMAINTVER
 70
    20
  9
$DWGCODEPAGE
  3
ANSI_1252
  9
$INSBASE
 10
267.5068505439835
 20
0.0
 30
0.0
  9
$EXTMIN
 10
-0.2202681322851276
 20
-0.2390392933411931
 30
-0.0000000349181948
  9
$EXTMAX
 10
3609.220297073812
 20
3916.838150123898
 30
0.0000000814935747
  9
$LIMMIN
 10
0.0
 20
0.0
  9
$LIMMAX
 10
420.0
 20
297.0
  9
$ORTHOMODE
 70
     1
  9
$REGENMODE
 70
     1
  9
$FILLMODE
 70
     1
  9
$QTEXTMODE
 70
     0
  9
$MIRRTEXT
 70
     1
  9
$LTSCALE
 40
0.5
  9
$ATTMODE
 70
     1
  9
$TEXTSIZE
 40
5.866704811210071
  9
$TRACEWID
 40
1.0
  9
$TEXTSTYLE
  7
Standard
  9
$CLAYER
  8
0
  9
$CELTYPE
  6
ByLayer
  9
$CECOLOR
 62
   256
  9
$CELTSCALE
 40
1.0
  9
$DISPSILH
 70
     0
  9
$DIMSCALE
 40
1.0
  9
$DIMASZ
 40
2.5
  9
$DIMEXO
 40
0.0
  9
$DIMDLI
 40
3.75
  9
$DIMRND
 40
0.0
  9
$DIMDLE
 40
0.0
  9
$DIMEXE
 40
1.25
  9
$DIMTP
 40
0.0
  9
$DIMTM
 40
0.0
  9
$DIMTXT
 40
2.5
  9
$DIMCEN
 40
2.5
  9
$DIMTSZ
 40
0.0
  9
$DIMTOL
 70
     0
  9
$DIMLIM
 70
     0
  9
$DIMTIH
 70
     0
  9
$DIMTOH
 70
     0
  9
$DIMSE1
 70
     0
  9
$DIMSE2
 70
     0
  9
$DIMTAD
 70
     1
  9
$DIMZIN
 70
     8
  9
$DIMBLK
  1

  9
$DIMASO
 70
     1
  9
$DIMSHO
 70
     1
  9
$DIMPOST
  1

  9
$DIMAPOST
  1

  9
$DIMALT
 70
     0
  9
$DIMALTD
 70
     3
  9
$DIMALTF
 40
0.03937007874016
  9
$DIMLFAC
 40
1.0
  9
$DIMTOFL
 70
     1
  9
$DIMTVP
 40
0.0
  9
$DIMTIX
 70
     0
  9
$DIMSOXD
 70
     0
  9
$DIMSAH
 70
     0
  9
$DIMBLK1
  1

  9
$DIMBLK2
  1

  9
$DIMSTYLE
  2
ISO-25
  9
$DIMCLRD
 70
     3
  9
$DIMCLRE
 70
     3
  9
$DIMCLRT
 70
     0
  9
$DIMTFAC
 40
0.8
  9
$DIMGAP
 40
0.625
  9
$DIMJUST
 70
     0
  9
$DIMSD1
 70
     0
  9
$DIMSD2
 70
     0
  9
$DIMTOLJ
 70
     0
  9
$DIMTZIN
 70
     8
  9
$DIMALTZ
 70
     0
  9
$DIMALTTZ
 70
     0
  9
$DIMUPT
 70
     0
  9
$DIMDEC
 70
     2
  9
$DIMTDEC
 70
     2
  9
$DIMALTU
 70
     2
  9
$DIMALTTD
 70
     3
  9
$DIMTXSTY
  7
Standard
  9
$DIMAUNIT
 70
     0
  9
$DIMADEC
 70
     2
  9
$DIMALTRND
 40
0.0
  9
$DIMAZIN
 70
     2
  9
$DIMDSEP
 70
    44
  9
$DIMATFIT
 70
     3
  9
$DIMFRAC
 70
     0
  9
$DIMLDRBLK
  1

  9
$DIMLUNIT
 70
     2
  9
$DIMLWD
 70
    -2
  9
$DIMLWE
 70
    -2
  9
$DIMTMOVE
 70
     0
  9
$LUNITS
 70
     2
  9
$LUPREC
 70
     4
  9
$SKETCHINC
 40
1.0
  9
$FILLETRAD
 40
5.0
  9
$AUNITS
 70
     0
  9
$AUPREC
 70
     0
  9
$MENU
  1
.
  9
$ELEVATION
 40
0.0
  9
$PELEVATION
 40
0.0
  9
$THICKNESS
 40
0.0
  9
$LIMCHECK
 70
     0
  9
$CHAMFERA
 40
0.0
  9
$CHAMFERB
 40
0.0
  9
$CHAMFERC
 40
20.0
  9
$CHAMFERD
 40
0.0
  9
$SKPOLY
 70
     0
  9
$TDCREATE
 40
2455315.368353577
  9
$TDUCREATE
 40
2455315.285020243
  9
$TDUPDATE
 40
2455315.370200857
  9
$TDUUPDATE
 40
2455315.286867523
  9
$TDINDWG
 40
0.0007267361
  9
$TDUSRTIMER
 40
0.0007265509
  9
$USRTIMER
 70
     1
  9
$ANGBASE
 50
0.0
  9
$ANGDIR
 70
     0
  9
$PDMODE
 70
     0
  9
$PDSIZE
 40
0.0
  9
$PLINEWID
 40
0.0
  9
$SPLFRAME
 70
     0
  9
$SPLINETYPE
 70
     6
  9
$SPLINESEGS
 70
     8
  9
$HANDSEED
  5
F47
  9
$SURFTAB1
 70
     6
  9
$SURFTAB2
 70
     6
  9
$SURFTYPE
 70
     6
  9
$SURFU
 70
     6
  9
$SURFV
 70
     6
  9
$UCSBASE
  2

  9
$UCSNAME
  2

  9
$UCSORG
 10
0.0
 20
0.0
 30
0.0
  9
$UCSXDIR
 10
1.0
 20
0.0
 30
0.0
  9
$UCSYDIR
 10
0.0
 20
1.0
 30
0.0
  9
$UCSORTHOREF
  2

  9
$UCSORTHOVIEW
 70
     0
  9
$UCSORGTOP
 10
0.0
 20
0.0
 30
0.0
  9
$UCSORGBOTTOM
 10
0.0
 20
0.0
 30
0.0
  9
$UCSORGLEFT
 10
0.0
 20
0.0
 30
0.0
  9
$UCSORGRIGHT
 10
0.0
 20
0.0
 30
0.0
  9
$UCSORGFRONT
 10
0.0
 20
0.0
 30
0.0
  9
$UCSORGBACK
 10
0.0
 20
0.0
 30
0.0
  9
$PUCSBASE
  2

  9
$PUCSNAME
  2

  9
$PUCSORG
 10
0.0
 20
0.0
 30
0.0
  9
$PUCSXDIR
 10
1.0
 20
0.0
 30
0.0
  9
$PUCSYDIR
 10
0.0
 20
1.0
 30
0.0
  9
$PUCSORTHOREF
  2

  9
$PUCSORTHOVIEW
 70
     0
  9
$PUCSORGTOP
 10
0.0
 20
0.0
 30
0.0
  9
$PUCSORGBOTTOM
 10
0.0
 20
0.0
 30
0.0
  9
$PUCSORGLEFT
 10
0.0
 20
0.0
 30
0.0
  9
$PUCSORGRIGHT
 10
0.0
 20
0.0
 30
0.0
  9
$PUCSORGFRONT
 10
0.0
 20
0.0
 30
0.0
  9
$PUCSORGBACK
 10
0.0
 20
0.0
 30
0.0
  9
$USERI1
 70
     0
  9
$USERI2
 70
     0
  9
$USERI3
 70
     0
  9
$USERI4
 70
     0
  9
$USERI5
 70
     0
  9
$USERR1
 40
0.0
  9
$USERR2
 40
0.0
  9
$USERR3
 40
0.0
  9
$USERR4
 40
0.0
  9
$USERR5
 40
0.0
  9
$WORLDVIEW
 70
     1
  9
$SHADEDGE
 70
     3
  9
$SHADEDIF
 70
    70
  9
$TILEMODE
 70
     1
  9
$MAXACTVP
 70
    64
  9
$PINSBASE
 10
0.0
 20
0.0
 30
0.0
  9
$PLIMCHECK
 70
     0
  9
$PEXTMIN
 10
1.000000000000000E+20
 20
1.000000000000000E+20
 30
1.000000000000000E+20
  9
$PEXTMAX
 10
-1.000000000000000E+20
 20
-1.000000000000000E+20
 30
-1.000000000000000E+20
  9
$PLIMMIN
 10
0.0
 20
0.0
  9
$PLIMMAX
 10
420.0
 20
297.0
  9
$UNITMODE
 70
     0
  9
$VISRETAIN
 70
     1
  9
$PLINEGEN
 70
     0
  9
$PSLTSCALE
 70
     1
  9
$TREEDEPTH
 70
  3020
  9
$CMLSTYLE
  2
Standard
  9
$CMLJUST
 70
     0
  9
$CMLSCALE
 40
20.0
  9
$PROXYGRAPHICS
 70
     1
  9
$MEASUREMENT
 70
     1
  9
$CELWEIGHT
370
    -1
  9
$ENDCAPS
280
     0
  9
$JOINSTYLE
280
     0
  9
$LWDISPLAY
290
     0
  9
$INSUNITS
 70
     4
  9
$HYPERLINKBASE
  1

  9
$STYLESHEET
  1
MONOCHROME.CTB
  9
$XEDIT
290
     1
  9
$CEPSNTYPE
380
     0
  9
$PSTYLEMODE
290
     1
  9
$FINGERPRINTGUID
  2
{97F0713E-7EA8-4547-9A96-EAB1A2F5E0E6}
  9
$VERSIONGUID
  2
{31CBDD79-D826-475F-9753-8DB80BB52BC5}
  9
$EXTNAMES
290
     1
  9
$PSVPSCALE
 40
0.0
  9
$OLESTARTUP
290
     0
  0
ENDSEC
  0
SECTION
  2
CLASSES
  0
CLASS
  1
ACDBDICTIONARYWDFLT
  2
AcDbDictionaryWithDefault
  3
ObjectDBX Classes
 90
        0
280
     0
281
     0
  0
CLASS
  1
ACDBPLACEHOLDER
  2
AcDbPlaceHolder
  3
ObjectDBX Classes
 90
        0
280
     0
281
     0
  0
CLASS
  1
LAYOUT
  2
AcDbLayout
  3
ObjectDBX Classes
 90
        0
280
     0
281
     0
  0
CLASS
  1
DICTIONARYVAR
  2
AcDbDictionaryVar
  3
ObjectDBX Classes
 90
        0
280
     0
281
     0
  0
CLASS
  1
MATERIAL
  2
AcDbMaterial
  3
ObjectDBX Classes
 90
     1153
280
     0
281
     0
  0
CLASS
  1
VISUALSTYLE
  2
AcDbVisualStyle
  3
ObjectDBX Classes
 90
     4095
280
     0
281
     0
  0
CLASS
  1
TABLESTYLE
  2
AcDbTableStyle
  3
ObjectDBX Classes
 90
     4095
280
     0
281
     0
  0
CLASS
  1
SCALE
  2
AcDbScale
  3
ObjectDBX Classes
 90
     1153
280
     0
281
     0
  0
CLASS
  1
MLEADERSTYLE
  2
AcDbMLeaderStyle
  3
ACDB_MLEADERSTYLE_CLASS
 90
     4095
280
     0
281
     0
  0
CLASS
  1
CELLSTYLEMAP
  2
AcDbCellStyleMap
  3
ObjectDBX Classes
 90
     1152
280
     0
281
     0
  0
CLASS
  1
SORTENTSTABLE
  2
AcDbSortentsTable
  3
ObjectDBX Classes
 90
        0
280
     0
281
     0
  0
ENDSEC
  0
SECTION
  2
TABLES
  0
TABLE
  2
VPORT
  5
19
330
0
100
AcDbSymbolTable
 70
     1
  0
VPORT
  5
630
330
19
100
AcDbSymbolTableRecord
100
AcDbViewportTableRecord
  2
*Active
 70
     0
 10
0.0
 20
0.0
 11
1.0
 21
1.0
 12
1694.177458004046
 22
2008.090998534198
 13
0.0
 23
0.0
 14
10.0
 24
10.0
 15
10.0
 25
10.0
 16
0.0
 26
0.0
 36
1.0
 17
0.0
 27
0.0
 37
0.0
 40
4431.829505850639
 41
1.611330698287219
 42
50.0
 43
0.0
 44
0.0
 50
0.0
 51
0.0
 71
     0
 72
   100
 73
     1
 74
     2
 75
     0
 76
     0
 77
     0
 78
     0
281
     0
 65
     1
110
0.0
120
0.0
130
0.0
111
1.0
121
0.0
131
0.0
112
0.0
122
1.0
132
0.0
 79
     0
146
0.0
  0
ENDTAB
  0
TABLE
  2
LTYPE
  5
14
330
0
100
AcDbSymbolTable
 70
     1
  0
LTYPE
  5
15
330
14
100
AcDbSymbolTableRecord
100
AcDbLinetypeTableRecord
  2
ByBlock
 70
     0
  3

 72
    65
 73
     0
 40
0.0
  0
LTYPE
  5
16
330
14
100
AcDbSymbolTableRecord
100
AcDbLinetypeTableRecord
  2
ByLayer
 70
     0
  3

 72
    65
 73
     0
 40
0.0
  0
LTYPE
  5
8
330
14
100
AcDbSymbolTableRecord
100
AcDbLinetypeTableRecord
  2
Continuous
 70
     0
  3
Solid line
 72
    65
 73
     0
 40
0.0
  0
ENDTAB
  0
TABLE
  2
LAYER
  5
10
330
0
100
AcDbSymbolTable
 70
     2
  0
LAYER
  5
4
102
{ACAD_XDICTIONARY
360
68A
102
}
330
10
100
AcDbSymbolTableRecord
100
AcDbLayerTableRecord
  2
0
 70
     0
 62
     7
  6
Continuous
370
    -3
390
5
  0
LAYER
  5
34
330
10
100
AcDbSymbolTableRecord
100
AcDbLayerTableRecord
  2
Defpoints
 70
     0
 62
     7
  6
Continuous
290
     0
370
    -3
390
5
  0
ENDTAB
  0
TABLE
  2
STYLE
  5
11
330
0
100
AcDbSymbolTable
 70
     1
  0
STYLE
  5
12
330
11
100
AcDbSymbolTableRecord
100
AcDbTextStyleTableRecord
  2
Standard
 70
     0
 40
0.0
 41
0.9
 50
0.0
 71
     0
 42
5.866704811210071
  3
simplex.shx
  4

  0
ENDTAB
  0
TABLE
  2
VIEW
  5
17
330
0
100
AcDbSymbolTable
 70
     0
  0
ENDTAB
  0
TABLE
  2
UCS
  5
18
330
0
100
AcDbSymbolTable
 70
     0
  0
ENDTAB
  0
TABLE
  2
APPID
  5
1B
330
0
100
AcDbSymbolTable
 70
     3
  0
APPID
  5
1C
330
1B
100
AcDbSymbolTableRecord
100
AcDbRegAppTableRecord
  2
ACAD
 70
     0
  0
APPID
  5
683
330
1B
100
AcDbSymbolTableRecord
100
AcDbRegAppTableRecord
  2
ACAD_MLEADERVER
 70
     0
  0
APPID
  5
69C
330
1B
100
AcDbSymbolTableRecord
100
AcDbRegAppTableRecord
  2
DCO15
 70
     0
  0
ENDTAB
  0
TABLE
  2
DIMSTYLE
  5
1D
330
0
100
AcDbSymbolTable
 70
     2
100
AcDbDimStyleTable
 71
     1
340
1E
  0
DIMSTYLE
105
1E
330
1D
100
AcDbSymbolTableRecord
100
AcDbDimStyleTableRecord
  2
ISO-25
 70
     0
 41
2.5
 42
0.0
 43
3.75
 44
1.25
 73
     0
 74
     0
 77
     1
 78
     8
140
2.5
141
2.5
143
0.03937007874016
147
0.625
171
     3
172
     1
176
     3
177
     3
271
     2
272
     2
274
     3
278
    44
283
     0
284
     8
340
12
  0
DIMSTYLE
105
6AF
330
1D
100
AcDbSymbolTableRecord
100
AcDbDimStyleTableRecord
  2
Standard
 70
     0
 41
1.25
 42
1.0
 44
0.75
 73
     0
 74
     0
 77
     1
140
2.5
146
0.8
147
1.25
176
     7
177
     7
178
     7
271
     2
340
12
  0
ENDTAB
  0
TABLE
  2
BLOCK_RECORD
  5
1
330
0
100
AcDbSymbolTable
 70
     0
  0
BLOCK_RECORD
  5
2
102
{ACAD_XDICTIONARY
360
F27
102
}
330
1
100
AcDbSymbolTableRecord
100
AcDbBlockTableRecord
  2
*Model_Space
340
A
  0
BLOCK_RECORD
  5
C
330
1
100
AcDbSymbolTableRecord
100
AcDbBlockTableRecord
  2
*Paper_Space
340
F
  0
ENDTAB
  0
ENDSEC
  0
SECTION
  2
BLOCKS
  0
BLOCK
  5
3
330
2
100
AcDbEntity
  8
0
100
AcDbBlockBegin
  2
*Model_Space
 70
     0
 10
0.0
 20
0.0
 30
0.0
  3
*Model_Space
  1

  0
ENDBLK
  5
9
330
2
100
AcDbEntity
  8
0
100
AcDbBlockEnd
  0
BLOCK
  5
D
330
C
100
AcDbEntity
 67
     1
  8
0
100
AcDbBlockBegin
  2
*Paper_Space
 70
     0
 10
0.0
 20
0.0
 30
0.0
  3
*Paper_Space
  1

  0
ENDBLK
  5
E
330
C
100
AcDbEntity
 67
     1
  8
0
100
AcDbBlockEnd
  0
ENDSEC
  0
SECTION
  2
ENTITIES
  0
LINE
  5
AEE
330
2
100
AcDbEntity
  8
0
  6
Continuous
 62
     7
100
AcDbLine
 10
1162.299997664544
 20
3460.500015537907
 30
0.0
 11
1162.299997664544
 21
3468.482071780516
 31
0.0
  0
LINE
  5
AEF
330
2
100
AcDbEntity
  8
0
  6
Continuous
 62
     7
100
AcDbLine
 10
1162.299997664544
 20
3468.482071780513
 30
0.0
 11
1162.299997664544
 21
3476.500015537907
 31
0.0
  0
LINE
  5
AF0
330
2
100
AcDbEntity
  8
0
  6
Continuous
 62
     7
100
AcDbLine
 10
1162.099997664534
 20
3460.500015537907
 30
0.0
 11
1162.099997664534
 21
3468.482071780516
 31
0.0
  0
LINE
  5
AF1
330
2
100
AcDbEntity
  8
0
  6
Continuous
 62
     7
100
AcDbLine
 10
1162.299997664544
 20
3460.500015537907
 30
0.0
 11
1162.299997664544
 21
3468.482071780516
 31
0.0
  0
LINE
  5
AF2
330
2
100
AcDbEntity
  8
0
  6
Continuous
 62
     7
100
AcDbLine
 10
1162.099997664543
 20
3468.482071780516
 30
0.0
 11
1162.099997664543
 21
3476.500015537907
 31
0.0
  0
LINE
  5
AF3
330
2
100
AcDbEntity
  8
0
  6
Continuous
 62
     7
100
AcDbLine
 10
1162.299997664544
 20
3468.482071780516
 30
0.0
 11
1162.299997664544
 21
3476.500015537907
 31
0.0
  0
LINE
  5
AF4
330
2
100
AcDbEntity
  8
0
  6
Continuous
 62
     7
100
AcDbLine
 10
1162.499997664554
 20
3461.500015537903
 30
0.0
 11
1162.499997664554
 21
3464.193995007459
 31
0.0
  0
LINE
  5
AF5
330
2
100
AcDbEntity
  8
0
  6
Continuous
 62
     7
100
AcDbLine
 10
1162.499997664554
 20
3464.193995007459
 30
0.0
 11
1162.499997664554
 21
3475.500015537909
 31
0.0
  0
LINE
  5
AF6
330
2
100
AcDbEntity
  8
0
  6
Continuous
 62
     7
100
AcDbLine
 10
1162.499997664543
 20
3480.500015537904
 30
0.0
 11
1162.499997664543
 21
3456.500015537903
 31
0.0
  0
LINE
  5
AF7
330
2
100
AcDbEntity
  8
0
  6
Continuous
 62
     7
100
AcDbLine
 10
1157.099997664543
 20
3481.000015537905
 30
0.0
 11
1157.099997664543
 21
3456.000015537905
 31
0.0
  0
LINE
  5
AF8
330
2
100
AcDbEntity
  8
0
  6
Continuous
 62
     7
100
AcDbLine
 10
1156.099997664543
 20
3457.000015537906
 30
0.0
 11
1156.099997664543
 21
3480.000015537906
 31
0.0
  0
LINE
  5
AF9
330
2
100
AcDbEntity
  8
0
  6
Continuous
 62
     7
100
AcDbLine
 10
1162.099997664534
 20
3481.000015537905
 30
0.0
 11
1162.099997664543
 21
3456.000015537905
 31
0.0
  0
LINE
  5
AFA
330
2
100
AcDbEntity
  8
0
  6
Continuous
 62
     7
100
AcDbLine
 10
1174.499997664834
 20
3480.500015537902
 30
0.0
 11
1174.499997664834
 21
3468.473099901031
 31
0.0
  0
LINE
  5
AFB
330
2
100
AcDbEntity
  8
0
  6
Continuous
 62
     7
100
AcDbLine
 10
1174.499997664834
 20
3468.473099901031
 30
0.0
 11
1174.499997664834
 21
3456.500015537903
 31
0.0
  0
LINE
  5
AFC
330
2
100
AcDbEntity
  8
0
  6
Continuous
 62
     7
100
AcDbLine
 10
1173.499997664834
 20
3480.500015537902
 30
0.0
 11
1173.499997664834
 21
3456.500015537903
 31
0.0
  0
LINE
  5
AFD
330
2
100
AcDbEntity
  8
0
  6
Continuous
 62
     7
100
AcDbLine
 10
1177.999997664834
 20
3481.000015537901
 30
0.0
 11
1177.999997664834
 21
3468.471978416158
 31
0.0
  0
LINE
  5
AFE
330
2
100
AcDbEntity
  8
0
  6
Continuous
 62
     7
100
AcDbLine
 10
1179.499997664834
 20
3479.500015537901
 30
0.0
 11
1179.499997664834
 21
3468.475342870767
 31
0.0
  0
LINE
  5
AFF
330
2
100
AcDbEntity
  8
0
  6
Continuous
 62
     7
100
AcDbLine
 10
1177.999997664834
 20
3468.471978416158
 30
0.0
 11
1177.999997664825
 21
3456.000015537902
 31
0.0
  0
LINE
  5
B00
330
2
100
AcDbEntity
  8
0
  6
Continuous
 62
     7
100
AcDbLine
 10
1179.499997664834
 20
3468.475342870767
 30
0.0
 11
1179.499997664834
 21
3457.5000155379
 31
0.0
  0
LINE
  5
B01
330
2
100
AcDbEntity
  8
0
  6
Continuous
 62
     9
100
AcDbLine
 10
1174.999997664834
 20
3481.000015537902
 30
0.0
 11
1174.999997664834
 21
3468.47197841616
 31
0.0
  0
LINE
  5
B02
330
2
100
AcDbEntity
  8
0
  6
Continuous
 62
     9
100
AcDbLine
 10
1174.999997664834
 20
3468.47197841616
 30
0.0
 11
1174.999997664834
 21
3456.000015537903
 31
0.0
  0
LINE
  5
B03
330
2
100
AcDbEntity
  8
0
  6
Continuous
 62
     7
100
AcDbLine
 10
1174.499997664834
 20
3480.500015537902
 30
0.0
 11
1174.499997664834
 21
3468.473099901031
 31
0.0
  0
LINE
  5
B04
330
2
100
AcDbEntity
  8
0
  6
Continuous
 62
     7
100
AcDbLine
 10
1174.499997664834
 20
3468.473099901031
 30
0.0
 11
1174.499997664834
 21
3456.500015537903
 31
0.0
  0
LINE
  5
B05
330
2
100
AcDbEntity
  8
0
  6
Continuous
 62
     7
100
AcDbLine
 10
2337.699997712143
 20
3476.500015537953
 30
0.0
 11
2337.699997712134
 21
3460.500015537953
 31
0.0
  0
LINE
  5
B06
330
2
100
AcDbEntity
  8
0
  6
Continuous
 62
     7
100
AcDbLine
 10
2337.899997712144
 20
3476.500015537953
 30
0.0
 11
2337.899997712144
 21
3468.487743045688
 31
0.0
  0
LINE
  5
B07
330
2
100
AcDbEntity
  8
0
  6
Continuous
 62
     7
100
AcDbLine
 10
2337.899997712135
 20
3468.487743045688
 30
0.0
 11
2337.899997712135
 21
3460.500015537955
 31
0.0
  0
LINE
  5
B08
330
2
100
AcDbEntity
  8
0
  6
Continuous
 62
     7
100
AcDbLine
 10
2337.699997712134
 20
3476.500015537953
 30
0.0
 11
2337.699997712134
 21
3460.500015537953
 31
0.0
  0
LINE
  5
B09
330
2
100
AcDbEntity
  8
0
  6
Continuous
 62
     7
100
AcDbLine
 10
2337.499997712134
 20
3475.500015537955
 30
0.0
 11
2337.499997712134
 21
3468.481666061534
 31
0.0
  0
LINE
  5
B0A
330
2
100
AcDbEntity
  8
0
  6
Continuous
 62
     7
100
AcDbLine
 10
2337.499997712134
 20
3468.481666061534
 30
0.0
 11
2337.499997712134
 21
3461.50001553795
 31
0.0
  0
LINE
  5
B0B
330
2
100
AcDbEntity
  8
0
  6
Continuous
 62
     7
100
AcDbLine
 10
2337.499997712145
 20
3456.500015537952
 30
0.0
 11
2337.499997712145
 21
3468.481606799655
 31
0.0
  0
LINE
  5
B0C
330
2
100
AcDbEntity
  8
0
  6
Continuous
 62
     7
100
AcDbLine
 10
2337.499997712145
 20
3468.481606799655
 30
0.0
 11
2337.499997712145
 21
3480.500015537951
 31
0.0
  0
LINE
  5
B0D
330
2
100
AcDbEntity
  8
0
  6
Continuous
 62
     7
100
AcDbLine
 10
2342.899997712144
 20
3456.000015537952
 30
0.0
 11
2342.899997712144
 21
3468.48083976889
 31
0.0
  0
LINE
  5
B0E
330
2
100
AcDbEntity
  8
0
  6
Continuous
 62
     7
100
AcDbLine
 10
2343.899997712135
 20
3480.000015537952
 30
0.0
 11
2343.899997712135
 21
3468.482373830414
 31
0.0
  0
LINE
  5
B0F
330
2
100
AcDbEntity
  8
0
  6
Continuous
 62
     7
100
AcDbLine
 10
2342.899997712144
 20
3468.48083976889
 30
0.0
 11
2342.899997712144
 21
3481.000015537951
 31
0.0
  0
LINE
  5
B10
330
2
100
AcDbEntity
  8
0
  6
Continuous
 62
     7
100
AcDbLine
 10
2343.899997712135
 20
3468.482373830414
 30
0.0
 11
2343.899997712135
 21
3457.000015537955
 31
0.0
  0
LINE
  5
B11
330
2
100
AcDbEntity
  8
0
  6
Continuous
 62
     7
100
AcDbLine
 10
2337.899997712144
 20
3456.000015537952
 30
0.0
 11
2337.899997712144
 21
3468.48083976889
 31
0.0
  0
LINE
  5
B12
330
2
100
AcDbEntity
  8
0
  6
Continuous
 62
     7
100
AcDbLine
 10
2337.899997712135
 20
3468.48083976889
 30
0.0
 11
2337.899997712135
 21
3481.000015537951
 31
0.0
  0
LINE
  5
B13
330
2
100
AcDbEntity
  8
0
  6
Continuous
 62
     7
100
AcDbLine
 10
2275.775025552785
 20
1674.114730835732
 30
0.0
 11
2275.905319935013
 21
1674.039505339074
 31
0.0
  0
LINE
  5
B14
330
2
100
AcDbEntity
  8
0
  6
Continuous
 62
     7
100
AcDbLine
 10
2276.905319935013
 20
1675.771556146644
 30
0.0
 11
2276.775025552774
 21
1675.846781643304
 31
0.0
  0
ARC
  5
B15
330
2
100
AcDbEntity
  8
0
  6
Continuous
 62
     7
100
AcDbCircle
 10
2287.499997713124
 20
1668.500015541097
 30
0.0
 40
12.85000000000046
100
AcDbArc
 50
34.46332834850527
 51
145.5366716514947
  0
LINE
  5
B16
330
2
100
AcDbEntity
  8
0
  6
Continuous
 62
     7
100
AcDbLine
 10
2298.094675491224
 20
1675.771556146644
 30
0.0
 11
2298.224969873474
 21
1675.846781643303
 31
0.0
  0
LINE
  5
B17
330
2
100
AcDbEntity
  8
0
  6
Continuous
 62
     7
100
AcDbLine
 10
2299.224969873465
 20
1674.114730835732
 30
0.0
 11
2299.094675491224
 21
1674.039505339075
 31
0.0
  0
ARC
  5
B18
330
2
100
AcDbEntity
  8
0
  6
Continuous
 62
     7
100
AcDbCircle
 10
2287.499997713124
 20
1668.500015541097
 30
0.0
 40
12.85000000000023
100
AcDbArc
 50
274.463328348507
 51
25.53667165149462
  0
LINE
  5
B19
330
2
100
AcDbEntity
  8
0
  6
Continuous
 62
     7
100
AcDbLine
 10
2288.499997713125
 20
1655.688985137574
 30
0.0
 11
2288.499997713125
 21
1655.53853414433
 31
0.0
  0
LINE
  5
B1A
330
2
100
AcDbEntity
  8
0
  6
Continuous
 62
     7
100
AcDbLine
 10
2286.499997713125
 20
1655.538534144329
 30
0.0
 11
2286.499997713125
 21
1655.688985137574
 31
0.0
  0
ARC
  5
B1B
330
2
100
AcDbEntity
  8
0
  6
Continuous
 62
     7
100
AcDbCircle
 10
2287.499997713124
 20
1668.500015541097
 30
0.0
 40
12.84999999999997
100
AcDbArc
 50
154.4633283485054
 51
265.5366716514929
  0
CIRCLE
  5
B1C
330
2
100
AcDbEntity
  8
0
  6
Continuous
 62
     7
100
AcDbCircle
 10
2281.999997713125
 20
1668.500015541097
 30
0.0
 40
1.250000000000639
  0
CIRCLE
  5
B1D
330
2
100
AcDbEntity
  8
0
  6
Continuous
 62
     7
100
AcDbCircle
 10
2292.999997713125
 20
1668.500015541097
 30
0.0
 40
1.250000000000639
  0
ARC
  5
B1E
330
2
100
AcDbEntity
  8
0
  6
Continuous
 62
     7
100
AcDbCircle
 10
2287.499997713124
 20
1668.500015541146
 30
0.0
 40
13.00000000000046
100
AcDbArc
 50
217.9588300209861
 51
322.0550791596644
  0
ARC
  5
B1F
330
2
100
AcDbEntity
  8
0
  6
Continuous
 62
     7
100
AcDbCircle
 10
2297.893030764973
 20
1662.50127700849
 30
0.0
 40
2.000000000000119
100
AcDbArc
 50
265.9514343626901
 51
34.06247481798092
  0
ARC
  5
B20
330
2
100
AcDbEntity
  8
0
  6
Continuous
 62
     7
100
AcDbCircle
 10
2287.499997713124
 20
1668.500015541146
 30
0.0
 40
12.99999999999925
100
AcDbArc
 50
337.958830020965
 51
82.05507915967267
  0
ARC
  5
B21
330
2
100
AcDbEntity
  8
0
  6
Continuous
 62
     7
100
AcDbCircle
 10
2287.498541147134
 20
1680.500015452746
 30
0.0
 40
2.000000000000674
100
AcDbArc
 50
25.95143436267195
 51
154.0624748179419
  0
ARC
  5
B22
330
2
100
AcDbEntity
  8
0
  6
Continuous
 62
     7
100
AcDbCircle
 10
2287.499997713124
 20
1668.500015541146
 30
0.0
 40
13.0000000000001
100
AcDbArc
 50
97.95883002099392
 51
202.0550791596456
  0
ARC
  5
B23
330
2
100
AcDbEntity
  8
0
  6
Continuous
 62
     7
100
AcDbCircle
 10
2277.108421227264
 20
1662.498754162202
 30
0.0
 40
1.999999999999656
100
AcDbArc
 50
145.9514343626721
 51
274.0624748179278
  0
CIRCLE
  5
B24
330
2
100
AcDbEntity
  8
0
  6
Continuous
 62
     7
100
AcDbCircle
 10
2287.499997713124
 20
1668.500015541146
 30
0.0
 40
15.00000000000234
  0
LINE
  5
B25
330
2
100
AcDbEntity
  8
0
  6
Continuous
 62
     7
100
AcDbLine
 10
2275.775025555664
 20
3374.114730912412
 30
0.0
 11
2275.905319937865
 21
3374.039505415768
 31
0.0
  0
LINE
  5
B26
330
2
100
AcDbEntity
  8
0
  6
Continuous
 62
     7
100
AcDbLine
 10
2276.905319937925
 20
3375.771556223305
 30
0.0
 11
2276.775025555713
 21
3375.846781719952
 31
0.0
  0
ARC
  5
B27
330
2
100
AcDbEntity
  8
0
  6
Continuous
 62
     7
100
AcDbCircle
 10
2287.499997715793
 20
3368.500015617418
 30
0.0
 40
12.85000000000084
100
AcDbArc
 50
34.46332834666955
 51
145.536671649659
  0
LINE
  5
B28
330
2
100
AcDbEntity
  8
0
  6
Continuous
 62
     7
100
AcDbLine
 10
2298.094675494134
 20
3375.771556222626
 30
0.0
 11
2298.224969876404
 21
3375.846781719296
 31
0.0
  0
LINE
  5
B29
330
2
100
AcDbEntity
  8
0
  6
Continuous
 62
     7
100
AcDbLine
 10
2299.224969876343
 20
3374.114730911693
 30
0.0
 11
2299.094675494075
 21
3374.039505415024
 31
0.0
  0
ARC
  5
B2A
330
2
100
AcDbEntity
  8
0
  6
Continuous
 62
     7
100
AcDbCircle
 10
2287.499997715793
 20
3368.500015617418
 30
0.0
 40
12.85000000000027
100
AcDbArc
 50
274.4633283466255
 51
25.53667164964232
  0
LINE
  5
B2B
330
2
100
AcDbEntity
  8
0
  6
Continuous
 62
     7
100
AcDbLine
 10
2288.499997715384
 20
3355.688985213863
 30
0.0
 11
2288.499997715384
 21
3355.538534220616
 31
0.0
  0
LINE
  5
B2C
330
2
100
AcDbEntity
  8
0
  6
Continuous
 62
     7
100
AcDbLine
 10
2286.499997715384
 20
3355.538534220686
 30
0.0
 11
2286.499997715384
 21
3355.688985213929
 31
0.0
  0
ARC
  5
B2D
330
2
100
AcDbEntity
  8
0
  6
Continuous
 62
     7
100
AcDbCircle
 10
2287.499997715793
 20
3368.500015617418
 30
0.0
 40
12.85000000000003
100
AcDbArc
 50
154.4633283466531
 51
265.5366716497155
  0
CIRCLE
  5
B2E
330
2
100
AcDbEntity
  8
0
  6
Continuous
 62
     7
100
AcDbCircle
 10
2281.999997715793
 20
3368.500015617595
 30
0.0
 40
1.250000000000639
  0
CIRCLE
  5
B2F
330
2
100
AcDbEntity
  8
0
  6
Continuous
 62
     7
100
AcDbCircle
 10
2292.999997715793
 20
3368.500015617243
 30
0.0
 40
1.250000000000639
  0
ARC
  5
B30
330
2
100
AcDbEntity
  8
0
  6
Continuous
 62
     7
100
AcDbCircle
 10
2287.499997715833
 20
3368.500015617467
 30
0.0
 40
13.00000000000028
100
AcDbArc
 50
217.9588300191407
 51
322.0550791578191
  0
ARC
  5
B31
330
2
100
AcDbEntity
  8
0
  6
Continuous
 62
     7
100
AcDbCircle
 10
2297.893030767493
 20
3362.501277084479
 30
0.0
 40
2.000000000000205
100
AcDbArc
 50
265.9514343608097
 51
34.06247481613446
  0
ARC
  5
B32
330
2
100
AcDbEntity
  8
0
  6
Continuous
 62
     7
100
AcDbCircle
 10
2287.499997715833
 20
3368.500015617467
 30
0.0
 40
12.99999999999918
100
AcDbArc
 50
337.9588300191093
 51
82.05507915778047
  0
ARC
  5
B33
330
2
100
AcDbEntity
  8
0
  6
Continuous
 62
     7
100
AcDbCircle
 10
2287.498541150235
 20
3380.500015529069
 30
0.0
 40
1.999999999999369
100
AcDbArc
 50
25.95143436083113
 51
154.0624748161012
  0
ARC
  5
B34
330
2
100
AcDbEntity
  8
0
  6
Continuous
 62
     7
100
AcDbCircle
 10
2287.499997715833
 20
3368.500015617467
 30
0.0
 40
12.99999999999977
100
AcDbArc
 50
97.95883001910171
 51
202.055079157802
  0
ARC
  5
B35
330
2
100
AcDbEntity
  8
0
  6
Continuous
 62
     7
100
AcDbCircle
 10
2277.108421229776
 20
3362.498754238855
 30
0.0
 40
1.99999999999981
100
AcDbArc
 50
145.9514343608365
 51
274.0624748161514
  0
CIRCLE
  5
B36
330
2
100
AcDbEntity
  8
0
  6
Continuous
 62
     7
100
AcDbCircle
 10
2287.499997715833
 20
3368.500015617467
 30
0.0
 40
15.00000000000234
  0
LINE
  5
B37
330
2
100
AcDbEntity
  8
0
  6
Continuous
 62
     7
100
AcDbLine
 10
1171.999997665314
 20
3383.500015588142
 30
0.0
 11
1171.999997669101
 21
3353.500015588144
 31
0.0
  0
LINE
  5
B38
330
2
100
AcDbEntity
  8
0
  6
Continuous
 62
     7
100
AcDbLine
 10
1171.999997664143
 20
1683.500015586901
 30
0.0
 11
1171.999997667935
 21
1653.500015586901
 31
0.0
  0
CIRCLE
  5
B39
330
2
100
AcDbEntity
  8
0
  6
Continuous
 62
     7
100
AcDbCircle
 10
2275.499997664583
 20
3468.500015525528
 30
0.0
 40
12.49999999999929
  0
CIRCLE
  5
B3A
330
2
100
AcDbEntity
  8
0
  6
Continuous
 62
     7
100
AcDbCircle
 10
2275.499997664583
 20
3468.50001552554
 30
0.0
 40
12.19999999999999
  0
CIRCLE
  5
B3B
330
2
100
AcDbEntity
  8
0
  6
Continuous
 62
     7
100
AcDbCircle
 10
2275.539948328475
 20
3473.999870427667
 30
0.0
 40
1.250000000000639
  0
CIRCLE
  5
B3C
330
2
100
AcDbEntity
  8
0
  6
Continuous
 62
     7
100
AcDbCircle
 10
2275.460047000684
 20
3463.000160623412
 30
0.0
 40
1.250000000000639
  0
CIRCLE
  5
B3D
330
2
100
AcDbEntity
  8
0
  6
Continuous
 62
     7
100
AcDbCircle
 10
1775.499997664603
 20
3468.500014957834
 30
0.0
 40
12.49999999999929
  0
CIRCLE
  5
B3E
330
2
100
AcDbEntity
  8
0
  6
Continuous
 62
     7
100
AcDbCircle
 10
1775.499997664603
 20
3468.500014957842
 30
0.0
 40
12.19999999999999
  0
CIRCLE
  5
B3F
330
2
100
AcDbEntity
  8
0
  6
Continuous
 62
     7
100
AcDbCircle
 10
1775.557109757445
 20
3473.999718423379
 30
0.0
 40
1.250000000000639
  0
CIRCLE
  5
B40
330
2
100
AcDbEntity
  8
0
  6
Continuous
 62
     7
100
AcDbCircle
 10
1775.442885571765
 20
3463.000311492303
 30
0.0
 40
1.250000000000639
  0
ARC
  5
B41
330
2
100
AcDbEntity
  8
0
  6
Continuous
 62
     7
100
AcDbCircle
 10
1673.499997667015
 20
3450.500015538428
 30
0.0
 40
7.500000000000282
100
AcDbArc
 50
180.0000000013026
 51
0.0000000013027552
  0
CIRCLE
  5
B42
330
2
100
AcDbEntity
  8
0
  6
Continuous
 62
     9
100
AcDbCircle
 10
1673.499997667044
 20
3450.500015538446
 30
0.0
 40
6.999999999999673
  0
ARC
  5
B43
330
2
100
AcDbEntity
  8
0
  6
Continuous
 62
     7
100
AcDbCircle
 10
1673.499997667015
 20
3450.500015538428
 30
0.0
 40
7.500000000000282
100
AcDbArc
 50
0.0000000013027552
 51
180.0000000013026
  0
LINE
  5
B44
330
2
100
AcDbEntity
  8
0
  6
Continuous
 62
     7
100
AcDbLine
 10
1674.249997667166
 20
3445.501909912846
 30
0.0
 11
1674.249997666933
 21
3455.498121164082
 31
0.0
  0
LINE
  5
B45
330
2
100
AcDbEntity
  8
0
  6
Continuous
 62
     7
100
AcDbLine
 10
1674.249997666933
 20
3455.49812116408
 30
0.0
 11
1672.749997666933
 21
3455.498121164044
 31
0.0
  0
LINE
  5
B46
330
2
100
AcDbEntity
  8
0
  6
Continuous
 62
     7
100
AcDbLine
 10
1672.749997667166
 20
3445.501909912812
 30
0.0
 11
1672.749997666933
 21
3455.498121164048
 31
0.0
  0
LINE
  5
B47
330
2
100
AcDbEntity
  8
0
  6
Continuous
 62
     7
100
AcDbLine
 10
1672.749997667166
 20
3445.501909912812
 30
0.0
 11
1674.249997667166
 21
3445.501909912846
 31
0.0
  0
LINE
  5
B48
330
2
100
AcDbEntity
  8
0
  6
Continuous
 62
     9
100
AcDbLine
 10
1672.749997666944
 20
3449.625015538361
 30
0.0
 11
1674.249997666944
 21
3449.625015538396
 31
0.0
  0
LINE
  5
B49
330
2
100
AcDbEntity
  8
0
  6
Continuous
 62
     9
100
AcDbLine
 10
1672.749997666902
 20
3451.375015538364
 30
0.0
 11
1674.249997666902
 21
3451.375015538398
 31
0.0
  0
ARC
  5
B4A
330
2
100
AcDbEntity
  8
0
  6
Continuous
 62
     7
100
AcDbCircle
 10
1673.499997665816
 20
3450.500015537797
 30
0.0
 40
9.999999999999786
100
AcDbArc
 50
126.8698976422302
 51
180.0000000013026
  0
ARC
  5
B4B
330
2
100
AcDbEntity
  8
0
  6
Continuous
 62
     7
100
AcDbCircle
 10
1673.499997665816
 20
3450.500015537797
 30
0.0
 40
10.00000000000049
100
AcDbArc
 50
180.0000000013026
 51
53.13010235776983
  0
CIRCLE
  5
B4C
330
2
100
AcDbEntity
  8
0
  6
Continuous
 62
     7
100
AcDbCircle
 10
1673.499997664814
 20
3488.500015538561
 30
0.0
 40
10.5000000000004
  0
CIRCLE
  5
B4D
330
2
100
AcDbEntity
  8
0
  6
Continuous
 62
     7
100
AcDbCircle
 10
1673.499997664814
 20
3488.500015538541
 30
0.0
 40
12.49999999999929
  0
LINE
  5
B4E
330
2
100
AcDbEntity
  8
0
  6
Continuous
 62
     7
100
AcDbLine
 10
1674.249997664934
 20
3483.50190991296
 30
0.0
 11
1674.249997664703
 21
3493.498121164196
 31
0.0
  0
LINE
  5
B4F
330
2
100
AcDbEntity
  8
0
  6
Continuous
 62
     7
100
AcDbLine
 10
1674.249997664703
 20
3493.498121164194
 30
0.0
 11
1672.749997664703
 21
3493.498121164161
 31
0.0
  0
LINE
  5
B50
330
2
100
AcDbEntity
  8
0
  6
Continuous
 62
     7
100
AcDbLine
 10
1672.749997664934
 20
3483.501909912928
 30
0.0
 11
1672.749997664703
 21
3493.498121164161
 31
0.0
  0
LINE
  5
B51
330
2
100
AcDbEntity
  8
0
  6
Continuous
 62
     7
100
AcDbLine
 10
1672.749997664934
 20
3483.501909912928
 30
0.0
 11
1674.249997664934
 21
3483.50190991296
 31
0.0
  0
LINE
  5
B52
330
2
100
AcDbEntity
  8
0
  6
Continuous
 62
     9
100
AcDbLine
 10
1672.749997664834
 20
3487.625015538476
 30
0.0
 11
1674.249997664843
 21
3487.625015538511
 31
0.0
  0
LINE
  5
B53
330
2
100
AcDbEntity
  8
0
  6
Continuous
 62
     9
100
AcDbLine
 10
1672.749997664802
 20
3489.375015538474
 30
0.0
 11
1674.249997664803
 21
3489.375015538511
 31
0.0
  0
ARC
  5
B54
330
2
100
AcDbEntity
  8
0
  6
Continuous
 62
     7
100
AcDbCircle
 10
1231.499997666595
 20
3450.500015536653
 30
0.0
 40
7.500000000000282
100
AcDbArc
 50
180.0000000006644
 51
0.0000000006644052
  0
CIRCLE
  5
B55
330
2
100
AcDbEntity
  8
0
  6
Continuous
 62
     9
100
AcDbCircle
 10
1231.499997666624
 20
3450.500015536635
 30
0.0
 40
6.999999999996118
  0
ARC
  5
B56
330
2
100
AcDbEntity
  8
0
  6
Continuous
 62
     7
100
AcDbCircle
 10
1231.499997666595
 20
3450.500015536653
 30
0.0
 40
7.500000000000282
100
AcDbArc
 50
0.0000000006644052
 51
180.0000000006644
  0
LINE
  5
B57
330
2
100
AcDbEntity
  8
0
  6
Continuous
 62
     7
100
AcDbLine
 10
1232.249997666675
 20
3445.50190991103
 30
0.0
 11
1232.249997666566
 21
3455.498121162261
 31
0.0
  0
LINE
  5
B58
330
2
100
AcDbEntity
  8
0
  6
Continuous
 62
     7
100
AcDbLine
 10
1232.249997666566
 20
3455.498121162261
 30
0.0
 11
1230.749997666566
 21
3455.498121162243
 31
0.0
  0
LINE
  5
B59
330
2
100
AcDbEntity
  8
0
  6
Continuous
 62
     7
100
AcDbLine
 10
1230.749997666684
 20
3445.501909911011
 30
0.0
 11
1230.749997666566
 21
3455.498121162243
 31
0.0
  0
LINE
  5
B5A
330
2
100
AcDbEntity
  8
0
  6
Continuous
 62
     7
100
AcDbLine
 10
1230.749997666684
 20
3445.501909911011
 30
0.0
 11
1232.249997666675
 21
3445.50190991103
 31
0.0
  0
LINE
  5
B5B
330
2
100
AcDbEntity
  8
0
  6
Continuous
 62
     9
100
AcDbLine
 10
1230.749997666484
 20
3451.375015536689
 30
0.0
 11
1232.249997666484
 21
3451.375015536707
 31
0.0
  0
LINE
  5
B5C
330
2
100
AcDbEntity
  8
0
  6
Continuous
 62
     9
100
AcDbLine
 10
1230.749997666502
 20
3449.625015536689
 30
0.0
 11
1232.249997666502
 21
3449.625015536708
 31
0.0
  0
ARC
  5
B5D
330
2
100
AcDbEntity
  8
0
  6
Continuous
 62
     7
100
AcDbCircle
 10
1231.499997665392
 20
3450.500015537233
 30
0.0
 40
9.999999999999786
100
AcDbArc
 50
126.8698976368732
 51
180.0000000006644
  0
ARC
  5
B5E
330
2
100
AcDbEntity
  8
0
  6
Continuous
 62
     7
100
AcDbCircle
 10
1231.499997665392
 20
3450.500015537233
 30
0.0
 40
9.999999999999431
100
AcDbArc
 50
180.0000000006644
 51
53.13010236312675
  0
CIRCLE
  5
B5F
330
2
100
AcDbEntity
  8
0
  6
Continuous
 62
     7
100
AcDbCircle
 10
1231.499997664814
 20
3488.500015536612
 30
0.0
 40
10.49999999999329
  0
CIRCLE
  5
B60
330
2
100
AcDbEntity
  8
0
  6
Continuous
 62
     7
100
AcDbCircle
 10
1231.499997664814
 20
3488.500015536628
 30
0.0
 40
12.49999999999218
  0
LINE
  5
B61
330
2
100
AcDbEntity
  8
0
  6
Continuous
 62
     7
100
AcDbLine
 10
1232.249997664876
 20
3483.501909911004
 30
0.0
 11
1232.249997664767
 21
3493.498121162236
 31
0.0
  0
LINE
  5
B62
330
2
100
AcDbEntity
  8
0
  6
Continuous
 62
     7
100
AcDbLine
 10
1232.249997664767
 20
3493.498121162236
 30
0.0
 11
1230.749997664767
 21
3493.498121162218
 31
0.0
  0
LINE
  5
B63
330
2
100
AcDbEntity
  8
0
  6
Continuous
 62
     7
100
AcDbLine
 10
1230.749997664883
 20
3483.501909910986
 30
0.0
 11
1230.749997664767
 21
3493.498121162218
 31
0.0
  0
LINE
  5
B64
330
2
100
AcDbEntity
  8
0
  6
Continuous
 62
     7
100
AcDbLine
 10
1230.749997664883
 20
3483.501909910986
 30
0.0
 11
1232.249997664876
 21
3483.501909911004
 31
0.0
  0
LINE
  5
B65
330
2
100
AcDbEntity
  8
0
  6
Continuous
 62
     9
100
AcDbLine
 10
1230.749997664814
 20
3489.375015536663
 30
0.0
 11
1232.249997664814
 21
3489.375015536682
 31
0.0
  0
LINE
  5
B66
330
2
100
AcDbEntity
  8
0
  6
Continuous
 62
     9
100
AcDbLine
 10
1230.749997664825
 20
3487.625015536664
 30
0.0
 11
1232.249997664825
 21
3487.625015536683
 31
0.0
  0
LINE
  5
B67
330
2
100
AcDbEntity
  8
0
  6
Continuous
 62
     7
100
AcDbLine
 10
1174.499997664992
 20
3458.500015538176
 30
0.0
 11
1174.499997664992
 21
3478.500015538159
 31
0.0
  0
LINE
  5
B68
330
2
100
AcDbEntity
  8
0
  6
Continuous
 62
     4
100
AcDbLine
 10
1171.499997664534
 20
1518.500015587657
 30
0.0
 11
1171.499997664534
 21
3518.50001558766
 31
0.0
  0
LINE
  5
B69
330
2
100
AcDbEntity
  8
0
  6
Continuous
 62
     4
100
AcDbLine
 10
1163.499997664534
 20
1518.500015587657
 30
0.0
 11
1163.499997664534
 21
3518.50001558766
 31
0.0
  0
LINE
  5
B6A
330
2
100
AcDbEntity
  8
0
  6
Continuous
 62
     4
100
AcDbLine
 10
1163.499997664534
 20
3518.50001558766
 30
0.0
 11
1171.499997664534
 21
3518.50001558766
 31
0.0
  0
LINE
  5
B6B
330
2
100
AcDbEntity
  8
0
  6
Continuous
 62
     4
100
AcDbLine
 10
2336.499997713465
 20
1518.500015614803
 30
0.0
 11
2336.499997713465
 21
3518.500015614801
 31
0.0
  0
LINE
  5
B6C
330
2
100
AcDbEntity
  8
0
  6
Continuous
 62
     4
100
AcDbLine
 10
2328.499997713474
 20
1518.500015614803
 30
0.0
 11
2328.499997713474
 21
3518.500015614801
 31
0.0
  0
LINE
  5
B6D
330
2
100
AcDbEntity
  8
0
  6
Continuous
 62
     4
100
AcDbLine
 10
2328.499997713474
 20
3518.500015614801
 30
0.0
 11
2336.499997713474
 21
3518.500015614801
 31
0.0
  0
LINE
  5
B6E
330
2
100
AcDbEntity
  8
0
  6
Continuous
 62
     7
100
AcDbLine
 10
1212.499997664974
 20
1537.500015542521
 30
0.0
 11
1212.499997664783
 21
1539.500015542649
 31
0.0
  0
LINE
  5
B6F
330
2
100
AcDbEntity
  8
0
  6
Continuous
 62
     9
100
AcDbLine
 10
1212.499997664974
 20
1537.500015542521
 30
0.0
 11
1172.499997664974
 21
1537.500015538651
 31
0.0
  0
LINE
  5
B70
330
2
100
AcDbEntity
  8
0
  6
Continuous
 62
     7
100
AcDbLine
 10
1212.499997664783
 20
1539.500015542649
 30
0.0
 11
1174.499997664783
 21
1539.500015538973
 31
0.0
  0
ARC
  5
B71
330
2
100
AcDbEntity
  8
0
  6
Continuous
 62
     7
100
AcDbCircle
 10
1174.499997664974
 20
1537.500015538973
 30
0.0
 40
2.000000000063284
100
AcDbArc
 50
90.00000000552367
 51
180.0000000092235
  0
LINE
  5
B72
330
2
100
AcDbEntity
  8
0
  6
Continuous
 62
     7
100
AcDbLine
 10
1172.499997664974
 20
1537.500015538651
 30
0.0
 11
1172.499997666815
 21
1518.500015538651
 31
0.0
  0
LINE
  5
B73
330
2
100
AcDbEntity
  8
0
  6
Continuous
 62
     7
100
AcDbLine
 10
1212.499997666815
 20
1518.500015542521
 30
0.0
 11
1212.499997664974
 21
1537.500015542521
 31
0.0
  0
LINE
  5
B74
330
2
100
AcDbEntity
  8
0
  6
Continuous
 62
     7
100
AcDbLine
 10
1172.499999258383
 20
3518.500015537867
 30
0.0
 11
1172.499999258374
 21
3472.500015537906
 31
0.0
  0
LINE
  5
B75
330
2
100
AcDbEntity
  8
0
  6
Continuous
 62
     7
100
AcDbLine
 10
1172.499999258374
 20
3464.500015537905
 30
0.0
 11
1172.499999258094
 21
1537.500015539996
 31
0.0
  0
LINE
  5
B76
330
2
100
AcDbEntity
  8
0
  6
Continuous
 62
     7
100
AcDbLine
 10
1178.299997572645
 20
3518.500015537953
 30
0.0
 11
1178.299997572645
 21
3480.700015630093
 31
0.0
  0
LINE
  5
B77
330
2
100
AcDbEntity
  8
0
  6
Continuous
 62
     7
100
AcDbLine
 10
1178.299997572634
 20
3456.300015445711
 30
0.0
 11
1178.299997572367
 21
1539.50001553934
 31
0.0
  0
LINE
  5
B78
330
2
100
AcDbEntity
  8
0
  6
Continuous
 62
     7
100
AcDbLine
 10
1178.299997572645
 20
3518.500015537841
 30
0.0
 11
1172.499999258383
 21
3518.500015537841
 31
0.0
  0
LINE
  5
B79
330
2
100
AcDbEntity
  8
0
  6
Continuous
 62
     9
100
AcDbLine
 10
1190.699995105604
 20
3518.500015537952
 30
0.0
 11
1190.699995105593
 21
3478.500015538165
 31
0.0
  0
LINE
  5
B7A
330
2
100
AcDbEntity
  8
0
  6
Continuous
 62
     9
100
AcDbLine
 10
1190.699995105593
 20
3458.500015538171
 30
0.0
 11
1190.699995105315
 21
1539.500015540541
 31
0.0
  0
LINE
  5
B7B
330
2
100
AcDbEntity
  8
0
  6
Continuous
 62
     7
100
AcDbLine
 10
1190.699995105604
 20
3518.500015537952
 30
0.0
 11
1178.299997572645
 21
3518.500015537953
 31
0.0
  0
LINE
  5
B7C
330
2
100
AcDbEntity
  8
0
  6
Continuous
 62
     9
100
AcDbLine
 10
1191.499995152444
 20
3518.500015537925
 30
0.0
 11
1191.499995152444
 21
3478.500015538163
 31
0.0
  0
LINE
  5
B7D
330
2
100
AcDbEntity
  8
0
  6
Continuous
 62
     9
100
AcDbLine
 10
1191.499995152435
 20
3458.500015538171
 30
0.0
 11
1191.499995152166
 21
1539.500015540618
 31
0.0
  0
LINE
  5
B7E
330
2
100
AcDbEntity
  8
0
  6
Continuous
 62
     7
100
AcDbLine
 10
1191.499995152444
 20
3518.500015537925
 30
0.0
 11
1190.699995105604
 21
3518.500015537925
 31
0.0
  0
LINE
  5
B7F
330
2
100
AcDbEntity
  8
0
  6
Continuous
 62
     7
100
AcDbLine
 10
1191.499995199292
 20
3518.500015537898
 30
0.0
 11
1191.499995199285
 21
3478.500015538163
 31
0.0
  0
LINE
  5
B80
330
2
100
AcDbEntity
  8
0
  6
Continuous
 62
     7
100
AcDbLine
 10
1191.499995199285
 20
3458.500015538171
 30
0.0
 11
1191.499995199001
 21
1539.500015540618
 31
0.0
  0
LINE
  5
B81
330
2
100
AcDbEntity
  8
0
  6
Continuous
 62
     7
100
AcDbLine
 10
1172.499998908102
 20
3518.500015537668
 30
0.0
 11
1172.499998908093
 21
3472.500015537906
 31
0.0
  0
LINE
  5
B82
330
2
100
AcDbEntity
  8
0
  6
Continuous
 62
     7
100
AcDbLine
 10
1172.499998908093
 20
3464.500015537905
 30
0.0
 11
1172.499998907815
 21
1537.500015539997
 31
0.0
  0
LINE
  5
B83
330
2
100
AcDbEntity
  8
0
  6
Continuous
 62
     9
100
AcDbLine
 10
1218.499997663923
 20
2513.500015539219
 30
0.0
 11
1219.499997663964
 21
2513.500015539219
 31
0.0
  0
ARC
  5
B84
330
2
100
AcDbEntity
  8
0
  6
Continuous
 62
     7
100
AcDbCircle
 10
1218.499997663964
 20
2513.500015539219
 30
0.0
 40
0.9999999999994455
100
AcDbArc
 50
270.0
 51
0.0
  0
LINE
  5
B85
330
2
100
AcDbEntity
  8
0
  6
Continuous
 62
     9
100
AcDbLine
 10
1218.499997663964
 20
2513.500015539291
 30
0.0
 11
1218.499997663964
 21
2512.500015539221
 31
0.0
  0
LINE
  5
B86
330
2
100
AcDbEntity
  8
0
  6
Continuous
 62
     9
100
AcDbLine
 10
1200.499997663923
 20
2513.500015539293
 30
0.0
 11
1218.499997663923
 21
2513.500015539289
 31
0.0
  0
LINE
  5
B87
330
2
100
AcDbEntity
  8
0
  6
Continuous
 62
     7
100
AcDbLine
 10
1218.499997663964
 20
2512.500015539221
 30
0.0
 11
1200.499997663964
 21
2512.500015539224
 31
0.0
  0
LINE
  5
B88
330
2
100
AcDbEntity
  8
0
  6
Continuous
 62
     9
100
AcDbLine
 10
1200.499997663964
 20
2513.500015539293
 30
0.0
 11
1200.499997663964
 21
2512.500015539223
 31
0.0
  0
LINE
  5
B89
330
2
100
AcDbEntity
  8
0
  6
Continuous
 62
     9
100
AcDbLine
 10
1218.499997663923
 20
2513.500015539291
 30
0.0
 11
1218.499997663934
 21
2531.500015539288
 31
0.0
  0
LINE
  5
B8A
330
2
100
AcDbEntity
  8
0
  6
Continuous
 62
     9
100
AcDbLine
 10
1218.499997663934
 20
2531.500015539218
 30
0.0
 11
1219.499997663964
 21
2531.500015539218
 31
0.0
  0
LINE
  5
B8B
330
2
100
AcDbEntity
  8
0
  6
Continuous
 62
     7
100
AcDbLine
 10
1219.499997663964
 20
2531.500015539218
 30
0.0
 11
1219.499997663964
 21
2513.500015539219
 31
0.0
  0
LINE
  5
B8C
330
2
100
AcDbEntity
  8
0
  6
Continuous
 62
     9
100
AcDbLine
 10
1200.499997663934
 20
2531.500015539291
 30
0.0
 11
1200.499997663923
 21
2513.500015539293
 31
0.0
  0
LINE
  5
B8D
330
2
100
AcDbEntity
  8
0
  6
Continuous
 62
     9
100
AcDbLine
 10
1218.499997663934
 20
2531.500015539287
 30
0.0
 11
1200.499997663934
 21
2531.500015539291
 31
0.0
  0
ARC
  5
B8E
330
2
100
AcDbEntity
  8
0
  6
Continuous
 62
     7
100
AcDbCircle
 10
1200.499997663964
 20
2513.500015539223
 30
0.0
 40
0.9999999999994455
100
AcDbArc
 50
180.0
 51
270.0
  0
LINE
  5
B8F
330
2
100
AcDbEntity
  8
0
  6
Continuous
 62
     9
100
AcDbLine
 10
1199.499997663965
 20
2513.500015539223
 30
0.0
 11
1200.499997663923
 21
2513.500015539223
 31
0.0
  0
LINE
  5
B90
330
2
100
AcDbEntity
  8
0
  6
Continuous
 62
     7
100
AcDbLine
 10
1199.499997663965
 20
2513.500015539223
 30
0.0
 11
1199.499997663965
 21
2531.50001553922
 31
0.0
  0
LINE
  5
B91
330
2
100
AcDbEntity
  8
0
  6
Continuous
 62
     9
100
AcDbLine
 10
1199.499997663965
 20
2531.50001553922
 30
0.0
 11
1200.499997663934
 21
2531.50001553922
 31
0.0
  0
ARC
  5
B92
330
2
100
AcDbEntity
  8
0
  6
Continuous
 62
     7
100
AcDbCircle
 10
1218.499997663964
 20
2531.500015539218
 30
0.0
 40
1.000000000000333
100
AcDbArc
 50
0.0
 51
90.0
  0
LINE
  5
B93
330
2
100
AcDbEntity
  8
0
  6
Continuous
 62
     9
100
AcDbLine
 10
1218.499997663964
 20
2532.500015539218
 30
0.0
 11
1218.499997663964
 21
2531.500015539288
 31
0.0
  0
LINE
  5
B94
330
2
100
AcDbEntity
  8
0
  6
Continuous
 62
     7
100
AcDbLine
 10
1200.499997663975
 20
2532.500015539219
 30
0.0
 11
1218.499997663964
 21
2532.500015539217
 31
0.0
  0
LINE
  5
B95
330
2
100
AcDbEntity
  8
0
  6
Continuous
 62
     9
100
AcDbLine
 10
1200.499997663975
 20
2532.500015539219
 30
0.0
 11
1200.499997663975
 21
2531.500015539291
 31
0.0
  0
ARC
  5
B96
330
2
100
AcDbEntity
  8
0
  6
Continuous
 62
     7
100
AcDbCircle
 10
1200.499997663975
 20
2531.50001553922
 30
0.0
 40
0.9999999999994455
100
AcDbArc
 50
90.0
 51
180.0
  0
LINE
  5
B97
330
2
100
AcDbEntity
  8
0
  6
Continuous
 62
     4
100
AcDbLine
 10
1722.499997664534
 20
3518.500015537756
 30
0.0
 11
1191.499995714592
 21
3518.500015537832
 31
0.0
  0
LINE
  5
B98
330
2
100
AcDbEntity
  8
0
  6
Continuous
 62
     9
100
AcDbLine
 10
1717.499997664476
 20
1536.000015620939
 30
0.0
 11
1212.499997665125
 21
1536.000015572088
 31
0.0
  0
LINE
  5
B99
330
2
100
AcDbEntity
  8
0
  6
Continuous
 62
     7
100
AcDbLine
 10
1717.499997664385
 20
1538.500015621099
 30
0.0
 11
1212.499997664867
 21
1538.500015572249
 31
0.0
  0
LINE
  5
B9A
330
2
100
AcDbEntity
  8
0
  6
Continuous
 62
     9
100
AcDbLine
 10
1717.499997665925
 20
1521.000015620938
 30
0.0
 11
1212.499997666575
 21
1521.000015572088
 31
0.0
  0
LINE
  5
B9B
330
2
100
AcDbEntity
  8
0
  6
Continuous
 62
     7
100
AcDbLine
 10
1717.499997665045
 20
1538.500015538712
 30
0.0
 11
1717.499997665045
 21
1541.000015538711
 31
0.0
  0
LINE
  5
B9C
330
2
100
AcDbEntity
  8
0
  6
Continuous
 62
     7
100
AcDbLine
 10
1717.499997665045
 20
1541.000015538711
 30
0.0
 11
1722.499997664534
 21
1541.000015538711
 31
0.0
  0
LINE
  5
B9D
330
2
100
AcDbEntity
  8
0
  6
Continuous
 62
     7
100
AcDbLine
 10
1757.499997664076
 20
1518.500015537754
 30
0.0
 11
1757.499997664076
 21
1538.500015537754
 31
0.0
  0
LINE
  5
B9E
330
2
100
AcDbEntity
  8
0
  6
Continuous
 62
     9
100
AcDbLine
 10
1719.499997664075
 20
1538.500015537754
 30
0.0
 11
1719.499997664075
 21
1518.500015537754
 31
0.0
  0
LINE
  5
B9F
330
2
100
AcDbEntity
  8
0
  6
Continuous
 62
     7
100
AcDbLine
 10
1757.499997664076
 20
1538.500015537754
 30
0.0
 11
1719.499997664075
 21
1538.500015537754
 31
0.0
  0
LINE
  5
BA0
330
2
100
AcDbEntity
  8
0
  6
Continuous
 62
     7
100
AcDbLine
 10
1717.499997664201
 20
1518.500015537882
 30
0.0
 11
1717.499997664201
 21
1538.500015537882
 31
0.0
  0
LINE
  5
BA1
330
2
100
AcDbEntity
  8
0
  6
Continuous
 62
     7
100
AcDbLine
 10
1717.499997664201
 20
1538.500015537882
 30
0.0
 11
1719.499997664075
 21
1538.500015537882
 31
0.0
  0
LINE
  5
BA2
330
2
100
AcDbEntity
  8
0
  6
Continuous
 62
     4
100
AcDbLine
 10
1722.499997664534
 20
3518.500015538887
 30
0.0
 11
2328.499997664534
 21
3518.500015538887
 31
0.0
  0
CIRCLE
  5
BA3
330
2
100
AcDbEntity
  8
0
  6
Continuous
 62
     4
100
AcDbCircle
 10
2287.499997664534
 20
3368.500015538884
 30
0.0
 40
15.00000000000057
  0
CIRCLE
  5
BA4
330
2
100
AcDbEntity
  8
0
  6
Continuous
 62
     4
100
AcDbCircle
 10
2287.499997664534
 20
1668.500015538887
 30
0.0
 40
15.00000000000057
  0
LINE
  5
BA5
330
2
100
AcDbEntity
  8
0
  6
Continuous
 62
     4
100
AcDbLine
 10
1722.499997664534
 20
1538.500015538651
 30
0.0
 11
1722.499997664534
 21
3518.500015538887
 31
0.0
  0
LINE
  5
BA6
330
2
100
AcDbEntity
  8
0
  6
Continuous
 62
     4
100
AcDbLine
 10
2328.499997664534
 20
1518.500015538887
 30
0.0
 11
2328.499997664534
 21
3518.500015538887
 31
0.0
  0
LINE
  5
BA7
330
2
100
AcDbEntity
  8
0
  6
Continuous
 62
     7
100
AcDbLine
 10
2350.499997664534
 20
1468.500015537209
 30
0.0
 11
1150.499997664534
 21
1468.500015537209
 31
0.0
  0
LINE
  5
BA8
330
2
100
AcDbEntity
  8
0
  6
Continuous
 62
     7
100
AcDbLine
 10
2350.499997664534
 20
1468.500015537209
 30
0.0
 11
2350.499997664534
 21
1518.500015537209
 31
0.0
  0
LINE
  5
BA9
330
2
100
AcDbEntity
  8
0
  6
Continuous
 62
     7
100
AcDbLine
 10
2350.499997664534
 20
1518.50001553721
 30
0.0
 11
1150.499997664534
 21
1518.50001553721
 31
0.0
  0
LINE
  5
BAA
330
2
100
AcDbEntity
  8
0
  6
Continuous
 62
     7
100
AcDbLine
 10
1150.499997664534
 20
1468.500015537209
 30
0.0
 11
1150.499997664534
 21
1518.500015537209
 31
0.0
  0
LINE
  5
BAB
330
2
100
AcDbEntity
  8
0
  6
Continuous
 62
     9
100
AcDbLine
 10
1171.499997664534
 20
3465.125015537906
 30
0.0
 11
1173.499997664075
 21
3465.125015537906
 31
0.0
  0
LINE
  5
BAC
330
2
100
AcDbEntity
  8
0
  6
Continuous
 62
     9
100
AcDbLine
 10
1173.499997664075
 20
3471.875015537906
 30
0.0
 11
1171.499997664534
 21
3471.875015537906
 31
0.0
  0
LINE
  5
BAD
330
2
100
AcDbEntity
  8
0
  6
Continuous
 62
     7
100
AcDbLine
 10
1162.299997664544
 20
3460.500015537907
 30
0.0
 11
1162.499997664534
 21
3460.500015537907
 31
0.0
  0
LINE
  5
BAE
330
2
100
AcDbEntity
  8
0
  6
Continuous
 62
     7
100
AcDbLine
 10
1162.499997664543
 20
3476.500015537907
 30
0.0
 11
1162.299997664544
 21
3476.500015537907
 31
0.0
  0
LINE
  5
BAF
330
2
100
AcDbEntity
  8
0
  6
Continuous
 62
     7
100
AcDbLine
 10
1162.099997664534
 20
3460.500015537907
 30
0.0
 11
1162.299997664544
 21
3460.500015537907
 31
0.0
  0
LINE
  5
BB0
330
2
100
AcDbEntity
  8
0
  6
Continuous
 62
     7
100
AcDbLine
 10
1162.299997664544
 20
3476.500015537907
 30
0.0
 11
1162.099997664543
 21
3476.500015537907
 31
0.0
  0
LINE
  5
BB1
330
2
100
AcDbEntity
  8
0
  6
Continuous
 62
     7
100
AcDbLine
 10
1163.499997664543
 20
3480.500015537904
 30
0.0
 11
1162.499997664543
 21
3480.500015537904
 31
0.0
  0
LINE
  5
BB2
330
2
100
AcDbEntity
  8
0
  6
Continuous
 62
     7
100
AcDbLine
 10
1162.499997664534
 20
3456.500015537903
 30
0.0
 11
1163.499997664534
 21
3456.500015537903
 31
0.0
  0
LINE
  5
BB3
330
2
100
AcDbEntity
  8
0
  6
Continuous
 62
     7
100
AcDbLine
 10
1171.499997664534
 20
3464.500015537905
 30
0.0
 11
1173.499997664834
 21
3464.500015537905
 31
0.0
  0
LINE
  5
BB4
330
2
100
AcDbEntity
  8
0
  6
Continuous
 62
     7
100
AcDbLine
 10
1173.499997664834
 20
3472.500015537906
 30
0.0
 11
1171.499997664534
 21
3472.500015537906
 31
0.0
  0
LINE
  5
BB5
330
2
100
AcDbEntity
  8
0
  6
Continuous
 62
     7
100
AcDbLine
 10
1157.099997664543
 20
3481.000015537905
 30
0.0
 11
1156.099997664543
 21
3480.000015537906
 31
0.0
  0
LINE
  5
BB6
330
2
100
AcDbEntity
  8
0
  6
Continuous
 62
     7
100
AcDbLine
 10
1156.099997664543
 20
3457.000015537906
 30
0.0
 11
1157.099997664543
 21
3456.000015537905
 31
0.0
  0
LINE
  5
BB7
330
2
100
AcDbEntity
  8
0
  6
Continuous
 62
     7
100
AcDbLine
 10
1157.099997664543
 20
3456.000015537905
 30
0.0
 11
1162.099997664543
 21
3456.000015537905
 31
0.0
  0
LINE
  5
BB8
330
2
100
AcDbEntity
  8
0
  6
Continuous
 62
     7
100
AcDbLine
 10
1162.099997664534
 20
3481.000015537905
 30
0.0
 11
1157.099997664534
 21
3481.000015537905
 31
0.0
  0
LINE
  5
BB9
330
2
100
AcDbEntity
  8
0
  6
Continuous
 62
     7
100
AcDbLine
 10
1174.499997664834
 20
3480.500015537902
 30
0.0
 11
1173.499997664834
 21
3480.500015537902
 31
0.0
  0
LINE
  5
BBA
330
2
100
AcDbEntity
  8
0
  6
Continuous
 62
     7
100
AcDbLine
 10
1173.499997664834
 20
3456.500015537903
 30
0.0
 11
1174.499997664834
 21
3456.500015537903
 31
0.0
  0
LINE
  5
BBB
330
2
100
AcDbEntity
  8
0
  6
Continuous
 62
     7
100
AcDbLine
 10
1177.999997664825
 20
3456.000015537902
 30
0.0
 11
1179.499997664834
 21
3457.5000155379
 31
0.0
  0
LINE
  5
BBC
330
2
100
AcDbEntity
  8
0
  6
Continuous
 62
     7
100
AcDbLine
 10
1179.499997664834
 20
3479.500015537901
 30
0.0
 11
1177.999997664834
 21
3481.000015537901
 31
0.0
  0
LINE
  5
BBD
330
2
100
AcDbEntity
  8
0
  6
Continuous
 62
     7
100
AcDbLine
 10
1177.999997664834
 20
3481.000015537901
 30
0.0
 11
1174.999997664834
 21
3481.000015537901
 31
0.0
  0
LINE
  5
BBE
330
2
100
AcDbEntity
  8
0
  6
Continuous
 62
     7
100
AcDbLine
 10
1174.999997664834
 20
3456.000015537903
 30
0.0
 11
1177.999997664825
 21
3456.000015537902
 31
0.0
  0
ARC
  5
BBF
330
2
100
AcDbEntity
  8
0
  6
Continuous
 62
     7
100
AcDbCircle
 10
1174.999997664834
 20
3480.500015537902
 30
0.0
 40
0.5000000000006111
100
AcDbArc
 50
90.0
 51
180.000000000026
  0
ARC
  5
BC0
330
2
100
AcDbEntity
  8
0
  6
Continuous
 62
     7
100
AcDbCircle
 10
1174.999997664834
 20
3456.500015537903
 30
0.0
 40
0.5000000000006111
100
AcDbArc
 50
180.0
 51
270.0
  0
LINE
  5
BC1
330
2
100
AcDbEntity
  8
0
  6
Continuous
 62
     7
100
AcDbLine
 10
2337.699997712143
 20
3476.500015537953
 30
0.0
 11
2337.499997712145
 21
3476.500015537953
 31
0.0
  0
LINE
  5
BC2
330
2
100
AcDbEntity
  8
0
  6
Continuous
 62
     7
100
AcDbLine
 10
2337.499997712145
 20
3460.500015537955
 30
0.0
 11
2337.699997712134
 21
3460.500015537955
 31
0.0
  0
LINE
  5
BC3
330
2
100
AcDbEntity
  8
0
  6
Continuous
 62
     7
100
AcDbLine
 10
2337.899997712144
 20
3476.500015537953
 30
0.0
 11
2337.699997712143
 21
3476.500015537953
 31
0.0
  0
LINE
  5
BC4
330
2
100
AcDbEntity
  8
0
  6
Continuous
 62
     7
100
AcDbLine
 10
2337.699997712134
 20
3460.500015537955
 30
0.0
 11
2337.899997712135
 21
3460.500015537955
 31
0.0
  0
LINE
  5
BC5
330
2
100
AcDbEntity
  8
0
  6
Continuous
 62
     7
100
AcDbLine
 10
2336.499997712133
 20
3456.500015537952
 30
0.0
 11
2337.499997712134
 21
3456.500015537952
 31
0.0
  0
LINE
  5
BC6
330
2
100
AcDbEntity
  8
0
  6
Continuous
 62
     7
100
AcDbLine
 10
2337.499997712145
 20
3480.500015537952
 30
0.0
 11
2336.499997712144
 21
3480.500015537952
 31
0.0
  0
LINE
  5
BC7
330
2
100
AcDbEntity
  8
0
  6
Continuous
 62
     7
100
AcDbLine
 10
2342.899997712144
 20
3456.000015537952
 30
0.0
 11
2343.899997712144
 21
3457.000015537953
 31
0.0
  0
LINE
  5
BC8
330
2
100
AcDbEntity
  8
0
  6
Continuous
 62
     7
100
AcDbLine
 10
2343.899997712135
 20
3480.000015537952
 30
0.0
 11
2342.899997712144
 21
3481.000015537952
 31
0.0
  0
LINE
  5
BC9
330
2
100
AcDbEntity
  8
0
  6
Continuous
 62
     7
100
AcDbLine
 10
2342.899997712135
 20
3481.000015537952
 30
0.0
 11
2337.899997712135
 21
3481.000015537951
 31
0.0
  0
LINE
  5
BCA
330
2
100
AcDbEntity
  8
0
  6
Continuous
 62
     7
100
AcDbLine
 10
2337.899997712144
 20
3456.000015537952
 30
0.0
 11
2342.899997712144
 21
3456.000015537952
 31
0.0
  0
LINE
  5
BCB
330
2
100
AcDbEntity
  8
0
  6
Continuous
 62
     7
100
AcDbLine
 10
1171.999997665416
 20
3382.750015588142
 30
0.0
 11
1171.499997665416
 21
3382.75001558808
 31
0.0
  0
LINE
  5
BCC
330
2
100
AcDbEntity
  8
0
  6
Continuous
 62
     7
100
AcDbLine
 10
1171.499997669001
 20
3354.250015588081
 30
0.0
 11
1171.999997669016
 21
3354.250015588144
 31
0.0
  0
LINE
  5
BCD
330
2
100
AcDbEntity
  8
0
  6
Continuous
 62
     7
100
AcDbLine
 10
1172.499998908084
 20
3383.500015588206
 30
0.0
 11
1171.999997665314
 21
3383.500015588142
 31
0.0
  0
LINE
  5
BCE
330
2
100
AcDbEntity
  8
0
  6
Continuous
 62
     7
100
AcDbLine
 10
1171.999997669101
 20
3353.500015588144
 30
0.0
 11
1172.499998908084
 21
3353.500015588205
 31
0.0
  0
LINE
  5
BCF
330
2
100
AcDbEntity
  8
0
  6
Continuous
 62
     7
100
AcDbLine
 10
1171.999997664254
 20
1682.750015586901
 30
0.0
 11
1171.499997664243
 21
1682.750015586837
 31
0.0
  0
LINE
  5
BD0
330
2
100
AcDbEntity
  8
0
  6
Continuous
 62
     7
100
AcDbLine
 10
1171.499997667835
 20
1654.250015586837
 30
0.0
 11
1171.999997667844
 21
1654.250015586901
 31
0.0
  0
LINE
  5
BD1
330
2
100
AcDbEntity
  8
0
  6
Continuous
 62
     7
100
AcDbLine
 10
1172.499998907844
 20
1683.500015586963
 30
0.0
 11
1171.999997664143
 21
1683.500015586901
 31
0.0
  0
LINE
  5
BD2
330
2
100
AcDbEntity
  8
0
  6
Continuous
 62
     7
100
AcDbLine
 10
1171.999997667935
 20
1653.500015586901
 30
0.0
 11
1172.499998907835
 21
1653.500015586963
 31
0.0
  0
LINE
  5
BD3
330
2
100
AcDbEntity
  8
0
  6
Continuous
 62
     7
100
AcDbLine
 10
1722.499997664534
 20
3478.500015538165
 30
0.0
 11
1680.999997664233
 21
3478.500015538165
 31
0.0
  0
LINE
  5
BD4
330
2
100
AcDbEntity
  8
0
  6
Continuous
 62
     7
100
AcDbLine
 10
1665.999997663652
 20
3478.500015538165
 30
0.0
 11
1238.999997665616
 21
3478.500015538163
 31
0.0
  0
LINE
  5
BD5
330
2
100
AcDbEntity
  8
0
  6
Continuous
 62
     7
100
AcDbLine
 10
1223.999997663015
 20
3478.500015538163
 30
0.0
 11
1179.499997664814
 21
3478.500015538163
 31
0.0
  0
LINE
  5
BD6
330
2
100
AcDbEntity
  8
0
  6
Continuous
 62
     7
100
AcDbLine
 10
1179.499997664814
 20
3458.500015538171
 30
0.0
 11
1722.499997664534
 21
3458.500015538172
 31
0.0
  0
CIRCLE
  5
BD7
330
2
100
AcDbEntity
  8
0
  6
Continuous
 62
     7
100
AcDbCircle
 10
3573.599997795966
 20
3468.500015537903
 30
0.0
 40
12.50000000000106
  0
CIRCLE
  5
BD8
330
2
100
AcDbEntity
  8
0
  6
Continuous
 62
     7
100
AcDbCircle
 10
3573.599997795966
 20
3468.500015537903
 30
0.0
 40
11.49999999999984
  0
CIRCLE
  5
BD9
330
2
100
AcDbEntity
  8
0
  6
Continuous
 62
     7
100
AcDbCircle
 10
3573.612334129162
 20
3474.000001702876
 30
0.0
 40
1.250000000000639
  0
CIRCLE
  5
BDA
330
2
100
AcDbEntity
  8
0
  6
Continuous
 62
     7
100
AcDbCircle
 10
3573.587661462755
 20
3463.000029372933
 30
0.0
 40
1.249999999999751
  0
LINE
  5
BDB
330
2
100
AcDbEntity
  8
0
  6
Continuous
 62
     7
100
AcDbLine
 10
2855.915566618794
 20
3380.746078757436
 30
0.0
 11
2855.539489087334
 21
3380.09469336524
 31
0.0
  0
ARC
  5
BDC
330
2
100
AcDbEntity
  8
0
  6
Continuous
 62
     7
100
AcDbCircle
 10
2849.999999290294
 20
3368.500015586681
 30
0.0
 40
13.60000000000051
100
AcDbArc
 50
55.78326952585425
 51
64.21673048352582
  0
LINE
  5
BDD
330
2
100
AcDbEntity
  8
0
  6
Continuous
 62
     7
100
AcDbLine
 10
2857.271539894984
 20
3379.094693365381
 30
0.0
 11
2857.647617426443
 21
3379.746078757577
 31
0.0
  0
ARC
  5
BDE
330
2
100
AcDbEntity
  8
0
  6
Continuous
 62
     7
100
AcDbCircle
 10
2849.999999290294
 20
3368.500015586681
 30
0.0
 40
12.85000000000039
100
AcDbArc
 50
304.4633283531952
 51
55.53667165614913
  0
LINE
  5
BDF
330
2
100
AcDbEntity
  8
0
  6
Continuous
 62
     7
100
AcDbLine
 10
2857.271539896705
 20
3357.90533780917
 30
0.0
 11
2857.647617428274
 21
3357.253952417035
 31
0.0
  0
ARC
  5
BE0
330
2
100
AcDbEntity
  8
0
  6
Continuous
 62
     7
100
AcDbCircle
 10
2849.999999290294
 20
3368.500015586681
 30
0.0
 40
13.59999999999994
100
AcDbArc
 50
295.7832695258436
 51
304.2167304835616
  0
LINE
  5
BE1
330
2
100
AcDbEntity
  8
0
  6
Continuous
 62
     7
100
AcDbLine
 10
2855.915566620785
 20
3356.253952416893
 30
0.0
 11
2855.539489089215
 21
3356.905337809028
 31
0.0
  0
ARC
  5
BE2
330
2
100
AcDbEntity
  8
0
  6
Continuous
 62
     7
100
AcDbCircle
 10
2849.999999290294
 20
3368.500015586681
 30
0.0
 40
12.85000000000031
100
AcDbArc
 50
184.4633283531731
 51
295.5366716561446
  0
LINE
  5
BE3
330
2
100
AcDbEntity
  8
0
  6
Continuous
 62
     7
100
AcDbLine
 10
2837.188968886854
 20
3367.500015585638
 30
0.0
 11
2836.436813823834
 21
3367.500015585579
 31
0.0
  0
ARC
  5
BE4
330
2
100
AcDbEntity
  8
0
  6
Continuous
 62
     7
100
AcDbCircle
 10
2849.999999290294
 20
3368.500015586681
 30
0.0
 40
13.59999999999926
100
AcDbArc
 50
175.7832695258138
 51
184.2167304835087
  0
LINE
  5
BE5
330
2
100
AcDbEntity
  8
0
  6
Continuous
 62
     7
100
AcDbLine
 10
2836.436813823664
 20
3369.500015585579
 30
0.0
 11
2837.188968886692
 21
3369.50001558564
 31
0.0
  0
ARC
  5
BE6
330
2
100
AcDbEntity
  8
0
  6
Continuous
 62
     7
100
AcDbCircle
 10
2849.999999290294
 20
3368.500015586681
 30
0.0
 40
12.84999999999941
100
AcDbArc
 50
64.46332835320795
 51
175.5366716561571
  0
CIRCLE
  5
BE7
330
2
100
AcDbEntity
  8
0
  6
Continuous
 62
     7
100
AcDbCircle
 10
2849.999999289855
 20
3374.000015586683
 30
0.0
 40
1.249999999999751
  0
CIRCLE
  5
BE8
330
2
100
AcDbEntity
  8
0
  6
Continuous
 62
     7
100
AcDbCircle
 10
2849.999999290743
 20
3363.000015586683
 30
0.0
 40
1.249999999999751
  0
ARC
  5
BE9
330
2
100
AcDbEntity
  8
0
  6
Continuous
 62
     7
100
AcDbCircle
 10
2849.999999290325
 20
3368.500015586646
 30
0.0
 40
13.0000000000003
100
AcDbArc
 50
307.9191486704729
 51
52.01539780918643
  0
ARC
  5
BEA
330
2
100
AcDbEntity
  8
0
  6
Continuous
 62
     7
100
AcDbCircle
 10
2856.005934288896
 20
3378.888891598652
 30
0.0
 40
2.000000000000206
100
AcDbArc
 50
355.9117530122249
 51
124.0227934674537
  0
ARC
  5
BEB
330
2
100
AcDbEntity
  8
0
  6
Continuous
 62
     7
100
AcDbCircle
 10
2849.999999290325
 20
3368.500015586646
 30
0.0
 40
12.99999999999834
100
AcDbArc
 50
67.91914867047925
 51
172.0153978091869
  0
ARC
  5
BEC
330
2
100
AcDbEntity
  8
0
  6
Continuous
 62
     7
100
AcDbCircle
 10
2838.000001247874
 20
3368.506869862887
 30
0.0
 40
1.99999999999995
100
AcDbArc
 50
115.9117530122187
 51
179.9672732398811
  0
ARC
  5
BED
330
2
100
AcDbEntity
  8
0
  6
Continuous
 62
     7
100
AcDbCircle
 10
2838.000001247874
 20
3368.506869862887
 30
0.0
 40
2.000000000000219
100
AcDbArc
 50
179.9672732398421
 51
244.0227934674869
  0
ARC
  5
BEE
330
2
100
AcDbEntity
  8
0
  6
Continuous
 62
     7
100
AcDbCircle
 10
2849.999999290325
 20
3368.500015586646
 30
0.0
 40
13.00000000000053
100
AcDbArc
 50
187.91914867053
 51
292.0153978092429
  0
ARC
  5
BEF
330
2
100
AcDbEntity
  8
0
  6
Continuous
 62
     7
100
AcDbCircle
 10
2855.994062334192
 20
3358.104285298395
 30
0.0
 40
2.000000000000288
100
AcDbArc
 50
235.911753012262
 51
4.022793467503069
  0
ARC
  5
BF0
330
2
100
AcDbEntity
  8
0
  6
Continuous
 62
     7
100
AcDbCircle
 10
2849.999999290325
 20
3368.500015586646
 30
0.0
 40
14.99999999999988
100
AcDbArc
 50
179.9999999931214
 51
89.96727323988116
  0
ARC
  5
BF1
330
2
100
AcDbEntity
  8
0
  6
Continuous
 62
     7
100
AcDbCircle
 10
2849.999999290325
 20
3368.500015586646
 30
0.0
 40
14.99999999999879
100
AcDbArc
 50
89.96727323988116
 51
179.9999999931214
  0
LINE
  5
BF2
330
2
100
AcDbEntity
  8
0
  6
Continuous
 62
     7
100
AcDbLine
 10
2855.915566617046
 20
1680.746078756192
 30
0.0
 11
2855.539489085584
 21
1680.094693363996
 31
0.0
  0
ARC
  5
BF3
330
2
100
AcDbEntity
  8
0
  6
Continuous
 62
     7
100
AcDbCircle
 10
2849.999999288556
 20
1668.500015585439
 30
0.0
 40
13.59999999999878
100
AcDbArc
 50
55.78326952585425
 51
64.21673048352582
  0
LINE
  5
BF4
330
2
100
AcDbEntity
  8
0
  6
Continuous
 62
     7
100
AcDbLine
 10
2857.271539893236
 20
1679.094693364137
 30
0.0
 11
2857.647617424693
 21
1679.746078756332
 31
0.0
  0
ARC
  5
BF5
330
2
100
AcDbEntity
  8
0
  6
Continuous
 62
     7
100
AcDbCircle
 10
2849.999999288556
 20
1668.500015585439
 30
0.0
 40
12.84999999999866
100
AcDbArc
 50
304.4633283531952
 51
55.53667165614913
  0
LINE
  5
BF6
330
2
100
AcDbEntity
  8
0
  6
Continuous
 62
     7
100
AcDbLine
 10
2857.271539894964
 20
1657.905337807925
 30
0.0
 11
2857.647617426525
 21
1657.25395241579
 31
0.0
  0
ARC
  5
BF7
330
2
100
AcDbEntity
  8
0
  6
Continuous
 62
     7
100
AcDbCircle
 10
2849.999999288556
 20
1668.500015585439
 30
0.0
 40
13.59999999999994
100
AcDbArc
 50
295.7832695258436
 51
304.2167304835616
  0
LINE
  5
BF8
330
2
100
AcDbEntity
  8
0
  6
Continuous
 62
     7
100
AcDbLine
 10
2855.915566619033
 20
1656.25395241565
 30
0.0
 11
2855.539489087474
 21
1656.905337807784
 31
0.0
  0
ARC
  5
BF9
330
2
100
AcDbEntity
  8
0
  6
Continuous
 62
     7
100
AcDbCircle
 10
2849.999999288556
 20
1668.500015585439
 30
0.0
 40
12.84999999999991
100
AcDbArc
 50
184.4633283531731
 51
295.5366716561446
  0
LINE
  5
BFA
330
2
100
AcDbEntity
  8
0
  6
Continuous
 62
     7
100
AcDbLine
 10
2837.188968885106
 20
1667.500015584396
 30
0.0
 11
2836.436813822084
 21
1667.500015584335
 31
0.0
  0
ARC
  5
BFB
330
2
100
AcDbEntity
  8
0
  6
Continuous
 62
     7
100
AcDbCircle
 10
2849.999999288556
 20
1668.500015585439
 30
0.0
 40
13.60000000000104
100
AcDbArc
 50
175.7832695258138
 51
184.2167304835087
  0
LINE
  5
BFC
330
2
100
AcDbEntity
  8
0
  6
Continuous
 62
     7
100
AcDbLine
 10
2836.436813821924
 20
1669.500015584334
 30
0.0
 11
2837.188968884944
 21
1669.500015584396
 31
0.0
  0
ARC
  5
BFD
330
2
100
AcDbEntity
  8
0
  6
Continuous
 62
     7
100
AcDbCircle
 10
2849.999999288556
 20
1668.500015585439
 30
0.0
 40
12.85000000000118
100
AcDbArc
 50
64.46332835320795
 51
175.5366716561571
  0
CIRCLE
  5
BFE
330
2
100
AcDbEntity
  8
0
  6
Continuous
 62
     7
100
AcDbCircle
 10
2849.999999288105
 20
1674.000015585439
 30
0.0
 40
1.250000000000194
  0
CIRCLE
  5
BFF
330
2
100
AcDbEntity
  8
0
  6
Continuous
 62
     7
100
AcDbCircle
 10
2849.999999288995
 20
1663.000015585439
 30
0.0
 40
1.249999999999751
  0
ARC
  5
C00
330
2
100
AcDbEntity
  8
0
  6
Continuous
 62
     7
100
AcDbCircle
 10
2849.999999288575
 20
1668.500015585401
 30
0.0
 40
13.000000000001
100
AcDbArc
 50
307.9191486704809
 51
52.01539780918643
  0
ARC
  5
C01
330
2
100
AcDbEntity
  8
0
  6
Continuous
 62
     7
100
AcDbCircle
 10
2856.005934287154
 20
1678.888891597408
 30
0.0
 40
1.999999999998435
100
AcDbArc
 50
355.9117530122249
 51
124.0227934674537
  0
ARC
  5
C02
330
2
100
AcDbEntity
  8
0
  6
Continuous
 62
     7
100
AcDbCircle
 10
2849.999999288575
 20
1668.500015585401
 30
0.0
 40
13.0000000000001
100
AcDbArc
 50
67.91914867047925
 51
172.0153978091998
  0
ARC
  5
C03
330
2
100
AcDbEntity
  8
0
  6
Continuous
 62
     7
100
AcDbCircle
 10
2838.000001246126
 20
1668.506869861644
 30
0.0
 40
1.999999999999174
100
AcDbArc
 50
115.911753012213
 51
179.9672732398421
  0
ARC
  5
C04
330
2
100
AcDbEntity
  8
0
  6
Continuous
 62
     7
100
AcDbCircle
 10
2838.000001246126
 20
1668.506869861644
 30
0.0
 40
2.000000000000219
100
AcDbArc
 50
179.9672732398551
 51
244.0227934674869
  0
ARC
  5
C05
330
2
100
AcDbEntity
  8
0
  6
Continuous
 62
     7
100
AcDbCircle
 10
2849.999999288575
 20
1668.500015585401
 30
0.0
 40
13.00000000000053
100
AcDbArc
 50
187.91914867053
 51
292.0153978092429
  0
ARC
  5
C06
330
2
100
AcDbEntity
  8
0
  6
Continuous
 62
     7
100
AcDbCircle
 10
2855.994062332455
 20
1658.104285297151
 30
0.0
 40
1.999999999999918
100
AcDbArc
 50
235.911753012262
 51
4.022793467490071
  0
ARC
  5
C07
330
2
100
AcDbEntity
  8
0
  6
Continuous
 62
     7
100
AcDbCircle
 10
2849.999999288575
 20
1668.500015585401
 30
0.0
 40
15.00000000000033
100
AcDbArc
 50
269.9999942848651
 51
89.96727323988116
  0
ARC
  5
C08
330
2
100
AcDbEntity
  8
0
  6
Continuous
 62
     7
100
AcDbCircle
 10
2849.999999288575
 20
1668.500015585401
 30
0.0
 40
14.99999999999975
100
AcDbArc
 50
89.96727323988116
 51
269.9999942848651
  0
LINE
  5
C09
330
2
100
AcDbEntity
  8
0
  6
Continuous
 62
     7
100
AcDbLine
 10
3595.999997796385
 20
3456.000014957643
 30
0.0
 11
3595.999997795543
 21
3481.000014957642
 31
0.0
  0
LINE
  5
C0A
330
2
100
AcDbEntity
  8
0
  6
Continuous
 62
     7
100
AcDbLine
 10
3601.699997796375
 20
3456.000014957834
 30
0.0
 11
3601.699997795542
 21
3481.000014957834
 31
0.0
  0
LINE
  5
C0B
330
2
100
AcDbEntity
  8
0
  6
Continuous
 62
     7
100
AcDbLine
 10
3601.999997795554
 20
3480.700014957842
 30
0.0
 11
3601.999997796376
 21
3456.300014957842
 31
0.0
  0
LINE
  5
C0C
330
2
100
AcDbEntity
  8
0
  6
Continuous
 62
     4
100
AcDbLine
 10
3594.999997792215
 20
1518.500015587657
 30
0.0
 11
3594.999997794285
 21
3518.50001558766
 31
0.0
  0
LINE
  5
C0D
330
2
100
AcDbEntity
  8
0
  6
Continuous
 62
     4
100
AcDbLine
 10
2808.999997792215
 20
1518.500015588471
 30
0.0
 11
2808.999997794284
 21
3518.500015588471
 31
0.0
  0
LINE
  5
C0E
330
2
100
AcDbEntity
  8
0
  6
Continuous
 62
     4
100
AcDbLine
 10
2808.999997794284
 20
3518.500015588471
 30
0.0
 11
3594.999997794285
 21
3518.50001558766
 31
0.0
  0
ARC
  5
C0F
330
2
100
AcDbEntity
  8
0
  6
Continuous
 62
     4
100
AcDbCircle
 10
2849.999997794134
 20
3368.500015588427
 30
0.0
 40
15.00000000000057
100
AcDbArc
 50
89.99999998217829
 51
179.9999999999348
  0
ARC
  5
C10
330
2
100
AcDbEntity
  8
0
  6
Continuous
 62
     4
100
AcDbCircle
 10
2849.999997794134
 20
3368.500015588427
 30
0.0
 40
14.99999999999968
100
AcDbArc
 50
179.9999999999348
 51
89.99999998217829
  0
ARC
  5
C11
330
2
100
AcDbEntity
  8
0
  6
Continuous
 62
     4
100
AcDbCircle
 10
2849.999997792377
 20
1668.500015588429
 30
0.0
 40
15.00000000000012
100
AcDbArc
 50
89.96726752474527
 51
269.9999999998958
  0
ARC
  5
C12
330
2
100
AcDbEntity
  8
0
  6
Continuous
 62
     4
100
AcDbCircle
 10
2849.999997792377
 20
1668.500015588429
 30
0.0
 40
14.9999999999997
100
AcDbArc
 50
269.9999999998958
 51
89.96726752474527
  0
LINE
  5
C13
330
2
100
AcDbEntity
  8
0
  6
Continuous
 62
     9
100
AcDbLine
 10
3598.499997860885
 20
1518.500015537882
 30
0.0
 11
3598.499997862164
 21
1538.500015537882
 31
0.0
  0
LINE
  5
C14
330
2
100
AcDbEntity
  8
0
  6
Continuous
 62
     7
100
AcDbLine
 10
3600.499997862293
 20
1538.500015537754
 30
0.0
 11
3600.499997861003
 21
1518.500015537754
 31
0.0
  0
LINE
  5
C15
330
2
100
AcDbEntity
  8
0
  6
Continuous
 62
     7
100
AcDbLine
 10
3598.499997862164
 20
1538.500015537882
 30
0.0
 11
3600.499997862293
 21
1538.500015537754
 31
0.0
  0
LINE
  5
C16
330
2
100
AcDbEntity
  8
0
  6
Continuous
 62
     7
100
AcDbLine
 10
3598.499997862164
 20
1538.500015537882
 30
0.0
 11
3594.999997862535
 21
1538.500015538106
 31
0.0
  0
LINE
  5
C17
330
2
100
AcDbEntity
  8
0
  6
Continuous
 62
     7
100
AcDbLine
 10
3608.999997666133
 20
1518.50001553721
 30
0.0
 11
2808.999997666133
 21
1518.500015588469
 31
0.0
  0
LINE
  5
C18
330
2
100
AcDbEntity
  8
0
  6
Continuous
 62
     7
100
AcDbLine
 10
3608.999997662935
 20
1468.500015537209
 30
0.0
 11
3608.999997666133
 21
1518.50001553721
 31
0.0
  0
LINE
  5
C19
330
2
100
AcDbEntity
  8
0
  6
Continuous
 62
     7
100
AcDbLine
 10
3608.999997662935
 20
1468.500015537209
 30
0.0
 11
2808.999997662935
 21
1468.500015588469
 31
0.0
  0
LINE
  5
C1A
330
2
100
AcDbEntity
  8
0
  6
Continuous
 62
     7
100
AcDbLine
 10
2808.999997662935
 20
1468.500015588469
 30
0.0
 11
2808.999997666133
 21
1518.500015588469
 31
0.0
  0
LINE
  5
C1B
330
2
100
AcDbEntity
  8
0
  6
Continuous
 62
     7
100
AcDbLine
 10
3595.999997795554
 20
3480.50001495764
 30
0.0
 11
3594.999997795554
 21
3480.500014957608
 31
0.0
  0
LINE
  5
C1C
330
2
100
AcDbEntity
  8
0
  6
Continuous
 62
     7
100
AcDbLine
 10
3594.999997796364
 20
3456.500014957607
 30
0.0
 11
3595.999997796364
 21
3456.50001495764
 31
0.0
  0
LINE
  5
C1D
330
2
100
AcDbEntity
  8
0
  6
Continuous
 62
     7
100
AcDbLine
 10
3595.999997796385
 20
3456.000014957643
 30
0.0
 11
3601.699997796375
 21
3456.000014957834
 31
0.0
  0
LINE
  5
C1E
330
2
100
AcDbEntity
  8
0
  6
Continuous
 62
     7
100
AcDbLine
 10
3601.699997795542
 20
3481.000014957834
 30
0.0
 11
3595.999997795543
 21
3481.000014957642
 31
0.0
  0
LINE
  5
C1F
330
2
100
AcDbEntity
  8
0
  6
Continuous
 62
     7
100
AcDbLine
 10
3601.699997796375
 20
3456.000014957834
 30
0.0
 11
3601.999997796376
 21
3456.300014957842
 31
0.0
  0
LINE
  5
C20
330
2
100
AcDbEntity
  8
0
  6
Continuous
 62
     7
100
AcDbLine
 10
3601.999997795554
 20
3480.700014957842
 30
0.0
 11
3601.699997795542
 21
3481.000014957834
 31
0.0
  0
CIRCLE
  5
C21
330
2
100
AcDbEntity
  8
0
  6
Continuous
 62
     7
100
AcDbCircle
 10
35.39156019472466
 20
3474.000009066249
 30
0.0
 40
1.249999999999751
  0
CIRCLE
  5
C22
330
2
100
AcDbEntity
  8
0
  6
Continuous
 62
     7
100
AcDbCircle
 10
35.40843487149505
 20
3463.000022009655
 30
0.0
 40
1.249999999999751
  0
CIRCLE
  5
C23
330
2
100
AcDbEntity
  8
0
  6
Continuous
 62
     7
100
AcDbCircle
 10
35.39999753310258
 20
3468.500015537952
 30
0.0
 40
11.49999999999895
  0
CIRCLE
  5
C24
330
2
100
AcDbEntity
  8
0
  6
Continuous
 62
     7
100
AcDbCircle
 10
35.39999753310258
 20
3468.500015537952
 30
0.0
 40
12.4999999999984
  0
ARC
  5
C25
330
2
100
AcDbEntity
  8
0
  6
Continuous
 62
     7
100
AcDbCircle
 10
62.99999747298352
 20
1668.500015536347
 30
0.0
 40
12.84999999999974
100
AcDbArc
 50
184.4633283435442
 51
295.5366716465534
  0
LINE
  5
C26
330
2
100
AcDbEntity
  8
0
  6
Continuous
 62
     7
100
AcDbLine
 10
50.18896706936539
 20
1667.500015537456
 30
0.0
 11
50.0385160760652
 21
1667.500015537469
 31
0.0
  0
LINE
  5
C27
330
2
100
AcDbEntity
  8
0
  6
Continuous
 62
     7
100
AcDbLine
 10
50.03851607623254
 20
1669.500015537469
 30
0.0
 11
50.18896706954365
 21
1669.500015537456
 31
0.0
  0
ARC
  5
C28
330
2
100
AcDbEntity
  8
0
  6
Continuous
 62
     7
100
AcDbCircle
 10
62.99999747298352
 20
1668.500015536347
 30
0.0
 40
12.85000000000041
100
AcDbArc
 50
64.46332834351716
 51
175.5366716465411
  0
CIRCLE
  5
C29
330
2
100
AcDbEntity
  8
0
  6
Continuous
 62
     7
100
AcDbCircle
 10
62.99999747345282
 20
1674.000015536348
 30
0.0
 40
1.249999999999751
  0
CIRCLE
  5
C2A
330
2
100
AcDbEntity
  8
0
  6
Continuous
 62
     7
100
AcDbCircle
 10
62.99999747250331
 20
1663.000015536347
 30
0.0
 40
1.250000000000194
  0
ARC
  5
C2B
330
2
100
AcDbEntity
  8
0
  6
Continuous
 62
     7
100
AcDbCircle
 10
62.9999974729635
 20
1668.500015536366
 30
0.0
 40
12.99999999999936
100
AcDbArc
 50
217.9380781041052
 51
322.0343272427907
  0
ARC
  5
C2C
330
2
100
AcDbEntity
  8
0
  6
Continuous
 62
     7
100
AcDbCircle
 10
73.39085716441513
 20
1662.49751315215
 30
0.0
 40
2.00000000000021
100
AcDbArc
 50
265.9306824458631
 51
34.04172290113297
  0
ARC
  5
C2D
330
2
100
AcDbEntity
  8
0
  6
Continuous
 62
     7
100
AcDbCircle
 10
62.9999974729635
 20
1668.500015536366
 30
0.0
 40
13.00000000000057
100
AcDbArc
 50
337.9380781041386
 51
82.03432724280084
  0
ARC
  5
C2E
330
2
100
AcDbEntity
  8
0
  6
Continuous
 62
     7
100
AcDbCircle
 10
63.00288717824333
 20
1680.500015188433
 30
0.0
 40
2.000000000000874
100
AcDbArc
 50
25.93068244583843
 51
154.0417229010817
  0
ARC
  5
C2F
330
2
100
AcDbEntity
  8
0
  6
Continuous
 62
     7
100
AcDbCircle
 10
62.9999974729635
 20
1668.500015536366
 30
0.0
 40
13.00000000000024
100
AcDbArc
 50
97.93807810409552
 51
202.0343272428128
  0
ARC
  5
C30
330
2
100
AcDbEntity
  8
0
  6
Continuous
 62
     7
100
AcDbCircle
 10
52.60624807622297
 20
1662.502518268518
 30
0.0
 40
1.999999999999776
100
AcDbArc
 50
145.9306824458642
 51
274.0417229010796
  0
CIRCLE
  5
C31
330
2
100
AcDbEntity
  8
0
  6
Continuous
 62
     7
100
AcDbCircle
 10
62.9999974729635
 20
1668.500015536366
 30
0.0
 40
15.00000000000012
  0
ARC
  5
C32
330
2
100
AcDbEntity
  8
0
  6
Continuous
 62
     7
100
AcDbCircle
 10
62.99999753208249
 20
3368.50001561111
 30
0.0
 40
12.85000000000014
100
AcDbArc
 50
184.4633283435442
 51
295.5366716465477
  0
LINE
  5
C33
330
2
100
AcDbEntity
  8
0
  6
Continuous
 62
     7
100
AcDbLine
 10
50.18896712846435
 20
3367.50001561222
 30
0.0
 11
50.03851613519326
 21
3367.500015612232
 31
0.0
  0
LINE
  5
C34
330
2
100
AcDbEntity
  8
0
  6
Continuous
 62
     7
100
AcDbLine
 10
50.03851613536426
 20
3369.500015612231
 30
0.0
 11
50.18896712864261
 21
3369.500015612219
 31
0.0
  0
ARC
  5
C35
330
2
100
AcDbEntity
  8
0
  6
Continuous
 62
     7
100
AcDbCircle
 10
62.99999753208249
 20
3368.50001561111
 30
0.0
 40
12.85000000000041
100
AcDbArc
 50
64.46332834351716
 51
175.5366716465411
  0
CIRCLE
  5
C36
330
2
100
AcDbEntity
  8
0
  6
Continuous
 62
     7
100
AcDbCircle
 10
62.99999753255178
 20
3374.00001561111
 30
0.0
 40
1.249999999999751
  0
CIRCLE
  5
C37
330
2
100
AcDbEntity
  8
0
  6
Continuous
 62
     7
100
AcDbCircle
 10
62.99999753160228
 20
3363.00001561111
 30
0.0
 40
1.250000000000639
  0
ARC
  5
C38
330
2
100
AcDbEntity
  8
0
  6
Continuous
 62
     7
100
AcDbCircle
 10
62.9999975320934
 20
3368.50001561112
 30
0.0
 40
12.99999999999963
100
AcDbArc
 50
217.9380781041052
 51
322.0343272427907
  0
ARC
  5
C39
330
2
100
AcDbEntity
  8
0
  6
Continuous
 62
     7
100
AcDbCircle
 10
73.39085722355228
 20
3362.497513226902
 30
0.0
 40
1.999999999999323
100
AcDbArc
 50
265.9306824458631
 51
34.04172290113297
  0
ARC
  5
C3A
330
2
100
AcDbEntity
  8
0
  6
Continuous
 62
     7
100
AcDbCircle
 10
62.9999975320934
 20
3368.50001561112
 30
0.0
 40
13.00000000000057
100
AcDbArc
 50
337.9380781041386
 51
82.03432724280084
  0
ARC
  5
C3B
330
2
100
AcDbEntity
  8
0
  6
Continuous
 62
     7
100
AcDbCircle
 10
63.00288723738232
 20
3380.500015263186
 30
0.0
 40
2.00000000000068
100
AcDbArc
 50
25.93068244582673
 51
154.04172290107
  0
ARC
  5
C3C
330
2
100
AcDbEntity
  8
0
  6
Continuous
 62
     7
100
AcDbCircle
 10
62.9999975320934
 20
3368.50001561112
 30
0.0
 40
12.99999999999936
100
AcDbArc
 50
97.93807810409552
 51
202.0343272428128
  0
ARC
  5
C3D
330
2
100
AcDbEntity
  8
0
  6
Continuous
 62
     7
100
AcDbCircle
 10
52.60624813536377
 20
3362.50251834327
 30
0.0
 40
2.000000000001993
100
AcDbArc
 50
145.9306824458534
 51
274.0417229010796
  0
CIRCLE
  5
C3E
330
2
100
AcDbEntity
  8
0
  6
Continuous
 62
     7
100
AcDbCircle
 10
62.9999975320934
 20
3368.50001561112
 30
0.0
 40
14.99999999999968
  0
LINE
  5
C3F
330
2
100
AcDbEntity
  8
0
  6
Continuous
 62
     7
100
AcDbLine
 10
753.0844286473437
 20
1656.253952417539
 30
0.0
 11
753.4605061788242
 21
1656.905337809723
 31
0.0
  0
ARC
  5
C40
330
2
100
AcDbEntity
  8
0
  6
Continuous
 62
     7
100
AcDbCircle
 10
758.9999959762335
 20
1668.5000155881
 30
0.0
 40
13.600000000001
100
AcDbArc
 50
235.7832695239681
 51
244.2167304816674
  0
LINE
  5
C41
330
2
100
AcDbEntity
  8
0
  6
Continuous
 62
     7
100
AcDbLine
 10
751.7284553712032
 20
1657.905337809637
 30
0.0
 11
751.3523778397247
 21
1657.253952417454
 31
0.0
  0
ARC
  5
C42
330
2
100
AcDbEntity
  8
0
  6
Continuous
 62
     7
100
AcDbCircle
 10
758.9999959762335
 20
1668.5000155881
 30
0.0
 40
12.85000000000098
100
AcDbArc
 50
124.4633283513092
 51
235.5366716542631
  0
LINE
  5
C43
330
2
100
AcDbEntity
  8
0
  6
Continuous
 62
     7
100
AcDbLine
 10
751.7284553701664
 20
1679.09469336585
 30
0.0
 11
751.3523778386261
 21
1679.746078757997
 31
0.0
  0
ARC
  5
C44
330
2
100
AcDbEntity
  8
0
  6
Continuous
 62
     7
100
AcDbCircle
 10
758.9999959762335
 20
1668.5000155881
 30
0.0
 40
13.60000000000018
100
AcDbArc
 50
115.7832695239907
 51
124.2167304816755
  0
LINE
  5
C45
330
2
100
AcDbEntity
  8
0
  6
Continuous
 62
     7
100
AcDbLine
 10
753.0844286461432
 20
1680.746078758081
 30
0.0
 11
753.4605061776836
 21
1680.094693365935
 31
0.0
  0
ARC
  5
C46
330
2
100
AcDbEntity
  8
0
  6
Continuous
 62
     7
100
AcDbCircle
 10
758.9999959762335
 20
1668.5000155881
 30
0.0
 40
12.85000000000105
100
AcDbArc
 50
4.463328351307735
 51
115.5366716542917
  0
LINE
  5
C47
330
2
100
AcDbEntity
  8
0
  6
Continuous
 62
     7
100
AcDbLine
 10
771.8110263797024
 20
1669.500015588727
 30
0.0
 11
772.5631814427343
 21
1669.500015588765
 31
0.0
  0
ARC
  5
C48
330
2
100
AcDbEntity
  8
0
  6
Continuous
 62
     7
100
AcDbCircle
 10
758.9999959762335
 20
1668.5000155881
 30
0.0
 40
13.59999999999876
100
AcDbArc
 50
355.7832695239482
 51
4.216730481656098
  0
LINE
  5
C49
330
2
100
AcDbEntity
  8
0
  6
Continuous
 62
     7
100
AcDbLine
 10
772.5631814428343
 20
1667.500015588765
 30
0.0
 11
771.8110263798025
 21
1667.500015588727
 31
0.0
  0
ARC
  5
C4A
330
2
100
AcDbEntity
  8
0
  6
Continuous
 62
     7
100
AcDbCircle
 10
758.9999959762335
 20
1668.5000155881
 30
0.0
 40
12.84999999999991
100
AcDbArc
 50
244.4633283512611
 51
355.5366716543046
  0
CIRCLE
  5
C4B
330
2
100
AcDbEntity
  8
0
  6
Continuous
 62
     7
100
AcDbCircle
 10
758.9999959765008
 20
1663.0000155881
 30
0.0
 40
1.250000000000194
  0
CIRCLE
  5
C4C
330
2
100
AcDbEntity
  8
0
  6
Continuous
 62
     7
100
AcDbCircle
 10
758.9999959759642
 20
1674.0000155881
 30
0.0
 40
1.250000000000194
  0
ARC
  5
C4D
330
2
100
AcDbEntity
  8
0
  6
Continuous
 62
     7
100
AcDbCircle
 10
758.9999959762226
 20
1668.5000155881
 30
0.0
 40
13.00000000000032
100
AcDbArc
 50
127.9191486686253
 51
232.0153978073308
  0
ARC
  5
C4E
330
2
100
AcDbEntity
  8
0
  6
Continuous
 62
     7
100
AcDbCircle
 10
752.9940609773148
 20
1658.111139576288
 30
0.0
 40
1.999999999999514
100
AcDbArc
 50
175.9117530103593
 51
304.0227934655749
  0
ARC
  5
C4F
330
2
100
AcDbEntity
  8
0
  6
Continuous
 62
     7
100
AcDbCircle
 10
758.9999959762226
 20
1668.5000155881
 30
0.0
 40
13.00000000000016
100
AcDbArc
 50
247.9191486686745
 51
352.0153978073389
  0
ARC
  5
C50
330
2
100
AcDbEntity
  8
0
  6
Continuous
 62
     7
100
AcDbCircle
 10
770.9999940186754
 20
1668.493161311468
 30
0.0
 40
2.000000000000696
100
AcDbArc
 50
295.9117530103602
 51
359.9672732380052
  0
ARC
  5
C51
330
2
100
AcDbEntity
  8
0
  6
Continuous
 62
     7
100
AcDbCircle
 10
770.9999940186754
 20
1668.493161311468
 30
0.0
 40
2.000000000000258
100
AcDbArc
 50
359.9672732380052
 51
64.02279346563401
  0
ARC
  5
C52
330
2
100
AcDbEntity
  8
0
  6
Continuous
 62
     7
100
AcDbCircle
 10
758.9999959762226
 20
1668.5000155881
 30
0.0
 40
12.99999999999994
100
AcDbArc
 50
7.919148668654675
 51
112.0153978073366
  0
ARC
  5
C53
330
2
100
AcDbEntity
  8
0
  6
Continuous
 62
     7
100
AcDbCircle
 10
753.0059329326832
 20
1678.895745876545
 30
0.0
 40
1.999999999999995
100
AcDbArc
 50
55.91175301039052
 51
184.022793465643
  0
ARC
  5
C54
330
2
100
AcDbEntity
  8
0
  6
Continuous
 62
     7
100
AcDbCircle
 10
758.9999959762226
 20
1668.5000155881
 30
0.0
 40
15.00000000000016
100
AcDbArc
 50
89.99999428153001
 51
269.9672732380051
  0
ARC
  5
C55
330
2
100
AcDbEntity
  8
0
  6
Continuous
 62
     7
100
AcDbCircle
 10
758.9999959762226
 20
1668.5000155881
 30
0.0
 40
14.99999999999975
100
AcDbArc
 50
269.9672732380051
 51
89.99999428153001
  0
LINE
  5
C56
330
2
100
AcDbEntity
  8
0
  6
Continuous
 62
     7
100
AcDbLine
 10
753.0844287074669
 20
3356.25395241491
 30
0.0
 11
753.4605062389163
 21
3356.905337807113
 31
0.0
  0
ARC
  5
C57
330
2
100
AcDbEntity
  8
0
  6
Continuous
 62
     7
100
AcDbCircle
 10
758.9999960357417
 20
3368.500015585765
 30
0.0
 40
13.6000000000008
100
AcDbArc
 50
235.7832695267725
 51
244.2167304845574
  0
LINE
  5
C58
330
2
100
AcDbEntity
  8
0
  6
Continuous
 62
     7
100
AcDbLine
 10
751.7284554312426
 20
3357.905337806941
 30
0.0
 11
751.3523778997933
 21
3357.253952414739
 31
0.0
  0
ARC
  5
C59
330
2
100
AcDbEntity
  8
0
  6
Continuous
 62
     7
100
AcDbCircle
 10
758.9999960357417
 20
3368.500015585765
 30
0.0
 40
12.84999999999984
100
AcDbArc
 50
124.4633283541997
 51
235.5366716571609
  0
LINE
  5
C5A
330
2
100
AcDbEntity
  8
0
  6
Continuous
 62
     7
100
AcDbLine
 10
751.7284554291526
 20
3379.094693363153
 30
0.0
 11
751.352377897574
 21
3379.746078755281
 31
0.0
  0
ARC
  5
C5B
330
2
100
AcDbEntity
  8
0
  6
Continuous
 62
     7
100
AcDbCircle
 10
758.9999960357417
 20
3368.500015585765
 30
0.0
 40
13.60000000000112
100
AcDbArc
 50
115.7832695267813
 51
124.2167304844799
  0
LINE
  5
C5C
330
2
100
AcDbEntity
  8
0
  6
Continuous
 62
     7
100
AcDbLine
 10
753.0844287050439
 20
3380.746078755453
 30
0.0
 11
753.4605062366245
 21
3380.094693363324
 31
0.0
  0
ARC
  5
C5D
330
2
100
AcDbEntity
  8
0
  6
Continuous
 62
     7
100
AcDbCircle
 10
758.9999960357417
 20
3368.500015585765
 30
0.0
 40
12.84999999999949
100
AcDbArc
 50
4.463328354168337
 51
115.5366716571762
  0
LINE
  5
C5E
330
2
100
AcDbEntity
  8
0
  6
Continuous
 62
     7
100
AcDbLine
 10
771.8110264391651
 20
3369.500015587031
 30
0.0
 11
772.5631815021934
 21
3369.500015587106
 31
0.0
  0
ARC
  5
C5F
330
2
100
AcDbEntity
  8
0
  6
Continuous
 62
     7
100
AcDbCircle
 10
758.9999960357417
 20
3368.500015585765
 30
0.0
 40
13.59999999999892
100
AcDbArc
 50
355.7832695268089
 51
4.216730484516736
  0
LINE
  5
C60
330
2
100
AcDbEntity
  8
0
  6
Continuous
 62
     7
100
AcDbLine
 10
772.5631815023935
 20
3367.500015587106
 30
0.0
 11
771.8110264393652
 21
3367.500015587032
 31
0.0
  0
ARC
  5
C61
330
2
100
AcDbEntity
  8
0
  6
Continuous
 62
     7
100
AcDbCircle
 10
758.9999960357417
 20
3368.500015585765
 30
0.0
 40
12.84999999999977
100
AcDbArc
 50
244.4633283541456
 51
355.5366716571653
  0
CIRCLE
  5
C62
330
2
100
AcDbEntity
  8
0
  6
Continuous
 62
     7
100
AcDbCircle
 10
758.9999960362837
 20
3363.000015585765
 30
0.0
 40
1.250000000000639
  0
CIRCLE
  5
C63
330
2
100
AcDbEntity
  8
0
  6
Continuous
 62
     7
100
AcDbCircle
 10
758.9999960352034
 20
3374.000015585765
 30
0.0
 40
1.249999999999751
  0
ARC
  5
C64
330
2
100
AcDbEntity
  8
0
  6
Continuous
 62
     7
100
AcDbCircle
 10
758.9999960357527
 20
3368.500015585765
 30
0.0
 40
12.99999999999978
100
AcDbArc
 50
127.9191486715149
 51
232.0153978102204
  0
ARC
  5
C65
330
2
100
AcDbEntity
  8
0
  6
Continuous
 62
     7
100
AcDbCircle
 10
752.9940610373669
 20
3358.111139573654
 30
0.0
 40
2.000000000003054
100
AcDbArc
 50
175.9117530132329
 51
304.0227934684582
  0
ARC
  5
C66
330
2
100
AcDbEntity
  8
0
  6
Continuous
 62
     7
100
AcDbCircle
 10
758.9999960357527
 20
3368.500015585765
 30
0.0
 40
13.00000000000243
100
AcDbArc
 50
247.9191486714904
 51
352.0153978101963
  0
ARC
  5
C67
330
2
100
AcDbEntity
  8
0
  6
Continuous
 62
     7
100
AcDbCircle
 10
770.9999940782036
 20
3368.493161309731
 30
0.0
 40
1.999999999999563
100
AcDbArc
 50
295.9117530132503
 51
359.9672732408582
  0
ARC
  5
C68
330
2
100
AcDbEntity
  8
0
  6
Continuous
 62
     7
100
AcDbCircle
 10
770.9999940782036
 20
3368.493161309731
 30
0.0
 40
2.000000000000199
100
AcDbArc
 50
359.9672732408713
 51
64.02279346852407
  0
ARC
  5
C69
330
2
100
AcDbEntity
  8
0
  6
Continuous
 62
     7
100
AcDbCircle
 10
758.9999960357527
 20
3368.500015585765
 30
0.0
 40
12.99999999999939
100
AcDbArc
 50
7.91914867151213
 51
112.0153978101526
  0
ARC
  5
C6A
330
2
100
AcDbEntity
  8
0
  6
Continuous
 62
     7
100
AcDbCircle
 10
753.0059329917021
 20
3378.895745873911
 30
0.0
 40
1.999999999999803
100
AcDbArc
 50
55.9117530132592
 51
184.0227934684647
  0
ARC
  5
C6B
330
2
100
AcDbEntity
  8
0
  6
Continuous
 62
     7
100
AcDbCircle
 10
758.9999960357527
 20
3368.500015585765
 30
0.0
 40
14.99999999999973
100
AcDbArc
 50
89.99999429143095
 51
269.9672732408191
  0
ARC
  5
C6C
330
2
100
AcDbEntity
  8
0
  6
Continuous
 62
     7
100
AcDbCircle
 10
758.9999960357527
 20
3368.500015585765
 30
0.0
 40
14.99999999999975
100
AcDbArc
 50
269.9672732408191
 51
89.99999429143095
  0
LINE
  5
C6D
330
2
100
AcDbEntity
  8
0
  6
Continuous
 62
     7
100
AcDbLine
 10
7.299997533526036
 20
3481.00001552553
 30
0.0
 11
7.299997533104032
 21
3468.40921856213
 31
0.0
  0
LINE
  5
C6E
330
2
100
AcDbEntity
  8
0
  6
Continuous
 62
     7
100
AcDbLine
 10
6.999997532702763
 20
3456.30001552554
 30
0.0
 11
6.999997533102941
 21
3468.411397689262
 31
0.0
  0
LINE
  5
C6F
330
2
100
AcDbEntity
  8
0
  6
Continuous
 62
     7
100
AcDbLine
 10
7.299997533104032
 20
3468.40921856213
 30
0.0
 11
7.299997532692941
 21
3456.00001552553
 31
0.0
  0
LINE
  5
C70
330
2
100
AcDbEntity
  8
0
  6
Continuous
 62
     7
100
AcDbLine
 10
6.999997533102941
 20
3468.411397689262
 30
0.0
 11
6.999997533515852
 21
3480.700015525538
 31
0.0
  0
LINE
  5
C71
330
2
100
AcDbEntity
  8
0
  6
Continuous
 62
     7
100
AcDbLine
 10
12.99999753352494
 20
3481.000015525339
 30
0.0
 11
12.99999753310294
 21
3468.409218561939
 31
0.0
  0
LINE
  5
C72
330
2
100
AcDbEntity
  8
0
  6
Continuous
 62
     7
100
AcDbLine
 10
12.99999753310294
 20
3468.409218561939
 30
0.0
 11
12.99999753269367
 21
3456.000015525336
 31
0.0
  0
LINE
  5
C73
330
2
100
AcDbEntity
  8
0
  6
Continuous
 62
     4
100
AcDbLine
 10
799.9999974677739
 20
1518.500015588469
 30
0.0
 11
799.9999975347837
 21
3518.500015588468
 31
0.0
  0
LINE
  5
C74
330
2
100
AcDbEntity
  8
0
  6
Continuous
 62
     4
100
AcDbLine
 10
13.99999746777394
 20
1518.500015614803
 30
0.0
 11
13.99999753478369
 21
3518.500015614801
 31
0.0
  0
ARC
  5
C75
330
2
100
AcDbEntity
  8
0
  6
Continuous
 62
     4
100
AcDbCircle
 10
758.9999975297542
 20
3368.500015589841
 30
0.0
 40
14.99999999999968
100
AcDbArc
 50
269.9672675342293
 51
89.999999998124
  0
ARC
  5
C76
330
2
100
AcDbEntity
  8
0
  6
Continuous
 62
     4
100
AcDbCircle
 10
758.9999975297542
 20
3368.500015589841
 30
0.0
 40
15.00000000000051
100
AcDbArc
 50
89.999999998124
 51
269.9672675342293
  0
ARC
  5
C77
330
2
100
AcDbEntity
  8
0
  6
Continuous
 62
     4
100
AcDbCircle
 10
758.9999974728033
 20
1668.500015589844
 30
0.0
 40
14.99999999999968
100
AcDbArc
 50
269.9672675215144
 51
89.999999998124
  0
ARC
  5
C78
330
2
100
AcDbEntity
  8
0
  6
Continuous
 62
     4
100
AcDbCircle
 10
758.9999974728033
 20
1668.500015589844
 30
0.0
 40
15.00000000000019
100
AcDbArc
 50
89.999999998124
 51
269.9672675215144
  0
ARC
  5
C79
330
2
100
AcDbEntity
  8
0
  6
Continuous
 62
     4
100
AcDbCircle
 10
54.99999747280345
 20
1668.500015613429
 30
0.0
 40
15.00000000000012
100
AcDbArc
 50
74.53398949434014
 51
269.999999998124
  0
ARC
  5
C7A
330
2
100
AcDbEntity
  8
0
  6
Continuous
 62
     4
100
AcDbCircle
 10
54.99999747280345
 20
1668.500015613429
 30
0.0
 40
15.00000000000017
100
AcDbArc
 50
63.76588436474309
 51
74.53398949434014
  0
ARC
  5
C7B
330
2
100
AcDbEntity
  8
0
  6
Continuous
 62
     4
100
AcDbCircle
 10
54.99999747280345
 20
1668.500015613429
 30
0.0
 40
15.00000000000082
100
AcDbArc
 50
299.9999994483406
 51
63.76588436474309
  0
ARC
  5
C7C
330
2
100
AcDbEntity
  8
0
  6
Continuous
 62
     4
100
AcDbCircle
 10
54.99999747280345
 20
1668.500015613429
 30
0.0
 40
15.00000000000006
100
AcDbArc
 50
285.4660094018068
 51
299.9999994483406
  0
ARC
  5
C7D
330
2
100
AcDbEntity
  8
0
  6
Continuous
 62
     4
100
AcDbCircle
 10
54.99999747280345
 20
1668.500015613429
 30
0.0
 40
14.99999999999993
100
AcDbArc
 50
269.999999998124
 51
285.4660094018068
  0
ARC
  5
C7E
330
2
100
AcDbEntity
  8
0
  6
Continuous
 62
     4
100
AcDbCircle
 10
54.99999752975418
 20
3368.50001561343
 30
0.0
 40
14.99999999999968
100
AcDbArc
 50
74.53399002615748
 51
269.999999998124
  0
ARC
  5
C7F
330
2
100
AcDbEntity
  8
0
  6
Continuous
 62
     4
100
AcDbCircle
 10
54.99999752975418
 20
3368.50001561343
 30
0.0
 40
14.99999999999992
100
AcDbArc
 50
63.7658845792344
 51
74.53399002615748
  0
ARC
  5
C80
330
2
100
AcDbEntity
  8
0
  6
Continuous
 62
     4
100
AcDbCircle
 10
54.99999752975418
 20
3368.50001561343
 30
0.0
 40
15.0000000000007
100
AcDbArc
 50
300.0000000022984
 51
63.7658845792344
  0
ARC
  5
C81
330
2
100
AcDbEntity
  8
0
  6
Continuous
 62
     4
100
AcDbCircle
 10
54.99999752975418
 20
3368.50001561343
 30
0.0
 40
15.00000000000058
100
AcDbArc
 50
285.4660099407575
 51
300.0000000022984
  0
ARC
  5
C82
330
2
100
AcDbEntity
  8
0
  6
Continuous
 62
     4
100
AcDbCircle
 10
54.99999752975418
 20
3368.50001561343
 30
0.0
 40
15.00000000000023
100
AcDbArc
 50
269.999999998124
 51
285.4660099407575
  0
LINE
  5
C83
330
2
100
AcDbEntity
  8
0
  6
Continuous
 62
     4
100
AcDbLine
 10
13.99999753478369
 20
3518.500015614801
 30
0.0
 11
799.9999975347837
 21
3518.500015588468
 31
0.0
  0
ARC
  5
C84
330
2
100
AcDbEntity
  8
0
  6
Continuous
 62
     4
100
AcDbCircle
 10
54.99999752944312
 20
3368.50001561343
 30
0.0
 40
9.999999999999085
100
AcDbArc
 50
112.4111320095121
 51
247.5888679539663
  0
ARC
  5
C85
330
2
100
AcDbEntity
  8
0
  6
Continuous
 62
     4
100
AcDbCircle
 10
54.9999974724924
 20
1668.500015613429
 30
0.0
 40
10.00000000000101
100
AcDbArc
 50
112.4111314811191
 51
247.5888674076563
  0
LINE
  5
C86
330
2
100
AcDbEntity
  8
0
  6
Continuous
 62
     9
100
AcDbLine
 10
11.9999974644852
 20
1537.500015537969
 30
0.0
 11
13.9999974644852
 21
1537.500015538096
 31
0.0
  0
LINE
  5
C87
330
2
100
AcDbEntity
  8
0
  6
Continuous
 62
     7
100
AcDbLine
 10
11.9999974644852
 20
1538.50001553797
 30
0.0
 11
13.9999974644852
 21
1538.500015538096
 31
0.0
  0
LINE
  5
C88
330
2
100
AcDbEntity
  8
0
  6
Continuous
 62
     9
100
AcDbLine
 10
11.99999746557478
 20
1520.500015537969
 30
0.0
 11
13.99999746557478
 21
1520.500015538097
 31
0.0
  0
LINE
  5
C89
330
2
100
AcDbEntity
  8
0
  6
Continuous
 62
     7
100
AcDbLine
 10
11.99999746569301
 20
1519.500015537969
 30
0.0
 11
13.99999746570393
 21
1519.500015538097
 31
0.0
  0
LINE
  5
C8A
330
2
100
AcDbEntity
  8
0
  6
Continuous
 62
     7
100
AcDbLine
 10
11.99999746564208
 20
1518.500015537978
 30
0.0
 11
11.99999746436515
 21
1538.500015537978
 31
0.0
  0
LINE
  5
C8B
330
2
100
AcDbEntity
  8
0
  6
Continuous
 62
     7
100
AcDbLine
 10
8.499997465642081
 20
1518.500015537754
 30
0.0
 11
8.499997464365151
 21
1538.500015537754
 31
0.0
  0
LINE
  5
C8C
330
2
100
AcDbEntity
  8
0
  6
Continuous
 62
     7
100
AcDbLine
 10
11.99999746436515
 20
1538.500015537978
 30
0.0
 11
8.499997464365151
 21
1538.500015537754
 31
0.0
  0
LINE
  5
C8D
330
2
100
AcDbEntity
  8
0
  6
Continuous
 62
     7
100
AcDbLine
 10
799.9999976661328
 20
1468.500015588469
 30
0.0
 11
-0.0000023338670871
 21
1468.500015537209
 31
0.0
  0
LINE
  5
C8E
330
2
100
AcDbEntity
  8
0
  6
Continuous
 62
     7
100
AcDbLine
 10
-0.0000023338670871
 20
1468.500015537209
 30
0.0
 11
-0.0000023370648705
 21
1518.50001553721
 31
0.0
  0
LINE
  5
C8F
330
2
100
AcDbEntity
  8
0
  6
Continuous
 62
     7
100
AcDbLine
 10
799.9999976629351
 20
1518.500015588469
 30
0.0
 11
-0.0000023370648705
 21
1518.50001553721
 31
0.0
  0
LINE
  5
C90
330
2
100
AcDbEntity
  8
0
  6
Continuous
 62
     7
100
AcDbLine
 10
799.9999976661328
 20
1468.500015588469
 30
0.0
 11
799.9999976629351
 21
1518.500015588469
 31
0.0
  0
LINE
  5
C91
330
2
100
AcDbEntity
  8
0
  6
Continuous
 62
     7
100
AcDbLine
 10
12.99999753270276
 20
3456.500015525339
 30
0.0
 11
13.99999753270276
 21
3456.500015525306
 31
0.0
  0
LINE
  5
C92
330
2
100
AcDbEntity
  8
0
  6
Continuous
 62
     7
100
AcDbLine
 10
13.99999753351585
 20
3480.500015525306
 30
0.0
 11
12.99999753351585
 21
3480.500015525338
 31
0.0
  0
LINE
  5
C93
330
2
100
AcDbEntity
  8
0
  6
Continuous
 62
     7
100
AcDbLine
 10
7.299997533526036
 20
3481.00001552553
 30
0.0
 11
6.999997533515852
 21
3480.700015525538
 31
0.0
  0
LINE
  5
C94
330
2
100
AcDbEntity
  8
0
  6
Continuous
 62
     7
100
AcDbLine
 10
6.999997532702763
 20
3456.30001552554
 30
0.0
 11
7.299997532692941
 21
3456.00001552553
 31
0.0
  0
LINE
  5
C95
330
2
100
AcDbEntity
  8
0
  6
Continuous
 62
     7
100
AcDbLine
 10
12.99999753352494
 20
3481.000015525339
 30
0.0
 11
7.299997533526036
 21
3481.00001552553
 31
0.0
  0
LINE
  5
C96
330
2
100
AcDbEntity
  8
0
  6
Continuous
 62
     7
100
AcDbLine
 10
7.299997532692941
 20
3456.00001552553
 30
0.0
 11
12.99999753269367
 21
3456.000015525336
 31
0.0
  0
ARC
  5
C97
330
2
100
AcDbEntity
  8
0
  6
Continuous
 62
     7
100
AcDbCircle
 10
2246.466890673914
 20
35.40001544524034
 30
0.0
 40
2.499999999999944
100
AcDbArc
 50
267.272626667887
 51
270.0
  0
ARC
  5
C98
330
2
100
AcDbEntity
  8
0
  6
Continuous
 62
     7
100
AcDbCircle
 10
2258.466890673914
 20
35.40001544524034
 30
0.0
 40
2.499999999999944
100
AcDbArc
 50
267.272626667887
 51
270.0
  0
ARC
  5
C99
330
2
100
AcDbEntity
  8
0
  6
Continuous
 62
     9
100
AcDbCircle
 10
2298.499997665764
 20
784.0000154384027
 30
0.0
 40
2.499999999999944
100
AcDbArc
 50
90.0000000072954
 51
0.0000000072433189
  0
LINE
  5
C9A
330
2
100
AcDbEntity
  8
0
  6
Continuous
 62
     9
100
AcDbLine
 10
2243.466890673164
 20
35.40001544524921
 30
0.0
 11
2243.470542808575
 21
35.54800015521641
 31
0.0
  0
ARC
  5
C9B
330
2
100
AcDbEntity
  8
0
  6
Continuous
 62
     9
100
AcDbCircle
 10
2246.466861743054
 20
35.39998790868026
 30
0.0
 40
2.999972463583533
100
AcDbArc
 50
270.0005525294328
 51
177.1720002482586
  0
LINE
  5
C9C
330
2
100
AcDbEntity
  8
0
  6
Continuous
 62
     9
100
AcDbLine
 10
2255.466890673164
 20
35.40001544524921
 30
0.0
 11
2255.470542808575
 21
35.548000155213
 31
0.0
  0
ARC
  5
C9D
330
2
100
AcDbEntity
  8
0
  6
Continuous
 62
     9
100
AcDbCircle
 10
2258.466861743054
 20
35.39998790868026
 30
0.0
 40
2.999972463583424
100
AcDbArc
 50
270.0005525294328
 51
177.1720002482977
  0
LINE
  5
C9E
330
2
100
AcDbEntity
  8
0
  6
Continuous
 62
     7
100
AcDbLine
 10
1162.299997663504
 20
27.40001544456732
 30
0.0
 11
1162.299997665574
 21
43.40001544456732
 31
0.0
  0
LINE
  5
C9F
330
2
100
AcDbEntity
  8
0
  6
Continuous
 62
     7
100
AcDbLine
 10
1162.299997664033
 20
27.40001544456732
 30
0.0
 11
1162.299997665051
 21
43.40001544456732
 31
0.0
  0
LINE
  5
CA0
330
2
100
AcDbEntity
  8
0
  6
Continuous
 62
     7
100
AcDbLine
 10
1162.099997664034
 20
27.40001544458028
 30
0.0
 11
1162.099997665051
 21
43.40001544458027
 31
0.0
  0
LINE
  5
CA1
330
2
100
AcDbEntity
  8
0
  6
Continuous
 62
     7
100
AcDbLine
 10
1162.499997664554
 20
28.4000154445771
 30
0.0
 11
1162.499997664554
 21
42.40001544458232
 31
0.0
  0
LINE
  5
CA2
330
2
100
AcDbEntity
  8
0
  6
Continuous
 62
     7
100
AcDbLine
 10
1162.499997665345
 20
47.39998525863414
 30
0.0
 11
1162.499997663734
 21
23.40001544415009
 31
0.0
  0
LINE
  5
CA3
330
2
100
AcDbEntity
  8
0
  6
Continuous
 62
     7
100
AcDbLine
 10
1157.099997664543
 20
47.89998400133436
 30
0.0
 11
1157.099997664543
 21
22.90001544458029
 31
0.0
  0
LINE
  5
CA4
330
2
100
AcDbEntity
  8
0
  6
Continuous
 62
     7
100
AcDbLine
 10
1162.099997664534
 20
47.89998400133436
 30
0.0
 11
1162.099997664534
 21
22.90001544458029
 31
0.0
  0
LINE
  5
CA5
330
2
100
AcDbEntity
  8
0
  6
Continuous
 62
     7
100
AcDbLine
 10
1156.099997664534
 20
23.90001544457938
 30
0.0
 11
1156.099997664534
 21
46.8999865167941
 31
0.0
  0
LINE
  5
CA6
330
2
100
AcDbEntity
  8
0
  6
Continuous
 62
     7
100
AcDbLine
 10
1173.499997665603
 20
47.09758745360727
 30
0.0
 11
1173.499997664043
 21
23.40001544342317
 31
0.0
  0
LINE
  5
CA7
330
2
100
AcDbEntity
  8
0
  6
Continuous
 62
     7
100
AcDbLine
 10
1174.499997665625
 20
47.39998525784129
 30
0.0
 11
1174.499997665583
 21
46.78915775636641
 31
0.0
  0
LINE
  5
CA8
330
2
100
AcDbEntity
  8
0
  6
Continuous
 62
     7
100
AcDbLine
 10
1174.499997665552
 20
46.33782595869728
 30
0.0
 11
1174.499997664043
 21
23.40001544335724
 31
0.0
  0
LINE
  5
CA9
330
2
100
AcDbEntity
  8
0
  6
Continuous
 62
     9
100
AcDbLine
 10
1174.999997666484
 20
47.90001544329107
 30
0.0
 11
1174.999997666302
 21
46.53788432100419
 31
0.0
  0
LINE
  5
CAA
330
2
100
AcDbEntity
  8
0
  6
Continuous
 62
     9
100
AcDbLine
 10
1174.999997666244
 20
46.11499226776527
 30
0.0
 11
1174.999997663184
 21
22.90001544329107
 31
0.0
  0
LINE
  5
CAB
330
2
100
AcDbEntity
  8
0
  6
Continuous
 62
     7
100
AcDbLine
 10
1174.499997666416
 20
47.40001544335722
 30
0.0
 11
1174.499997666333
 21
46.78915775590531
 31
0.0
  0
LINE
  5
CAC
330
2
100
AcDbEntity
  8
0
  6
Continuous
 62
     7
100
AcDbLine
 10
1174.499997666275
 20
46.33782595830918
 30
0.0
 11
1174.499997663251
 21
23.40001544335724
 31
0.0
  0
LINE
  5
CAD
330
2
100
AcDbEntity
  8
0
  6
Continuous
 62
     7
100
AcDbLine
 10
1177.999997666484
 20
47.9000154428961
 30
0.0
 11
1177.999997666324
 21
46.70866359623642
 31
0.0
  0
LINE
  5
CAE
330
2
100
AcDbEntity
  8
0
  6
Continuous
 62
     7
100
AcDbLine
 10
1177.999997666265
 20
46.24433078716832
 30
0.0
 11
1177.999997663184
 21
22.90001544289612
 31
0.0
  0
LINE
  5
CAF
330
2
100
AcDbEntity
  8
0
  6
Continuous
 62
     7
100
AcDbLine
 10
1179.499997666284
 20
46.40001544269806
 30
0.0
 11
1179.499997663384
 21
24.40001544269717
 31
0.0
  0
LINE
  5
CB0
330
2
100
AcDbEntity
  8
0
  6
Continuous
 62
     7
100
AcDbLine
 10
2337.699997713174
 20
43.40000603120734
 30
0.0
 11
2337.699997711105
 21
27.40001544459233
 31
0.0
  0
LINE
  5
CB1
330
2
100
AcDbEntity
  8
0
  6
Continuous
 62
     7
100
AcDbLine
 10
2337.699997712654
 20
43.40000603120734
 30
0.0
 11
2337.699997711625
 21
27.40001544459233
 31
0.0
  0
LINE
  5
CB2
330
2
100
AcDbEntity
  8
0
  6
Continuous
 62
     7
100
AcDbLine
 10
2337.899997712644
 20
43.40000603119415
 30
0.0
 11
2337.899997711624
 21
27.40001544458028
 31
0.0
  0
LINE
  5
CB3
330
2
100
AcDbEntity
  8
0
  6
Continuous
 62
     7
100
AcDbLine
 10
2337.499997712134
 20
42.40001544458141
 30
0.0
 11
2337.499997712134
 21
28.40001544457846
 31
0.0
  0
LINE
  5
CB4
330
2
100
AcDbEntity
  8
0
  6
Continuous
 62
     7
100
AcDbLine
 10
2337.499997711333
 20
23.40001544501024
 30
0.0
 11
2337.499997712944
 21
47.40001544500932
 31
0.0
  0
LINE
  5
CB5
330
2
100
AcDbEntity
  8
0
  6
Continuous
 62
     7
100
AcDbLine
 10
2342.899997712144
 20
22.90001544458029
 30
0.0
 11
2342.899997712144
 21
47.90001544457846
 31
0.0
  0
LINE
  5
CB6
330
2
100
AcDbEntity
  8
0
  6
Continuous
 62
     7
100
AcDbLine
 10
2337.899997712135
 20
22.90001544458029
 30
0.0
 11
2337.899997712135
 21
47.90001544457846
 31
0.0
  0
LINE
  5
CB7
330
2
100
AcDbEntity
  8
0
  6
Continuous
 62
     7
100
AcDbLine
 10
2343.899997712135
 20
46.90001544457936
 30
0.0
 11
2343.899997712135
 21
23.90001544458028
 31
0.0
  0
LINE
  5
CB8
330
2
100
AcDbEntity
  8
0
  6
Continuous
 62
     7
100
AcDbLine
 10
2325.499997711055
 20
23.40001544580332
 30
0.0
 11
2325.499997712635
 21
47.40001544580128
 31
0.0
  0
LINE
  5
CB9
330
2
100
AcDbEntity
  8
0
  6
Continuous
 62
     7
100
AcDbLine
 10
2326.499997711055
 20
23.40001544573738
 30
0.0
 11
2326.499997712636
 21
47.40001544573533
 31
0.0
  0
LINE
  5
CBA
330
2
100
AcDbEntity
  8
0
  6
Continuous
 62
     7
100
AcDbLine
 10
2321.999997710193
 20
22.90001544626534
 30
0.0
 11
2321.999997713494
 21
47.90000073785131
 31
0.0
  0
LINE
  5
CBB
330
2
100
AcDbEntity
  8
0
  6
Continuous
 62
     7
100
AcDbLine
 10
2320.499997710393
 20
24.40001544646225
 30
0.0
 11
2320.499997713294
 21
46.4000025030582
 31
0.0
  0
LINE
  5
CBC
330
2
100
AcDbEntity
  8
0
  6
Continuous
 62
     9
100
AcDbLine
 10
2324.999997710206
 20
22.90001544586926
 30
0.0
 11
2324.999997713494
 21
47.90000073745522
 31
0.0
  0
LINE
  5
CBD
330
2
100
AcDbEntity
  8
0
  6
Continuous
 62
     7
100
AcDbLine
 10
2325.499997710263
 20
23.40001544580332
 30
0.0
 11
2325.499997713432
 21
47.40000132572617
 31
0.0
  0
LINE
  5
CBE
330
2
100
AcDbEntity
  8
0
  6
Continuous
 62
     7
100
AcDbLine
 10
2324.999997712204
 20
48.50001538516131
 30
0.0
 11
2324.999997712234
 21
48.94987814030311
 31
0.0
  0
LINE
  5
CBF
330
2
100
AcDbEntity
  8
0
  6
Continuous
 62
     7
100
AcDbLine
 10
2324.999997712234
 20
48.94987814030311
 30
0.0
 11
2324.999997712493
 21
53.00001544382918
 31
0.0
  0
LINE
  5
CC0
330
2
100
AcDbEntity
  8
0
  6
Continuous
 62
     7
100
AcDbLine
 10
2324.999997713756
 20
73.00001544382917
 30
0.0
 11
2324.999997714043
 21
77.50001538516129
 31
0.0
  0
LINE
  5
CC1
330
2
100
AcDbEntity
  8
0
  6
Continuous
 62
     9
100
AcDbLine
 10
2325.499997710613
 20
48.00001544288647
 30
0.0
 11
2325.499997709683
 21
63.00001544434826
 31
0.0
  0
LINE
  5
CC2
330
2
100
AcDbEntity
  8
0
  6
Continuous
 62
     7
100
AcDbLine
 10
2324.999997710584
 20
48.50001544285443
 30
0.0
 11
2324.999997709683
 21
63.00001544426823
 31
0.0
  0
LINE
  5
CC3
330
2
100
AcDbEntity
  8
0
  6
Continuous
 62
     7
100
AcDbLine
 10
2324.999997709683
 20
63.00001544426823
 30
0.0
 11
2324.999997708784
 21
77.50001544285442
 31
0.0
  0
LINE
  5
CC4
330
2
100
AcDbEntity
  8
0
  6
Continuous
 62
     9
100
AcDbLine
 10
2325.499997709683
 20
63.00001544434826
 30
0.0
 11
2325.499997708743
 21
78.00001544288647
 31
0.0
  0
LINE
  5
CC5
330
2
100
AcDbEntity
  8
0
  6
Continuous
 62
     7
100
AcDbLine
 10
2327.999997710612
 20
48.00001544304109
 30
0.0
 11
2327.999997709683
 21
63.00001544450424
 31
0.0
  0
LINE
  5
CC6
330
2
100
AcDbEntity
  8
0
  6
Continuous
 62
     7
100
AcDbLine
 10
2327.999997709683
 20
63.00001544450424
 30
0.0
 11
2327.999997708756
 21
78.00001544304109
 31
0.0
  0
LINE
  5
CC7
330
2
100
AcDbEntity
  8
0
  6
Continuous
 62
     9
100
AcDbLine
 10
2282.494940124094
 20
25.00001543752115
 30
0.0
 11
2287.499997714935
 21
25.00001543814915
 31
0.0
  0
LINE
  5
CC8
330
2
100
AcDbEntity
  8
0
  6
Continuous
 62
     9
100
AcDbLine
 10
2287.499997714935
 20
25.00001543814915
 30
0.0
 11
2302.499997714452
 21
25.00001544003112
 31
0.0
  0
LINE
  5
CC9
330
2
100
AcDbEntity
  8
0
  6
Continuous
 62
     7
100
AcDbLine
 10
2287.999997664583
 20
22.50001543821236
 30
0.0
 11
2302.499997714764
 21
22.50001544003112
 31
0.0
  0
LINE
  5
CCA
330
2
100
AcDbEntity
  8
0
  6
Continuous
 62
     7
100
AcDbLine
 10
2324.999997711255
 20
53.00001544382918
 30
0.0
 11
2297.499997711255
 21
53.00001544037923
 31
0.0
  0
LINE
  5
CCB
330
2
100
AcDbEntity
  8
0
  6
Continuous
 62
     7
100
AcDbLine
 10
2297.499997711255
 20
53.00001544037923
 30
0.0
 11
2297.499997712215
 21
45.40001544457935
 31
0.0
  0
LINE
  5
CCC
330
2
100
AcDbEntity
  8
0
  6
Continuous
 62
     7
100
AcDbLine
 10
2277.499997711075
 20
54.50001543786925
 30
0.0
 11
2296.003004723414
 21
73.00001544019117
 31
0.0
  0
LINE
  5
CCD
330
2
100
AcDbEntity
  8
0
  6
Continuous
 62
     7
100
AcDbLine
 10
2296.003004723414
 20
73.00001544019117
 30
0.0
 11
2324.999997708756
 21
73.00001544382917
 31
0.0
  0
LINE
  5
CCE
330
2
100
AcDbEntity
  8
0
  6
Continuous
 62
     7
100
AcDbLine
 10
2277.499997712215
 20
45.40001544457935
 30
0.0
 11
2277.499997711075
 21
54.50001543786925
 31
0.0
  0
LINE
  5
CCF
330
2
100
AcDbEntity
  8
0
  6
Continuous
 62
     7
100
AcDbLine
 10
1174.999997667182
 20
773.5000154463691
 30
0.0
 11
1174.999997667233
 21
744.5000154463691
 31
0.0
  0
LINE
  5
CD0
330
2
100
AcDbEntity
  8
0
  6
Continuous
 62
     9
100
AcDbLine
 10
1174.499997667182
 20
774.0000154463672
 30
0.0
 11
1174.499997667233
 21
744.0000154463682
 31
0.0
  0
LINE
  5
CD1
330
2
100
AcDbEntity
  8
0
  6
Continuous
 62
     7
100
AcDbLine
 10
1171.999997667182
 20
774.0000154463642
 30
0.0
 11
1171.999997667233
 21
744.0000154463632
 31
0.0
  0
LINE
  5
CD2
330
2
100
AcDbEntity
  8
0
  6
Continuous
 62
     7
100
AcDbLine
 10
1174.999997666553
 20
769.0000154463581
 30
0.0
 11
1191.499997666553
 21
769.0000154463842
 31
0.0
  0
LINE
  5
CD3
330
2
100
AcDbEntity
  8
0
  6
Continuous
 62
     7
100
AcDbLine
 10
1191.499997666553
 20
769.0000154463842
 30
0.0
 11
1191.499997666524
 21
790.0000154463842
 31
0.0
  0
LINE
  5
CD4
330
2
100
AcDbEntity
  8
0
  6
Continuous
 62
     7
100
AcDbLine
 10
1211.499997666566
 20
767.5000154464149
 30
0.0
 11
1192.999997666595
 21
749.0000154463857
 31
0.0
  0
LINE
  5
CD5
330
2
100
AcDbEntity
  8
0
  6
Continuous
 62
     7
100
AcDbLine
 10
1192.999997666595
 20
749.0000154463857
 30
0.0
 11
1174.999997666595
 21
749.0000154463581
 31
0.0
  0
LINE
  5
CD6
330
2
100
AcDbEntity
  8
0
  6
Continuous
 62
     7
100
AcDbLine
 10
1211.499997666524
 20
790.0000154464151
 30
0.0
 11
1211.499997666566
 21
767.5000154464149
 31
0.0
  0
LINE
  5
CD7
330
2
100
AcDbEntity
  8
0
  6
Continuous
 62
     7
100
AcDbLine
 10
1181.499997665516
 20
800.0000154463581
 30
0.0
 11
1181.499997665903
 21
790.0000154463591
 31
0.0
  0
LINE
  5
CD8
330
2
100
AcDbEntity
  8
0
  6
Continuous
 62
     7
100
AcDbLine
 10
1221.499997665503
 20
800.0000154479151
 30
0.0
 11
1181.499997665516
 21
800.0000154463581
 31
0.0
  0
LINE
  5
CD9
330
2
100
AcDbEntity
  8
0
  6
Continuous
 62
     7
100
AcDbLine
 10
1221.499997665904
 20
790.0000154479152
 30
0.0
 11
1181.499997665903
 21
790.0000154463591
 31
0.0
  0
LINE
  5
CDA
330
2
100
AcDbEntity
  8
0
  6
Continuous
 62
     7
100
AcDbLine
 10
1221.499997665503
 20
800.0000154479151
 30
0.0
 11
1221.499997665904
 21
790.0000154479152
 31
0.0
  0
LINE
  5
CDB
330
2
100
AcDbEntity
  8
0
  6
Continuous
 62
     7
100
AcDbLine
 10
2324.999997664634
 20
744.5000153832461
 30
0.0
 11
2324.999997664405
 21
749.0000154417471
 31
0.0
  0
LINE
  5
CDC
330
2
100
AcDbEntity
  8
0
  6
Continuous
 62
     7
100
AcDbLine
 10
2324.999997663394
 20
769.0000154417471
 30
0.0
 11
2324.999997663164
 21
773.5000153832461
 31
0.0
  0
LINE
  5
CDD
330
2
100
AcDbEntity
  8
0
  6
Continuous
 62
     9
100
AcDbLine
 10
2325.499997670173
 20
744.0000154419744
 30
0.0
 11
2325.499997666384
 21
774.0000154419743
 31
0.0
  0
LINE
  5
CDE
330
2
100
AcDbEntity
  8
0
  6
Continuous
 62
     7
100
AcDbLine
 10
2324.999997670106
 20
744.5000154419112
 30
0.0
 11
2324.999997666444
 21
773.5000154419112
 31
0.0
  0
LINE
  5
CDF
330
2
100
AcDbEntity
  8
0
  6
Continuous
 62
     7
100
AcDbLine
 10
2327.999997670173
 20
744.00001544229
 30
0.0
 11
2327.999997666384
 21
774.0000154422902
 31
0.0
  0
CIRCLE
  5
CE0
330
2
100
AcDbEntity
  8
0
  6
Continuous
 62
     7
100
AcDbCircle
 10
2298.499997665704
 20
784.0000154321614
 30
0.0
 40
1.700000000003141
  0
LINE
  5
CE1
330
2
100
AcDbEntity
  8
0
  6
Continuous
 62
     7
100
AcDbLine
 10
2297.778309829344
 20
782.7500154320873
 30
0.0
 11
2297.056621992735
 21
784.0000154320132
 31
0.0
  0
LINE
  5
CE2
330
2
100
AcDbEntity
  8
0
  6
Continuous
 62
     7
100
AcDbLine
 10
2299.221685502326
 20
782.7500154322351
 30
0.0
 11
2297.778309829344
 21
782.7500154320873
 31
0.0
  0
LINE
  5
CE3
330
2
100
AcDbEntity
  8
0
  6
Continuous
 62
     7
100
AcDbLine
 10
2299.943373338685
 20
784.0000154323092
 30
0.0
 11
2299.221685502326
 21
782.7500154322351
 31
0.0
  0
LINE
  5
CE4
330
2
100
AcDbEntity
  8
0
  6
Continuous
 62
     7
100
AcDbLine
 10
2299.221685502063
 20
785.2500154322351
 30
0.0
 11
2299.943373338685
 21
784.0000154323092
 31
0.0
  0
LINE
  5
CE5
330
2
100
AcDbEntity
  8
0
  6
Continuous
 62
     7
100
AcDbLine
 10
2297.778309829095
 20
785.2500154320872
 30
0.0
 11
2299.221685502063
 21
785.2500154322351
 31
0.0
  0
LINE
  5
CE6
330
2
100
AcDbEntity
  8
0
  6
Continuous
 62
     7
100
AcDbLine
 10
2297.056621992735
 20
784.0000154320132
 30
0.0
 11
2297.778309829095
 21
785.2500154320872
 31
0.0
  0
LINE
  5
CE7
330
2
100
AcDbEntity
  8
0
  6
Continuous
 62
     7
100
AcDbLine
 10
2288.499997667853
 20
767.5000154371405
 30
0.0
 11
2306.999997670184
 21
749.0000154394753
 31
0.0
  0
LINE
  5
CE8
330
2
100
AcDbEntity
  8
0
  6
Continuous
 62
     7
100
AcDbLine
 10
2308.499997667665
 20
769.0000154396653
 30
0.0
 11
2308.499997665014
 21
790.0000154396653
 31
0.0
  0
LINE
  5
CE9
330
2
100
AcDbEntity
  8
0
  6
Continuous
 62
     7
100
AcDbLine
 10
2324.999997667664
 20
769.0000154417471
 30
0.0
 11
2308.499997667665
 21
769.0000154396653
 31
0.0
  0
LINE
  5
CEA
330
2
100
AcDbEntity
  8
0
  6
Continuous
 62
     7
100
AcDbLine
 10
2306.999997670184
 20
749.0000154394753
 30
0.0
 11
2324.999997670184
 21
749.0000154417471
 31
0.0
  0
CIRCLE
  5
CEB
330
2
100
AcDbEntity
  8
0
  6
Continuous
 62
     7
100
AcDbCircle
 10
2298.499997665764
 20
784.0000154384027
 30
0.0
 40
2.100000000002211
  0
LINE
  5
CEC
330
2
100
AcDbEntity
  8
0
  6
Continuous
 62
     7
100
AcDbLine
 10
2288.499997665013
 20
790.0000154371405
 30
0.0
 11
2288.499997667853
 21
767.5000154371405
 31
0.0
  0
LINE
  5
CED
330
2
100
AcDbEntity
  8
0
  6
Continuous
 62
     7
100
AcDbLine
 10
2318.499997664763
 20
800.0000154392692
 30
0.0
 11
2278.499997664763
 21
800.0000154357143
 31
0.0
  0
LINE
  5
CEE
330
2
100
AcDbEntity
  8
0
  6
Continuous
 62
     7
100
AcDbLine
 10
2318.499997664763
 20
800.0000154392692
 30
0.0
 11
2318.499997665655
 21
790.000015439269
 31
0.0
  0
LINE
  5
CEF
330
2
100
AcDbEntity
  8
0
  6
Continuous
 62
     7
100
AcDbLine
 10
2318.499997665655
 20
790.000015439269
 30
0.0
 11
2278.499997665655
 21
790.0000154357144
 31
0.0
  0
LINE
  5
CF0
330
2
100
AcDbEntity
  8
0
  6
Continuous
 62
     7
100
AcDbLine
 10
2278.499997664763
 20
800.0000154357143
 30
0.0
 11
2278.499997665655
 21
790.0000154357144
 31
0.0
  0
CIRCLE
  5
CF1
330
2
100
AcDbEntity
  8
0
  6
Continuous
 62
     7
100
AcDbCircle
 10
2246.466890673934
 20
35.40001544524921
 30
0.0
 40
2.000000000002444
  0
LINE
  5
CF2
330
2
100
AcDbEntity
  8
0
  6
Continuous
 62
     7
100
AcDbLine
 10
2245.600865270144
 20
33.90001544524921
 30
0.0
 11
2244.734839866364
 21
35.40001544524921
 31
0.0
  0
LINE
  5
CF3
330
2
100
AcDbEntity
  8
0
  6
Continuous
 62
     7
100
AcDbLine
 10
2247.332916077712
 20
33.90001544524921
 30
0.0
 11
2245.600865270144
 21
33.90001544524921
 31
0.0
  0
LINE
  5
CF4
330
2
100
AcDbEntity
  8
0
  6
Continuous
 62
     7
100
AcDbLine
 10
2248.198941481504
 20
35.40001544524921
 30
0.0
 11
2247.332916077712
 21
33.90001544524921
 31
0.0
  0
LINE
  5
CF5
330
2
100
AcDbEntity
  8
0
  6
Continuous
 62
     7
100
AcDbLine
 10
2247.332916077712
 20
36.90001544524921
 30
0.0
 11
2248.198941481504
 21
35.40001544524921
 31
0.0
  0
LINE
  5
CF6
330
2
100
AcDbEntity
  8
0
  6
Continuous
 62
     7
100
AcDbLine
 10
2245.600865270144
 20
36.90001544524921
 30
0.0
 11
2247.332916077712
 21
36.90001544524921
 31
0.0
  0
LINE
  5
CF7
330
2
100
AcDbEntity
  8
0
  6
Continuous
 62
     7
100
AcDbLine
 10
2244.734839866364
 20
35.40001544524921
 30
0.0
 11
2245.600865270144
 21
36.90001544524921
 31
0.0
  0
CIRCLE
  5
CF8
330
2
100
AcDbEntity
  8
0
  6
Continuous
 62
     7
100
AcDbCircle
 10
2258.466890673934
 20
35.40001544524921
 30
0.0
 40
2.000000000002444
  0
LINE
  5
CF9
330
2
100
AcDbEntity
  8
0
  6
Continuous
 62
     7
100
AcDbLine
 10
2257.600865270144
 20
33.90001544524921
 30
0.0
 11
2256.734839866364
 21
35.40001544524921
 31
0.0
  0
LINE
  5
CFA
330
2
100
AcDbEntity
  8
0
  6
Continuous
 62
     7
100
AcDbLine
 10
2259.332916077712
 20
33.90001544524921
 30
0.0
 11
2257.600865270144
 21
33.90001544524921
 31
0.0
  0
LINE
  5
CFB
330
2
100
AcDbEntity
  8
0
  6
Continuous
 62
     7
100
AcDbLine
 10
2260.198941481503
 20
35.40001544524921
 30
0.0
 11
2259.332916077712
 21
33.90001544524921
 31
0.0
  0
LINE
  5
CFC
330
2
100
AcDbEntity
  8
0
  6
Continuous
 62
     7
100
AcDbLine
 10
2259.332916077712
 20
36.90001544524921
 30
0.0
 11
2260.198941481503
 21
35.40001544524921
 31
0.0
  0
LINE
  5
CFD
330
2
100
AcDbEntity
  8
0
  6
Continuous
 62
     7
100
AcDbLine
 10
2257.600865270144
 20
36.90001544524921
 30
0.0
 11
2259.332916077712
 21
36.90001544524921
 31
0.0
  0
LINE
  5
CFE
330
2
100
AcDbEntity
  8
0
  6
Continuous
 62
     7
100
AcDbLine
 10
2256.734839866364
 20
35.40001544524921
 30
0.0
 11
2257.600865270144
 21
36.90001544524921
 31
0.0
  0
LINE
  5
CFF
330
2
100
AcDbEntity
  8
0
  6
Continuous
 62
     7
100
AcDbLine
 10
2262.466890673164
 20
47.40001544484721
 30
0.0
 11
2242.466890673164
 21
47.40001544484721
 31
0.0
  0
LINE
  5
D00
330
2
100
AcDbEntity
  8
0
  6
Continuous
 62
     7
100
AcDbLine
 10
2262.466890673164
 20
47.40001544484721
 30
0.0
 11
2262.466890673164
 21
23.40001544484721
 31
0.0
  0
LINE
  5
D01
330
2
100
AcDbEntity
  8
0
  6
Continuous
 62
     7
100
AcDbLine
 10
2262.466890673164
 20
23.40001544484721
 30
0.0
 11
2242.466890673164
 21
23.40001544484721
 31
0.0
  0
LINE
  5
D02
330
2
100
AcDbEntity
  8
0
  6
Continuous
 62
     7
100
AcDbLine
 10
2242.466890673164
 20
47.40001544484721
 30
0.0
 11
2242.466890673164
 21
23.40001544484721
 31
0.0
  0
LINE
  5
D03
330
2
100
AcDbEntity
  8
0
  6
Continuous
 62
     7
100
AcDbLine
 10
2258.466890673164
 20
32.90001544524034
 30
0.0
 11
2258.347926853274
 21
32.9028475274672
 31
0.0
  0
ARC
  5
D04
330
2
100
AcDbEntity
  8
0
  6
Continuous
 62
     7
100
AcDbCircle
 10
2258.466891032125
 20
35.40001507206034
 30
0.0
 40
2.49999964432428
100
AcDbArc
 50
0.5022453118637188
 51
267.2725114536468
  0
ARC
  5
D05
330
2
100
AcDbEntity
  8
0
  6
Continuous
 62
     7
100
AcDbCircle
 10
2258.466874781285
 20
35.40003119842822
 30
0.0
 40
2.50001575323984
100
AcDbArc
 50
270.0003642128339
 51
0.5018724745602757
  0
LINE
  5
D06
330
2
100
AcDbEntity
  8
0
  6
Continuous
 62
     7
100
AcDbLine
 10
2246.466890673164
 20
32.90001544524034
 30
0.0
 11
2246.347926853274
 21
32.9028475274672
 31
0.0
  0
ARC
  5
D07
330
2
100
AcDbEntity
  8
0
  6
Continuous
 62
     7
100
AcDbCircle
 10
2246.466891032125
 20
35.40001507206034
 30
0.0
 40
2.49999964432428
100
AcDbArc
 50
0.5022453118637188
 51
267.2725114536468
  0
ARC
  5
D08
330
2
100
AcDbEntity
  8
0
  6
Continuous
 62
     7
100
AcDbCircle
 10
2246.466874781274
 20
35.40003119842822
 30
0.0
 40
2.50001575323984
100
AcDbArc
 50
270.0003642128339
 51
0.5018724745602757
  0
LINE
  5
D09
330
2
100
AcDbEntity
  8
0
  6
Continuous
 62
     7
100
AcDbLine
 10
2262.999997664583
 20
7.300015444580139
 30
0.0
 11
2287.999997664583
 21
7.300015444580139
 31
0.0
  0
LINE
  5
D0A
330
2
100
AcDbEntity
  8
0
  6
Continuous
 62
     7
100
AcDbLine
 10
2287.699997664582
 20
7.000015444580184
 30
0.0
 11
2263.299997664582
 21
7.000015444580184
 31
0.0
  0
LINE
  5
D0B
330
2
100
AcDbEntity
  8
0
  6
Continuous
 62
     7
100
AcDbLine
 10
2262.999997664583
 20
13.00001544458018
 30
0.0
 11
2287.999997664583
 21
13.00001544458018
 31
0.0
  0
LINE
  5
D0C
330
2
100
AcDbEntity
  8
0
  6
Continuous
 62
     7
100
AcDbLine
 10
2262.999997664583
 20
23.50001544457928
 30
0.0
 11
2287.999997664583
 21
23.50001544458132
 31
0.0
  0
LINE
  5
D0D
330
2
100
AcDbEntity
  8
0
  6
Continuous
 62
     7
100
AcDbLine
 10
2268.499997664576
 20
25.00001544458019
 30
0.0
 11
2282.499954063504
 21
25.00001544458019
 31
0.0
  0
LINE
  5
D13
330
2
100
AcDbEntity
  8
0
  6
Continuous
 62
     7
100
AcDbLine
 10
1762.999997664603
 20
7.30001544457923
 30
0.0
 11
1787.999997664603
 21
7.30001544457923
 31
0.0
  0
LINE
  5
D14
330
2
100
AcDbEntity
  8
0
  6
Continuous
 62
     7
100
AcDbLine
 10
1787.699997664602
 20
7.000015444579275
 30
0.0
 11
1763.299997664602
 21
7.000015444579275
 31
0.0
  0
LINE
  5
D15
330
2
100
AcDbEntity
  8
0
  6
Continuous
 62
     7
100
AcDbLine
 10
1762.999997664603
 20
13.00001544457927
 30
0.0
 11
1787.999997664603
 21
13.00001544457927
 31
0.0
  0
LINE
  5
D16
330
2
100
AcDbEntity
  8
0
  6
Continuous
 62
     7
100
AcDbLine
 10
1762.999997664603
 20
23.50001544457632
 30
0.0
 11
1771.923074595424
 21
23.50001544457837
 31
0.0
  0
LINE
  5
D17
330
2
100
AcDbEntity
  8
0
  6
Continuous
 62
     7
100
AcDbLine
 10
1772.499997672703
 20
23.50001544457837
 30
0.0
 11
1787.999997664603
 21
23.50001544458223
 31
0.0
  0
LINE
  5
D18
330
2
100
AcDbEntity
  8
0
  6
Continuous
 62
     7
100
AcDbLine
 10
1768.499997664603
 20
25.00001544457723
 30
0.0
 11
1771.894228442434
 21
25.00001544457837
 31
0.0
  0
LINE
  5
D19
330
2
100
AcDbEntity
  8
0
  6
Continuous
 62
     7
100
AcDbLine
 10
1772.499997673552
 20
25.00001544457837
 30
0.0
 11
1782.499997078743
 21
25.00001544458132
 31
0.0
  0
ARC
  5
D1A
330
2
100
AcDbEntity
  8
0
  6
Continuous
 62
     7
100
AcDbCircle
 10
1781.622643630084
 20
6.630199209911324
 30
0.0
 40
22.57551705398555
100
AcDbArc
 50
115.6356509816387
 51
125.540461856413
  0
LINE
  5
D20
330
2
100
AcDbEntity
  8
0
  6
Continuous
 62
     7
100
AcDbLine
 10
1682.999997665716
 20
47.00001544363021
 30
0.0
 11
1677.499997664814
 21
47.00001544362931
 31
0.0
  0
LINE
  5
D21
330
2
100
AcDbEntity
  8
0
  6
Continuous
 62
     7
100
AcDbLine
 10
1669.499997664814
 20
47.0000154436284
 30
0.0
 11
1663.999997665716
 21
47.00001544362703
 31
0.0
  0
LINE
  5
D22
330
2
100
AcDbEntity
  8
0
  6
Continuous
 62
     7
100
AcDbLine
 10
1663.499997665774
 20
47.00001544299538
 30
0.0
 11
1669.499997664814
 21
47.00001544337625
 31
0.0
  0
LINE
  5
D23
330
2
100
AcDbEntity
  8
0
  6
Continuous
 62
     7
100
AcDbLine
 10
1677.499997664814
 20
47.00001544388213
 30
0.0
 11
1683.499997665774
 21
47.00001544426345
 31
0.0
  0
LINE
  5
D24
330
2
100
AcDbEntity
  8
0
  6
Continuous
 62
     7
100
AcDbLine
 10
1659.499997664814
 20
57.0000154451111
 30
0.0
 11
1659.567691551185
 21
57.0000154451111
 31
0.0
  0
LINE
  5
D25
330
2
100
AcDbEntity
  8
0
  6
Continuous
 62
     7
100
AcDbLine
 10
1659.567691551185
 20
57.0000154451111
 30
0.0
 11
1662.197538679144
 21
57.00001544511247
 31
0.0
  0
LINE
  5
D26
330
2
100
AcDbEntity
  8
0
  6
Continuous
 62
     7
100
AcDbLine
 10
1662.197538679144
 20
57.00001544511247
 30
0.0
 11
1664.409697748174
 21
57.00001544511336
 31
0.0
  0
LINE
  5
D27
330
2
100
AcDbEntity
  8
0
  6
Continuous
 62
     7
100
AcDbLine
 10
1664.409697748174
 20
57.00001544511336
 30
0.0
 11
1665.246871848274
 21
57.00001544511336
 31
0.0
  0
LINE
  5
D28
330
2
100
AcDbEntity
  8
0
  6
Continuous
 62
     7
100
AcDbLine
 10
1665.246871848274
 20
57.00001544511336
 30
0.0
 11
1667.322636516643
 21
57.00001544511336
 31
0.0
  0
LINE
  5
D29
330
2
100
AcDbEntity
  8
0
  6
Continuous
 62
     7
100
AcDbLine
 10
1667.322636516643
 20
57.00001544511336
 30
0.0
 11
1668.263558325565
 21
57.00001544511336
 31
0.0
  0
LINE
  5
D2A
330
2
100
AcDbEntity
  8
0
  6
Continuous
 62
     7
100
AcDbLine
 10
1668.263558325565
 20
57.00001544511336
 30
0.0
 11
1669.622784084065
 21
57.00001544511336
 31
0.0
  0
LINE
  5
D2B
330
2
100
AcDbEntity
  8
0
  6
Continuous
 62
     7
100
AcDbLine
 10
1673.377211245024
 20
57.00001544511429
 30
0.0
 11
1675.364274722215
 21
57.00001544511429
 31
0.0
  0
LINE
  5
D2C
330
2
100
AcDbEntity
  8
0
  6
Continuous
 62
     7
100
AcDbLine
 10
1675.364274722215
 20
57.00001544511429
 30
0.0
 11
1676.586554852525
 21
57.00001544511429
 31
0.0
  0
LINE
  5
D2D
330
2
100
AcDbEntity
  8
0
  6
Continuous
 62
     7
100
AcDbLine
 10
1676.586554852525
 20
57.00001544511429
 30
0.0
 11
1678.035873161103
 21
57.00001544511429
 31
0.0
  0
LINE
  5
D2E
330
2
100
AcDbEntity
  8
0
  6
Continuous
 62
     7
100
AcDbLine
 10
1678.035873161103
 20
57.00001544511429
 30
0.0
 11
1679.370445898574
 21
57.00001544511518
 31
0.0
  0
LINE
  5
D2F
330
2
100
AcDbEntity
  8
0
  6
Continuous
 62
     7
100
AcDbLine
 10
1679.370445898574
 20
57.00001544511518
 30
0.0
 11
1680.802456755251
 21
57.00001544511518
 31
0.0
  0
LINE
  5
D30
330
2
100
AcDbEntity
  8
0
  6
Continuous
 62
     7
100
AcDbLine
 10
1680.802456755251
 20
57.00001544511518
 30
0.0
 11
1682.467293042435
 21
57.00001544511518
 31
0.0
  0
LINE
  5
D31
330
2
100
AcDbEntity
  8
0
  6
Continuous
 62
     7
100
AcDbLine
 10
1682.467293042435
 20
57.00001544511518
 30
0.0
 11
1683.499997664814
 21
57.00001544511518
 31
0.0
  0
LINE
  5
D32
330
2
100
AcDbEntity
  8
0
  6
Continuous
 62
     7
100
AcDbLine
 10
1662.999997664814
 20
25.0000154451152
 30
0.0
 11
1683.999997664814
 21
25.00001544511815
 31
0.0
  0
LINE
  5
D33
330
2
100
AcDbEntity
  8
0
  6
Continuous
 62
     7
100
AcDbLine
 10
1660.999997664814
 20
25.53591382997729
 30
0.0
 11
1685.999997664814
 21
25.53591382998116
 31
0.0
  0
LINE
  5
D34
330
2
100
AcDbEntity
  8
0
  6
Continuous
 62
     7
100
AcDbLine
 10
1660.999997664814
 20
26.5000154451152
 30
0.0
 11
1685.999997664814
 21
26.50001544511815
 31
0.0
  0
LINE
  5
D35
330
2
100
AcDbEntity
  8
0
  6
Continuous
 62
     7
100
AcDbLine
 10
1683.999997664814
 20
57.00001544511518
 30
0.0
 11
1658.999997664814
 21
57.0000154451111
 31
0.0
  0
LINE
  5
D36
330
2
100
AcDbEntity
  8
0
  6
Continuous
 62
     7
100
AcDbLine
 10
1683.999997664814
 20
62.70001544511524
 30
0.0
 11
1658.999997664814
 21
62.7000154451125
 31
0.0
  0
LINE
  5
D37
330
2
100
AcDbEntity
  8
0
  6
Continuous
 62
     7
100
AcDbLine
 10
1659.299997664815
 20
63.00001544511246
 30
0.0
 11
1683.699997664815
 21
63.0000154451152
 31
0.0
  0
LINE
  5
D38
330
2
100
AcDbEntity
  8
0
  6
Continuous
 62
     9
100
AcDbLine
 10
1660.999997664814
 20
27.50001544511429
 30
0.0
 11
1665.548730916295
 21
27.50001544511633
 31
0.0
  0
LINE
  5
D39
330
2
100
AcDbEntity
  8
0
  6
Continuous
 62
     7
100
AcDbLine
 10
1685.499997664814
 20
27.00001544511815
 30
0.0
 11
1665.866781586234
 21
27.0000154451152
 31
0.0
  0
LINE
  5
D3A
330
2
100
AcDbEntity
  8
0
  6
Continuous
 62
     9
100
AcDbLine
 10
1665.548730916295
 20
27.50001544511633
 30
0.0
 11
1685.999997664814
 21
27.50001544511815
 31
0.0
  0
LINE
  5
D3B
330
2
100
AcDbEntity
  8
0
  6
Continuous
 62
     7
100
AcDbLine
 10
1665.866781586234
 20
27.0000154451152
 30
0.0
 11
1661.499997664814
 21
27.0000154451152
 31
0.0
  0
LINE
  5
D3C
330
2
100
AcDbEntity
  8
0
  6
Continuous
 62
     7
100
AcDbLine
 10
1685.999997664814
 20
28.1992801907502
 30
0.0
 11
1660.999997664814
 21
28.19928019074723
 31
0.0
  0
LINE
  5
D3D
330
2
100
AcDbEntity
  8
0
  6
Continuous
 62
     7
100
AcDbLine
 10
1660.999997664814
 20
41.80075069948225
 30
0.0
 11
1665.548730916295
 21
41.80075069948315
 31
0.0
  0
LINE
  5
D3E
330
2
100
AcDbEntity
  8
0
  6
Continuous
 62
     7
100
AcDbLine
 10
1665.548730916295
 20
41.80075069948315
 30
0.0
 11
1685.999997664814
 21
41.80075069948657
 31
0.0
  0
LINE
  5
D3F
330
2
100
AcDbEntity
  8
0
  6
Continuous
 62
     9
100
AcDbLine
 10
1685.999997664814
 20
42.50001544511815
 30
0.0
 11
1660.999997664814
 21
42.50001544511518
 31
0.0
  0
LINE
  5
D40
330
2
100
AcDbEntity
  8
0
  6
Continuous
 62
     7
100
AcDbLine
 10
1661.499997664814
 20
43.00001544511518
 30
0.0
 11
1685.499997664814
 21
43.00001544511815
 31
0.0
  0
LINE
  5
D41
330
2
100
AcDbEntity
  8
0
  6
Continuous
 62
     7
100
AcDbLine
 10
1685.999997664814
 20
47.00001544511815
 30
0.0
 11
1660.999997664814
 21
47.00001544511429
 31
0.0
  0
LINE
  5
D42
330
2
100
AcDbEntity
  8
0
  6
Continuous
 62
     7
100
AcDbLine
 10
1685.999997664814
 20
43.50001544511814
 30
0.0
 11
1660.999997664814
 21
43.50001544511427
 31
0.0
  0
LINE
  5
D43
330
2
100
AcDbEntity
  8
0
  6
Continuous
 62
     9
100
AcDbLine
 10
1679.499997664825
 20
43.00001544511724
 30
0.0
 11
1678.677747489593
 21
43.00001544511724
 31
0.0
  0
LINE
  5
D44
330
2
100
AcDbEntity
  8
0
  6
Continuous
 62
     9
100
AcDbLine
 10
1678.677747489593
 20
43.00001544511724
 30
0.0
 11
1676.737065864185
 21
43.00001544511633
 31
0.0
  0
LINE
  5
D45
330
2
100
AcDbEntity
  8
0
  6
Continuous
 62
     9
100
AcDbLine
 10
1670.201519119144
 20
43.00001544511633
 30
0.0
 11
1669.343389561402
 21
43.00001544511633
 31
0.0
  0
LINE
  5
D46
330
2
100
AcDbEntity
  8
0
  6
Continuous
 62
     9
100
AcDbLine
 10
1669.343389561402
 20
43.00001544511633
 30
0.0
 11
1667.499997664814
 21
43.00001544511633
 31
0.0
  0
LINE
  5
D47
330
2
100
AcDbEntity
  8
0
  6
Continuous
 62
     7
100
AcDbLine
 10
1240.999997665283
 20
47.00001544600832
 30
0.0
 11
1235.499997664814
 21
47.00001544600717
 31
0.0
  0
LINE
  5
D48
330
2
100
AcDbEntity
  8
0
  6
Continuous
 62
     7
100
AcDbLine
 10
1227.499997664814
 20
47.00001544600627
 30
0.0
 11
1221.999997665292
 21
47.00001544600627
 31
0.0
  0
LINE
  5
D49
330
2
100
AcDbEntity
  8
0
  6
Continuous
 62
     7
100
AcDbLine
 10
1221.499997665352
 20
47.00001544537325
 30
0.0
 11
1227.499997664814
 21
47.00001544575321
 31
0.0
  0
LINE
  5
D4A
330
2
100
AcDbEntity
  8
0
  6
Continuous
 62
     7
100
AcDbLine
 10
1235.499997664814
 20
47.00001544626139
 30
0.0
 11
1241.499997665352
 21
47.00001544664131
 31
0.0
  0
LINE
  5
D4B
330
2
100
AcDbEntity
  8
0
  6
Continuous
 62
     7
100
AcDbLine
 10
1217.499997664814
 20
57.00001544504925
 30
0.0
 11
1220.371334396954
 21
57.00001544504925
 31
0.0
  0
LINE
  5
D4C
330
2
100
AcDbEntity
  8
0
  6
Continuous
 62
     7
100
AcDbLine
 10
1220.371334396954
 20
57.00001544504925
 30
0.0
 11
1221.884821105374
 21
57.00001544505017
 31
0.0
  0
LINE
  5
D4D
330
2
100
AcDbEntity
  8
0
  6
Continuous
 62
     7
100
AcDbLine
 10
1221.884821105374
 20
57.00001544505017
 30
0.0
 11
1222.148928954215
 21
57.00001544505017
 31
0.0
  0
LINE
  5
D4E
330
2
100
AcDbEntity
  8
0
  6
Continuous
 62
     7
100
AcDbLine
 10
1222.148928954215
 20
57.00001544505017
 30
0.0
 11
1223.531419944802
 21
57.00001544505017
 31
0.0
  0
LINE
  5
D4F
330
2
100
AcDbEntity
  8
0
  6
Continuous
 62
     7
100
AcDbLine
 10
1223.531419944802
 20
57.00001544505017
 30
0.0
 11
1227.622784084193
 21
57.00001544505017
 31
0.0
  0
LINE
  5
D50
330
2
100
AcDbEntity
  8
0
  6
Continuous
 62
     7
100
AcDbLine
 10
1231.377211245151
 20
57.00001544505131
 30
0.0
 11
1236.872080629344
 21
57.00001544505221
 31
0.0
  0
LINE
  5
D51
330
2
100
AcDbEntity
  8
0
  6
Continuous
 62
     7
100
AcDbLine
 10
1236.872080629344
 20
57.00001544505221
 30
0.0
 11
1237.630980622114
 21
57.00001544505221
 31
0.0
  0
LINE
  5
D52
330
2
100
AcDbEntity
  8
0
  6
Continuous
 62
     7
100
AcDbLine
 10
1237.630980622114
 20
57.00001544505221
 30
0.0
 11
1238.570408615251
 21
57.00001544505221
 31
0.0
  0
LINE
  5
D53
330
2
100
AcDbEntity
  8
0
  6
Continuous
 62
     7
100
AcDbLine
 10
1238.570408615251
 20
57.00001544505221
 30
0.0
 11
1241.499997664814
 21
57.00001544505312
 31
0.0
  0
LINE
  5
D54
330
2
100
AcDbEntity
  8
0
  6
Continuous
 62
     7
100
AcDbLine
 10
1218.999997664825
 20
25.53591382991931
 30
0.0
 11
1243.999997664814
 21
25.53591382992318
 31
0.0
  0
LINE
  5
D55
330
2
100
AcDbEntity
  8
0
  6
Continuous
 62
     7
100
AcDbLine
 10
1218.999997664825
 20
26.50001544505722
 30
0.0
 11
1243.999997664814
 21
26.50001544506017
 31
0.0
  0
LINE
  5
D56
330
2
100
AcDbEntity
  8
0
  6
Continuous
 62
     7
100
AcDbLine
 10
1220.999997664825
 20
25.00001544505835
 30
0.0
 11
1241.999997664814
 21
25.00001544506017
 31
0.0
  0
LINE
  5
D57
330
2
100
AcDbEntity
  8
0
  6
Continuous
 62
     7
100
AcDbLine
 10
1217.299997664824
 20
63.00001544504834
 30
0.0
 11
1241.699997664802
 21
63.00001544505129
 31
0.0
  0
LINE
  5
D58
330
2
100
AcDbEntity
  8
0
  6
Continuous
 62
     7
100
AcDbLine
 10
1241.999997664814
 20
62.70001544505226
 30
0.0
 11
1216.999997664825
 21
62.7000154450484
 31
0.0
  0
LINE
  5
D59
330
2
100
AcDbEntity
  8
0
  6
Continuous
 62
     7
100
AcDbLine
 10
1241.999997664814
 20
57.00001544505312
 30
0.0
 11
1216.999997664825
 21
57.00001544504925
 31
0.0
  0
LINE
  5
D5A
330
2
100
AcDbEntity
  8
0
  6
Continuous
 62
     9
100
AcDbLine
 10
1243.999997664814
 20
42.50001544505835
 30
0.0
 11
1218.999997664825
 21
42.50001544505403
 31
0.0
  0
LINE
  5
D5B
330
2
100
AcDbEntity
  8
0
  6
Continuous
 62
     7
100
AcDbLine
 10
1219.499997664825
 20
43.0000154450554
 30
0.0
 11
1243.499997664814
 21
43.00001544505835
 31
0.0
  0
LINE
  5
D5C
330
2
100
AcDbEntity
  8
0
  6
Continuous
 62
     7
100
AcDbLine
 10
1218.999997664825
 20
41.80075069942245
 30
0.0
 11
1223.548730916402
 21
41.80075069942335
 31
0.0
  0
LINE
  5
D5D
330
2
100
AcDbEntity
  8
0
  6
Continuous
 62
     7
100
AcDbLine
 10
1223.548730916402
 20
41.80075069942335
 30
0.0
 11
1243.999997664814
 21
41.80075069942609
 31
0.0
  0
LINE
  5
D5E
330
2
100
AcDbEntity
  8
0
  6
Continuous
 62
     7
100
AcDbLine
 10
1243.999997664814
 20
28.19928019069221
 30
0.0
 11
1218.999997664825
 21
28.19928019068925
 31
0.0
  0
LINE
  5
D5F
330
2
100
AcDbEntity
  8
0
  6
Continuous
 62
     9
100
AcDbLine
 10
1218.999997664825
 20
27.50001544505721
 30
0.0
 11
1223.548730916402
 21
27.50001544505835
 31
0.0
  0
LINE
  5
D60
330
2
100
AcDbEntity
  8
0
  6
Continuous
 62
     9
100
AcDbLine
 10
1223.548730916402
 20
27.50001544505835
 30
0.0
 11
1243.999997664814
 21
27.50001544506017
 31
0.0
  0
LINE
  5
D61
330
2
100
AcDbEntity
  8
0
  6
Continuous
 62
     7
100
AcDbLine
 10
1243.499997664814
 20
27.00001544506017
 30
0.0
 11
1223.866781586343
 21
27.00001544505722
 31
0.0
  0
LINE
  5
D62
330
2
100
AcDbEntity
  8
0
  6
Continuous
 62
     7
100
AcDbLine
 10
1223.866781586343
 20
27.00001544505722
 30
0.0
 11
1219.499997664825
 21
27.00001544505722
 31
0.0
  0
LINE
  5
D63
330
2
100
AcDbEntity
  8
0
  6
Continuous
 62
     7
100
AcDbLine
 10
1243.999997664814
 20
47.0000154450572
 30
0.0
 11
1218.999997664814
 21
47.00001544505403
 31
0.0
  0
LINE
  5
D64
330
2
100
AcDbEntity
  8
0
  6
Continuous
 62
     7
100
AcDbLine
 10
1243.999997664814
 20
43.50001544505835
 30
0.0
 11
1218.999997664825
 21
43.50001544505403
 31
0.0
  0
LINE
  5
D65
330
2
100
AcDbEntity
  8
0
  6
Continuous
 62
     9
100
AcDbLine
 10
1237.499997664814
 20
43.00001544505721
 30
0.0
 11
1236.677747489624
 21
43.00001544505721
 31
0.0
  0
LINE
  5
D66
330
2
100
AcDbEntity
  8
0
  6
Continuous
 62
     9
100
AcDbLine
 10
1236.677747489624
 20
43.00001544505721
 30
0.0
 11
1236.139745947583
 21
43.00001544505721
 31
0.0
  0
LINE
  5
D67
330
2
100
AcDbEntity
  8
0
  6
Continuous
 62
     9
100
AcDbLine
 10
1236.139745947583
 20
43.00001544505721
 30
0.0
 11
1234.997024016733
 21
43.00001544505721
 31
0.0
  0
LINE
  5
D68
330
2
100
AcDbEntity
  8
0
  6
Continuous
 62
     9
100
AcDbLine
 10
1227.943732303452
 20
43.0000154450554
 30
0.0
 11
1225.499997664814
 21
43.0000154450554
 31
0.0
  0
LINE
  5
D69
330
2
100
AcDbEntity
  8
0
  6
Continuous
 62
     7
100
AcDbLine
 10
1174.499997664992
 20
25.4000154445871
 30
0.0
 11
1174.499997664992
 21
45.40001544457139
 31
0.0
  0
LINE
  5
D6A
330
2
100
AcDbEntity
  8
0
  6
Continuous
 62
     7
100
AcDbLine
 10
2325.499997664514
 20
45.40001544457139
 30
0.0
 11
2325.499997664514
 21
35.40001544491429
 31
0.0
  0
LINE
  5
D6B
330
2
100
AcDbEntity
  8
0
  6
Continuous
 62
     7
100
AcDbLine
 10
2325.499997664514
 20
35.40001544491429
 30
0.0
 11
2325.499997664514
 21
25.40001544459233
 31
0.0
  0
LINE
  5
D6C
330
2
100
AcDbEntity
  8
0
  6
Continuous
 62
     4
100
AcDbLine
 10
1163.499997664534
 20
14.00001544625434
 30
0.0
 11
1171.499997664534
 21
14.00001544625434
 31
0.0
  0
LINE
  5
D6D
330
2
100
AcDbEntity
  8
0
  6
Continuous
 62
     4
100
AcDbLine
 10
1171.499997664534
 20
800.0000154462544
 30
0.0
 11
1163.499997664534
 21
800.0000154462544
 31
0.0
  0
LINE
  5
D6E
330
2
100
AcDbEntity
  8
0
  6
Continuous
 62
     4
100
AcDbLine
 10
1163.499997664534
 20
800.0000154462544
 30
0.0
 11
1163.499997664534
 21
14.00001544625434
 31
0.0
  0
LINE
  5
D6F
330
2
100
AcDbEntity
  8
0
  6
Continuous
 62
     4
100
AcDbLine
 10
1171.499997664534
 20
14.00001544625434
 30
0.0
 11
1171.499997664534
 21
800.0000154462544
 31
0.0
  0
LINE
  5
D70
330
2
100
AcDbEntity
  8
0
  6
Continuous
 62
     4
100
AcDbLine
 10
2336.499997713465
 20
14.00001544625434
 30
0.0
 11
2336.499997664534
 21
800.0000154462544
 31
0.0
  0
LINE
  5
D71
330
2
100
AcDbEntity
  8
0
  6
Continuous
 62
     4
100
AcDbLine
 10
2328.499997713474
 20
14.00001544575639
 30
0.0
 11
2336.499997713465
 21
14.00001544625434
 31
0.0
  0
LINE
  5
D72
330
2
100
AcDbEntity
  8
0
  6
Continuous
 62
     4
100
AcDbLine
 10
2328.499997664534
 20
800.0000154457561
 30
0.0
 11
2328.499997712974
 21
22.00001544625434
 31
0.0
  0
LINE
  5
D73
330
2
100
AcDbEntity
  8
0
  6
Continuous
 62
     4
100
AcDbLine
 10
2328.499997712974
 20
22.00001544625434
 30
0.0
 11
2328.499997713474
 21
14.00001544575639
 31
0.0
  0
LINE
  5
D74
330
2
100
AcDbEntity
  8
0
  6
Continuous
 62
     4
100
AcDbLine
 10
2336.499997664534
 20
800.0000154462544
 30
0.0
 11
2328.499997664534
 21
800.0000154457561
 31
0.0
  0
LINE
  5
D75
330
2
100
AcDbEntity
  8
0
  6
Continuous
 62
     7
100
AcDbLine
 10
1172.499997664967
 20
44.50001539543928
 30
0.0
 11
1173.499997665314
 21
43.50001539509002
 31
0.0
  0
LINE
  5
D76
330
2
100
AcDbEntity
  8
0
  6
Continuous
 62
     7
100
AcDbLine
 10
1173.499997665434
 20
44.50001539544017
 30
0.0
 11
1172.499997664967
 21
44.50001539543928
 31
0.0
  0
LINE
  5
D77
330
2
100
AcDbEntity
  8
0
  6
Continuous
 62
     9
100
AcDbLine
 10
1212.499997664783
 20
24.50001539534833
 30
0.0
 11
1179.499997663393
 21
24.50001539531718
 31
0.0
  0
LINE
  5
D78
330
2
100
AcDbEntity
  8
0
  6
Continuous
 62
     7
100
AcDbLine
 10
1212.499997664783
 20
24.50001539534833
 30
0.0
 11
1212.499997664783
 21
25.40001544457938
 31
0.0
  0
LINE
  5
D79
330
2
100
AcDbEntity
  8
0
  6
Continuous
 62
     7
100
AcDbLine
 10
1212.499997664974
 20
22.50001539547611
 30
0.0
 11
1172.499997664974
 21
22.50001539543928
 31
0.0
  0
LINE
  5
D7A
330
2
100
AcDbEntity
  8
0
  6
Continuous
 62
     7
100
AcDbLine
 10
1173.499997663884
 20
23.5000153943422
 30
0.0
 11
1172.499997664974
 21
22.50001539543928
 31
0.0
  0
LINE
  5
D7B
330
2
100
AcDbEntity
  8
0
  6
Continuous
 62
     7
100
AcDbLine
 10
1212.499997664974
 20
22.50001539547611
 30
0.0
 11
1212.499997664974
 21
24.50001539534833
 31
0.0
  0
LINE
  5
D7C
330
2
100
AcDbEntity
  8
0
  6
Continuous
 62
     7
100
AcDbLine
 10
1172.767946857315
 20
23.50001539537516
 30
0.0
 11
1172.767946857315
 21
23.75001539537516
 31
0.0
  0
LINE
  5
D7D
330
2
100
AcDbEntity
  8
0
  6
Continuous
 62
     7
100
AcDbLine
 10
1172.767946857315
 20
23.75001539543928
 30
0.0
 11
1172.499997664974
 21
23.75001539543837
 31
0.0
  0
LINE
  5
D7E
330
2
100
AcDbEntity
  8
0
  6
Continuous
 62
     7
100
AcDbLine
 10
1172.499997664974
 20
23.75001539543837
 30
0.0
 11
1172.499997664967
 21
31.40001544458029
 31
0.0
  0
LINE
  5
D7F
330
2
100
AcDbEntity
  8
0
  6
Continuous
 62
     7
100
AcDbLine
 10
1172.499997664967
 20
39.40001544458027
 30
0.0
 11
1172.499997664967
 21
43.25001539543928
 31
0.0
  0
LINE
  5
D80
330
2
100
AcDbEntity
  8
0
  6
Continuous
 62
     7
100
AcDbLine
 10
1172.499997664967
 20
43.25001539543928
 30
0.0
 11
1172.767946857293
 21
43.25001539543928
 31
0.0
  0
LINE
  5
D81
330
2
100
AcDbEntity
  8
0
  6
Continuous
 62
     7
100
AcDbLine
 10
1172.767946857293
 20
43.25001539537516
 30
0.0
 11
1172.767946857293
 21
43.50001539537514
 31
0.0
  0
LINE
  5
D82
330
2
100
AcDbEntity
  8
0
  6
Continuous
 62
     7
100
AcDbLine
 10
1172.767946857293
 20
43.50001539543927
 30
0.0
 11
1172.499997664967
 21
43.50001539543927
 31
0.0
  0
LINE
  5
D83
330
2
100
AcDbEntity
  8
0
  6
Continuous
 62
     7
100
AcDbLine
 10
1172.499997664967
 20
43.50001539543927
 30
0.0
 11
1172.499997664967
 21
44.50001539543928
 31
0.0
  0
LINE
  5
D84
330
2
100
AcDbEntity
  8
0
  6
Continuous
 62
     7
100
AcDbLine
 10
1172.499997664974
 20
22.50001539543928
 30
0.0
 11
1172.499997664974
 21
23.50001539543928
 31
0.0
  0
LINE
  5
D85
330
2
100
AcDbEntity
  8
0
  6
Continuous
 62
     7
100
AcDbLine
 10
1172.499997664974
 20
23.50001539543928
 30
0.0
 11
1172.767946857315
 21
23.50001539543928
 31
0.0
  0
LINE
  5
D86
330
2
100
AcDbEntity
  8
0
  6
Continuous
 62
     7
100
AcDbLine
 10
1178.299997732592
 20
57.10754671147538
 30
0.0
 11
1178.299998804143
 21
46.89248563317732
 31
0.0
  0
ARC
  5
D87
330
2
100
AcDbEntity
  8
0
  6
Continuous
 62
     7
100
AcDbCircle
 10
1176.319877116653
 20
54.21266485615115
 30
0.0
 40
3.507309311987233
100
AcDbArc
 50
55.62758316847386
 51
167.1798631684872
  0
LINE
  5
D88
330
2
100
AcDbEntity
  8
0
  6
Continuous
 62
     7
100
AcDbLine
 10
1172.899999258374
 20
49.00912591748511
 30
0.0
 11
1172.900000010451
 21
54.99090594247422
 31
0.0
  0
ARC
  5
D89
330
2
100
AcDbEntity
  8
0
  6
Continuous
 62
     7
100
AcDbCircle
 10
1176.319877111544
 20
49.78736786637728
 30
0.0
 40
3.507310231731811
100
AcDbArc
 50
192.8201478636629
 51
304.3724278636466
  0
ARC
  5
D8A
330
2
100
AcDbEntity
  8
0
  6
Continuous
 62
     7
100
AcDbCircle
 10
1179.949997664815
 20
55.95001550466008
 30
0.0
 40
0.4500000000002843
100
AcDbArc
 50
89.99999664493637
 51
173.6206373009199
  0
ARC
  5
D8B
330
2
100
AcDbEntity
  8
0
  6
Continuous
 62
     7
100
AcDbCircle
 10
1179.949997664815
 20
55.95001550466008
 30
0.0
 40
0.4500000000014781
100
AcDbArc
 50
173.6206373009199
 51
179.9999966449624
  0
LINE
  5
D8C
330
2
100
AcDbEntity
  8
0
  6
Continuous
 62
     7
100
AcDbLine
 10
1179.499997664814
 20
55.9500155310111
 30
0.0
 11
1179.499997202225
 21
48.05001753101032
 31
0.0
  0
ARC
  5
D8D
330
2
100
AcDbEntity
  8
0
  6
Continuous
 62
     7
100
AcDbCircle
 10
1179.949997202215
 20
48.05001750466022
 30
0.0
 40
0.4499999999971757
100
AcDbArc
 50
179.9999966449494
 51
186.3796339523797
  0
ARC
  5
D8E
330
2
100
AcDbEntity
  8
0
  6
Continuous
 62
     7
100
AcDbCircle
 10
1179.949997202215
 20
48.05001750466022
 30
0.0
 40
0.4499999999984823
100
AcDbArc
 50
186.3796339523797
 51
269.9999966449364
  0
LINE
  5
D8F
330
2
100
AcDbEntity
  8
0
  6
Continuous
 62
     7
100
AcDbLine
 10
1179.949997175865
 20
47.60001750466016
 30
0.0
 11
1180.049997175865
 21
47.60001749880415
 31
0.0
  0
ARC
  5
D90
330
2
100
AcDbEntity
  8
0
  6
Continuous
 62
     7
100
AcDbCircle
 10
1180.049997202215
 20
48.05001749880535
 30
0.0
 40
0.4500000000002843
100
AcDbArc
 50
269.9999966449364
 51
353.6203667978475
  0
ARC
  5
D91
330
2
100
AcDbEntity
  8
0
  6
Continuous
 62
     7
100
AcDbCircle
 10
1180.049997202215
 20
48.05001749880535
 30
0.0
 40
0.4500000000010222
100
AcDbArc
 50
353.6203667978475
 51
359.9999966449494
  0
LINE
  5
D92
330
2
100
AcDbEntity
  8
0
  6
Continuous
 62
     7
100
AcDbLine
 10
1180.499997202214
 20
48.05001747245433
 30
0.0
 11
1180.499997231494
 21
48.55001747245433
 31
0.0
  0
ARC
  5
D93
330
2
100
AcDbEntity
  8
0
  6
Continuous
 62
     7
100
AcDbCircle
 10
1180.949996231495
 20
48.55001644610434
 30
0.0
 40
0.4499990000018153
100
AcDbArc
 50
89.99986932073033
 51
179.9998693207303
  0
LINE
  5
D94
330
2
100
AcDbEntity
  8
0
  6
Continuous
 62
     7
100
AcDbLine
 10
1180.949997257845
 20
49.00001544610336
 30
0.0
 11
1181.049997257845
 21
49.00001744024826
 31
0.0
  0
ARC
  5
D95
330
2
100
AcDbEntity
  8
0
  6
Continuous
 62
     7
100
AcDbCircle
 10
1181.049997231494
 20
48.55001744024821
 30
0.0
 40
0.4499999999998403
100
AcDbArc
 50
359.9999966449494
 51
89.99999664493637
  0
LINE
  5
D96
330
2
100
AcDbEntity
  8
0
  6
Continuous
 62
     7
100
AcDbLine
 10
1181.499997231494
 20
48.55001741389832
 30
0.0
 11
1181.499997199293
 21
48.00001741389838
 31
0.0
  0
LINE
  5
D97
330
2
100
AcDbEntity
  8
0
  6
Continuous
 62
     7
100
AcDbLine
 10
1181.499997199293
 20
48.00001741389838
 30
0.0
 11
1185.199997199292
 21
48.00001719723832
 31
0.0
  0
LINE
  5
D98
330
2
100
AcDbEntity
  8
0
  6
Continuous
 62
     7
100
AcDbLine
 10
1185.199997199292
 20
48.00001719723832
 30
0.0
 11
1185.199997164152
 21
47.40001719723817
 31
0.0
  0
LINE
  5
D99
330
2
100
AcDbEntity
  8
0
  6
Continuous
 62
     7
100
AcDbLine
 10
1185.199997164152
 20
47.40001719723817
 30
0.0
 11
1188.735346334053
 21
47.40001677928421
 31
0.0
  0
ARC
  5
D9A
330
2
100
AcDbEntity
  8
0
  6
Continuous
 62
     7
100
AcDbCircle
 10
1188.499996843135
 20
47.31569719129516
 30
0.0
 40
0.2499983515828065
100
AcDbArc
 50
19.71127840082555
 51
84.71062540080167
  0
LINE
  5
D9B
330
2
100
AcDbEntity
  8
0
  6
Continuous
 62
     7
100
AcDbLine
 10
1188.523043173794
 20
47.56463100265114
 30
0.0
 11
1186.549669184493
 21
47.74733111820636
 31
0.0
  0
LINE
  5
D9C
330
2
100
AcDbEntity
  8
0
  6
Continuous
 62
     7
100
AcDbLine
 10
1186.549669184493
 20
47.74733111820636
 30
0.0
 11
1186.572717199075
 21
47.99626511685619
 31
0.0
  0
LINE
  5
D9D
330
2
100
AcDbEntity
  8
0
  6
Continuous
 62
     7
100
AcDbLine
 10
1186.572717199075
 20
47.99626511685619
 30
0.0
 11
1188.546088904391
 21
47.81356783730621
 31
0.0
  0
ARC
  5
D9E
330
2
100
AcDbEntity
  8
0
  6
Continuous
 62
     7
100
AcDbCircle
 10
1188.499994849224
 20
47.31569768878034
 30
0.0
 40
0.4999993467147761
100
AcDbArc
 50
9.708685039770491
 51
84.71049303982224
  0
LINE
  5
D9F
330
2
100
AcDbEntity
  8
0
  6
Continuous
 62
     7
100
AcDbLine
 10
1188.992833164153
 20
47.40001697514322
 30
0.0
 11
1189.699995164154
 21
47.40001693373324
 31
0.0
  0
LINE
  5
DA0
330
2
100
AcDbEntity
  8
0
  6
Continuous
 62
     7
100
AcDbLine
 10
1189.699995164154
 20
47.40001693373324
 30
0.0
 11
1189.699995199285
 21
48.00001693373339
 31
0.0
  0
LINE
  5
DA1
330
2
100
AcDbEntity
  8
0
  6
Continuous
 62
     7
100
AcDbLine
 10
1189.699995199285
 20
48.00001693373339
 30
0.0
 11
1191.499995199292
 21
48.00001682833226
 31
0.0
  0
LINE
  5
DA2
330
2
100
AcDbEntity
  8
0
  6
Continuous
 62
     7
100
AcDbLine
 10
1191.499995199292
 20
48.00001682833226
 30
0.0
 11
1191.499995152444
 21
47.2000168283323
 31
0.0
  0
ARC
  5
DA3
330
2
100
AcDbEntity
  8
0
  6
Continuous
 62
     7
100
AcDbCircle
 10
1190.699995152445
 20
47.20001687517743
 30
0.0
 40
0.8000000000016896
100
AcDbArc
 50
269.9999966449364
 51
359.9999966449494
  0
LINE
  5
DA4
330
2
100
AcDbEntity
  8
0
  6
Continuous
 62
     7
100
AcDbLine
 10
1190.699995105604
 20
46.40001687517747
 30
0.0
 11
1178.299997572645
 21
46.40001704404335
 31
0.0
  0
ARC
  5
DA5
330
2
100
AcDbEntity
  8
0
  6
Continuous
 62
     7
100
AcDbCircle
 10
1176.343801335364
 20
49.80262702044025
 30
0.0
 40
3.924851381931693
100
AcDbArc
 50
191.664090318299
 51
299.8950483183281
  0
LINE
  5
DA6
330
2
100
AcDbEntity
  8
0
  6
Continuous
 62
     7
100
AcDbLine
 10
1172.499999258383
 20
49.00912594090732
 30
0.0
 11
1172.499998908102
 21
54.99090505695539
 31
0.0
  0
ARC
  5
DA7
330
2
100
AcDbEntity
  8
0
  6
Continuous
 62
     7
100
AcDbCircle
 10
1176.343801127092
 20
54.19740360615652
 30
0.0
 40
3.924851596059268
100
AcDbArc
 50
60.10494679293405
 51
168.3359047928909
  0
LINE
  5
DA8
330
2
100
AcDbEntity
  8
0
  6
Continuous
 62
     7
100
AcDbLine
 10
1178.299997761433
 20
57.60001360127944
 30
0.0
 11
1190.699995761433
 21
57.60001287517615
 31
0.0
  0
ARC
  5
DA9
330
2
100
AcDbEntity
  8
0
  6
Continuous
 62
     7
100
AcDbCircle
 10
1190.699995714583
 20
56.80001287517621
 30
0.0
 40
0.7999999999999135
100
AcDbArc
 50
359.9999966448973
 51
89.99999664493637
  0
LINE
  5
DAA
330
2
100
AcDbEntity
  8
0
  6
Continuous
 62
     7
100
AcDbLine
 10
1191.499995714583
 20
56.80001282833131
 30
0.0
 11
1191.499995667744
 21
56.00001482833227
 31
0.0
  0
LINE
  5
DAB
330
2
100
AcDbEntity
  8
0
  6
Continuous
 62
     7
100
AcDbLine
 10
1191.499995667744
 20
56.00001482833227
 30
0.0
 11
1189.699995667744
 21
56.00001493373429
 31
0.0
  0
LINE
  5
DAC
330
2
100
AcDbEntity
  8
0
  6
Continuous
 62
     7
100
AcDbLine
 10
1189.699995667744
 20
56.00001493373429
 30
0.0
 11
1189.699995702874
 21
56.6000129337333
 31
0.0
  0
LINE
  5
DAD
330
2
100
AcDbEntity
  8
0
  6
Continuous
 62
     7
100
AcDbLine
 10
1189.699995702874
 20
56.6000129337333
 30
0.0
 11
1188.992834594095
 21
56.60001318327612
 31
0.0
  0
ARC
  5
DAE
330
2
100
AcDbEntity
  8
0
  6
Continuous
 62
     7
100
AcDbCircle
 10
1188.499996394543
 20
56.68433323696331
 30
0.0
 40
0.4999993623979361
100
AcDbArc
 50
275.2894180610676
 51
350.2912260610922
  0
LINE
  5
DAF
330
2
100
AcDbEntity
  8
0
  6
Continuous
 62
     7
100
AcDbLine
 10
1188.546089678664
 20
56.18646300130217
 30
0.0
 11
1186.572717667965
 21
56.00376511685613
 31
0.0
  0
LINE
  5
DB0
330
2
100
AcDbEntity
  8
0
  6
Continuous
 62
     7
100
AcDbLine
 10
1186.572717667965
 20
56.00376511685613
 30
0.0
 11
1186.549669682545
 21
56.25270111820622
 31
0.0
  0
LINE
  5
DB1
330
2
100
AcDbEntity
  8
0
  6
Continuous
 62
     7
100
AcDbLine
 10
1186.549669682545
 20
56.25270111820622
 30
0.0
 11
1188.523042551243
 21
56.43539758464907
 31
0.0
  0
ARC
  5
DB2
330
2
100
AcDbEntity
  8
0
  6
Continuous
 62
     7
100
AcDbCircle
 10
1188.499996288416
 20
56.68433355004232
 30
0.0
 40
0.2500004901919437
100
AcDbArc
 50
275.2893136103678
 51
340.2886606103937
  0
LINE
  5
DB3
330
2
100
AcDbEntity
  8
0
  6
Continuous
 62
     7
100
AcDbLine
 10
1188.735347702873
 20
56.60001299022018
 30
0.0
 11
1185.199997702873
 21
56.60001319723825
 31
0.0
  0
LINE
  5
DB4
330
2
100
AcDbEntity
  8
0
  6
Continuous
 62
     7
100
AcDbLine
 10
1185.199997702873
 20
56.60001319723825
 30
0.0
 11
1185.199997667745
 21
56.00001519723832
 31
0.0
  0
LINE
  5
DB5
330
2
100
AcDbEntity
  8
0
  6
Continuous
 62
     7
100
AcDbLine
 10
1185.199997667745
 20
56.00001519723832
 30
0.0
 11
1181.499997667744
 21
56.00001541389838
 31
0.0
  0
LINE
  5
DB6
330
2
100
AcDbEntity
  8
0
  6
Continuous
 62
     7
100
AcDbLine
 10
1181.499997667744
 20
56.00001541389838
 30
0.0
 11
1181.499997635536
 21
55.45001541389728
 31
0.0
  0
ARC
  5
DB7
330
2
100
AcDbEntity
  8
0
  6
Continuous
 62
     7
100
AcDbCircle
 10
1181.049997635535
 20
55.45001544024831
 30
0.0
 40
0.4500000000007284
100
AcDbArc
 50
269.9999966449364
 51
359.9999966449494
  0
LINE
  5
DB8
330
2
100
AcDbEntity
  8
0
  6
Continuous
 62
     7
100
AcDbLine
 10
1181.049997609192
 20
55.00001544024826
 30
0.0
 11
1180.949997609185
 21
55.00001544610427
 31
0.0
  0
ARC
  5
DB9
330
2
100
AcDbEntity
  8
0
  6
Continuous
 62
     7
100
AcDbCircle
 10
1180.949997635534
 20
55.45001544610432
 30
0.0
 40
0.4500000000002843
100
AcDbArc
 50
179.9999966449494
 51
269.9999966449364
  0
LINE
  5
DBA
330
2
100
AcDbEntity
  8
0
  6
Continuous
 62
     7
100
AcDbLine
 10
1180.499997635536
 20
55.45001547245442
 30
0.0
 11
1180.499997664814
 21
55.95001547245442
 31
0.0
  0
ARC
  5
DBB
330
2
100
AcDbEntity
  8
0
  6
Continuous
 62
     7
100
AcDbCircle
 10
1180.049997664815
 20
55.95001549880407
 30
0.0
 40
0.4500000000007284
100
AcDbArc
 50
359.9999966449494
 51
6.379363449320219
  0
ARC
  5
DBC
330
2
100
AcDbEntity
  8
0
  6
Continuous
 62
     7
100
AcDbCircle
 10
1180.049997664815
 20
55.95001549880407
 30
0.0
 40
0.4499999999989102
100
AcDbArc
 50
6.379363449307274
 51
89.99999664493637
  0
LINE
  5
DBD
330
2
100
AcDbEntity
  8
0
  6
Continuous
 62
     7
100
AcDbLine
 10
1180.049997691165
 20
56.40001549880525
 30
0.0
 11
1179.949997691164
 21
56.40001550466013
 31
0.0
  0
LINE
  5
DBE
330
2
100
AcDbEntity
  8
0
  6
Continuous
 62
     9
100
AcDbLine
 10
1200.499997665303
 20
75.00001541326128
 30
0.0
 11
1200.499997665303
 21
56.00001541326218
 31
0.0
  0
LINE
  5
DBF
330
2
100
AcDbEntity
  8
0
  6
Continuous
 62
     7
100
AcDbLine
 10
1199.499997665245
 20
56.00001541321034
 30
0.0
 11
1199.499997665245
 21
75.00001541320944
 31
0.0
  0
LINE
  5
DC0
330
2
100
AcDbEntity
  8
0
  6
Continuous
 62
     9
100
AcDbLine
 10
1200.499997665303
 20
75.00001541320944
 30
0.0
 11
1199.499997665245
 21
75.00001541320944
 31
0.0
  0
LINE
  5
DC1
330
2
100
AcDbEntity
  8
0
  6
Continuous
 62
     9
100
AcDbLine
 10
1218.499997665303
 20
63.0000154448885
 30
0.0
 11
1218.499997665303
 21
75.00001541326423
 31
0.0
  0
LINE
  5
DC2
330
2
100
AcDbEntity
  8
0
  6
Continuous
 62
     9
100
AcDbLine
 10
1218.499997665303
 20
75.00001541326423
 30
0.0
 11
1200.499997665303
 21
75.00001541326128
 31
0.0
  0
ARC
  5
DC3
330
2
100
AcDbEntity
  8
0
  6
Continuous
 62
     7
100
AcDbCircle
 10
1200.499997665245
 20
75.00001541320944
 30
0.0
 40
0.9999999999998896
100
AcDbArc
 50
90.0
 51
180.0
  0
LINE
  5
DC4
330
2
100
AcDbEntity
  8
0
  6
Continuous
 62
     9
100
AcDbLine
 10
1200.499997665245
 20
75.00001541326128
 30
0.0
 11
1200.499997665245
 21
76.00001541320944
 31
0.0
  0
LINE
  5
DC5
330
2
100
AcDbEntity
  8
0
  6
Continuous
 62
     7
100
AcDbLine
 10
1200.499997665245
 20
76.00001541320944
 30
0.0
 11
1218.499997665245
 21
76.0000154132124
 31
0.0
  0
LINE
  5
DC6
330
2
100
AcDbEntity
  8
0
  6
Continuous
 62
     9
100
AcDbLine
 10
1218.499997665245
 20
75.00001541326423
 30
0.0
 11
1218.499997665245
 21
76.0000154132124
 31
0.0
  0
LINE
  5
DC7
330
2
100
AcDbEntity
  8
0
  6
Continuous
 62
     9
100
AcDbLine
 10
1218.499997665303
 20
75.00001541321239
 30
0.0
 11
1219.499997665245
 21
75.00001541321239
 31
0.0
  0
LINE
  5
DC8
330
2
100
AcDbEntity
  8
0
  6
Continuous
 62
     7
100
AcDbLine
 10
1219.499997665245
 20
75.00001541321239
 30
0.0
 11
1219.499997665245
 21
63.0000154448362
 31
0.0
  0
ARC
  5
DC9
330
2
100
AcDbEntity
  8
0
  6
Continuous
 62
     7
100
AcDbCircle
 10
1218.499997665245
 20
75.00001541321239
 30
0.0
 40
0.9999999999976694
100
AcDbArc
 50
0.0000000000130276
 51
90.0
  0
LINE
  5
DCA
330
2
100
AcDbEntity
  8
0
  6
Continuous
 62
     9
100
AcDbLine
 10
1200.499997664676
 20
48.00001541378652
 30
0.0
 11
1200.499997664576
 21
45.40001544457935
 31
0.0
  0
LINE
  5
DCB
330
2
100
AcDbEntity
  8
0
  6
Continuous
 62
     9
100
AcDbLine
 10
1218.499997664583
 20
45.40001544457935
 30
0.0
 11
1218.499997664676
 21
48.00001541311644
 31
0.0
  0
LINE
  5
DCC
330
2
100
AcDbEntity
  8
0
  6
Continuous
 62
     7
100
AcDbLine
 10
1199.499997664583
 20
45.40001544457935
 30
0.0
 11
1199.499997664676
 21
48.00001541375218
 31
0.0
  0
LINE
  5
DCD
330
2
100
AcDbEntity
  8
0
  6
Continuous
 62
     7
100
AcDbLine
 10
1219.499997664676
 20
48.00001541300821
 30
0.0
 11
1219.499997664634
 21
47.00001544494421
 31
0.0
  0
LINE
  5
DCE
330
2
100
AcDbEntity
  8
0
  6
Continuous
 62
     7
100
AcDbLine
 10
1772.499997692603
 20
58.5000154265672
 30
0.0
 11
1771.473303997983
 21
58.50001542715131
 31
0.0
  0
LINE
  5
DCF
330
2
100
AcDbEntity
  8
0
  6
Continuous
 62
     7
100
AcDbLine
 10
1772.499997685216
 20
45.50001542656832
 30
0.0
 11
1772.499997692603
 21
58.5000154265672
 31
0.0
  0
LINE
  5
DD0
330
2
100
AcDbEntity
  8
0
  6
Continuous
 62
     7
100
AcDbLine
 10
1772.499997670435
 20
19.50001542656832
 30
0.0
 11
1772.499997671843
 21
22.00001544625434
 31
0.0
  0
LINE
  5
DD1
330
2
100
AcDbEntity
  8
0
  6
Continuous
 62
     7
100
AcDbLine
 10
1772.499997671843
 20
22.00001544625434
 30
0.0
 11
1772.499997685216
 21
45.50001542656832
 31
0.0
  0
LINE
  5
DD2
330
2
100
AcDbEntity
  8
0
  6
Continuous
 62
     7
100
AcDbLine
 10
1771.999997670435
 20
19.50001542685231
 30
0.0
 11
1772.499997670435
 21
19.50001542656832
 31
0.0
  0
LINE
  5
DD3
330
2
100
AcDbEntity
  8
0
  6
Continuous
 62
     7
100
AcDbLine
 10
1771.500024615374
 20
45.49861505853027
 30
0.0
 11
1771.951920748404
 21
22.00001544625434
 31
0.0
  0
LINE
  5
DD4
330
2
100
AcDbEntity
  8
0
  6
Continuous
 62
     7
100
AcDbLine
 10
1771.951920748404
 20
22.00001544625434
 30
0.0
 11
1771.999997670435
 21
19.50001542685231
 31
0.0
  0
LINE
  5
DD5
330
2
100
AcDbEntity
  8
0
  6
Continuous
 62
     7
100
AcDbLine
 10
1760.461975496744
 20
46.07709470674716
 30
0.0
 11
1771.500024615374
 21
45.49861505853027
 31
0.0
  0
LINE
  5
DD6
330
2
100
AcDbEntity
  8
0
  6
Continuous
 62
     7
100
AcDbLine
 10
1760.493377070832
 20
46.67627242758225
 30
0.0
 11
1760.461975496744
 21
46.07709470674716
 31
0.0
  0
ARC
  5
DD7
330
2
100
AcDbEntity
  8
0
  6
Continuous
 62
     7
100
AcDbCircle
 10
1760.892828884714
 20
46.65533804485813
 30
0.0
 40
0.3999999999997887
100
AcDbArc
 50
86.99999996732831
 51
176.9999999673016
  0
LINE
  5
DD8
330
2
100
AcDbEntity
  8
0
  6
Continuous
 62
     7
100
AcDbLine
 10
1762.012255755642
 20
46.99722030625617
 30
0.0
 11
1760.913763267445
 21
47.05478985874743
 31
0.0
  0
LINE
  5
DD9
330
2
100
AcDbEntity
  8
0
  6
Continuous
 62
     7
100
AcDbLine
 10
1762.001788564285
 20
46.79749439931128
 30
0.0
 11
1762.012255755642
 21
46.99722030625617
 31
0.0
  0
LINE
  5
DDA
330
2
100
AcDbEntity
  8
0
  6
Continuous
 62
     7
100
AcDbLine
 10
1764.997677168452
 20
46.64048652887913
 30
0.0
 11
1762.001788564285
 21
46.79749439931128
 31
0.0
  0
LINE
  5
DDB
330
2
100
AcDbEntity
  8
0
  6
Continuous
 62
     7
100
AcDbLine
 10
1765.008144359816
 20
46.84021243582447
 30
0.0
 11
1764.997677168452
 21
46.64048652887913
 31
0.0
  0
LINE
  5
DDC
330
2
100
AcDbEntity
  8
0
  6
Continuous
 62
     7
100
AcDbLine
 10
1768.004032963994
 20
46.68320456539231
 30
0.0
 11
1765.008144359816
 21
46.84021243582447
 31
0.0
  0
LINE
  5
DDD
330
2
100
AcDbEntity
  8
0
  6
Continuous
 62
     7
100
AcDbLine
 10
1768.008859505842
 20
47.05740940558325
 30
0.0
 11
1768.004032963994
 21
46.68320456539231
 31
0.0
  0
ARC
  5
DDE
330
2
100
AcDbEntity
  8
0
  6
Continuous
 62
     7
100
AcDbCircle
 10
1768.408718373734
 20
47.06803417698302
 30
0.0
 40
0.399999999999567
100
AcDbArc
 50
86.99999996732831
 51
181.5220654131134
  0
LINE
  5
DDF
330
2
100
AcDbEntity
  8
0
  6
Continuous
 62
     7
100
AcDbLine
 10
1768.629378663403
 20
47.45701879951115
 30
0.0
 11
1768.429652756453
 21
47.46748599087322
 31
0.0
  0
ARC
  5
DE0
330
2
100
AcDbEntity
  8
0
  6
Continuous
 62
     7
100
AcDbCircle
 10
1768.608444280684
 20
47.05756698562118
 30
0.0
 40
0.3999999999973288
100
AcDbArc
 50
1.522065413022265
 51
86.99999996743306
  0
LINE
  5
DE1
330
2
100
AcDbEntity
  8
0
  6
Continuous
 62
     7
100
AcDbLine
 10
1769.002662498717
 20
46.63086860858128
 30
0.0
 11
1769.008303148574
 21
47.06819175702025
 31
0.0
  0
LINE
  5
DE2
330
2
100
AcDbEntity
  8
0
  6
Continuous
 62
     7
100
AcDbLine
 10
1771.499997685783
 20
46.4999888158784
 30
0.0
 11
1769.002662498717
 21
46.63086860858128
 31
0.0
  0
LINE
  5
DE3
330
2
100
AcDbEntity
  8
0
  6
Continuous
 62
     7
100
AcDbLine
 10
1771.499997692033
 20
57.50004203839421
 30
0.0
 11
1771.499997691184
 21
56.00001544613132
 31
0.0
  0
LINE
  5
DE4
330
2
100
AcDbEntity
  8
0
  6
Continuous
 62
     7
100
AcDbLine
 10
1771.499997691184
 20
56.00001544613132
 30
0.0
 11
1771.499997686633
 21
48.00001544613132
 31
0.0
  0
LINE
  5
DE5
330
2
100
AcDbEntity
  8
0
  6
Continuous
 62
     7
100
AcDbLine
 10
1771.499997686633
 20
48.00001544613132
 30
0.0
 11
1771.499997685783
 21
46.4999888158784
 31
0.0
  0
LINE
  5
DE6
330
2
100
AcDbEntity
  8
0
  6
Continuous
 62
     7
100
AcDbLine
 10
1769.002662504814
 20
57.36916224853029
 30
0.0
 11
1771.499997692033
 21
57.50004203839421
 31
0.0
  0
LINE
  5
DE7
330
2
100
AcDbEntity
  8
0
  6
Continuous
 62
     7
100
AcDbLine
 10
1769.007896100214
 20
56.96339825420818
 30
0.0
 11
1769.002662504814
 21
57.36916224853029
 31
0.0
  0
ARC
  5
DE8
330
2
100
AcDbEntity
  8
0
  6
Continuous
 62
     7
100
AcDbCircle
 10
1768.608444286294
 20
56.94246387193834
 30
0.0
 40
0.399999999999937
100
AcDbArc
 50
272.9999999674447
 51
2.99999996735283
  0
LINE
  5
DE9
330
2
100
AcDbEntity
  8
0
  6
Continuous
 62
     7
100
AcDbLine
 10
1768.429652761613
 20
56.53254486689025
 30
0.0
 11
1768.629378668565
 21
56.54301205802449
 31
0.0
  0
ARC
  5
DEA
330
2
100
AcDbEntity
  8
0
  6
Continuous
 62
     7
100
AcDbCircle
 10
1768.408718379343
 20
56.93199668080342
 30
0.0
 40
0.3999999999986182
100
AcDbArc
 50
182.9999999675089
 51
272.9999999674439
  0
LINE
  5
DEB
330
2
100
AcDbEntity
  8
0
  6
Continuous
 62
     7
100
AcDbLine
 10
1768.004032970035
 20
57.31682629285525
 30
0.0
 11
1768.009266565435
 21
56.91106229853311
 31
0.0
  0
LINE
  5
DEC
330
2
100
AcDbEntity
  8
0
  6
Continuous
 62
     7
100
AcDbLine
 10
1765.008144365683
 20
57.15981842583028
 30
0.0
 11
1768.004032970035
 21
57.31682629285525
 31
0.0
  0
LINE
  5
DED
330
2
100
AcDbEntity
  8
0
  6
Continuous
 62
     7
100
AcDbLine
 10
1764.997677174544
 20
57.35954433278629
 30
0.0
 11
1765.008144365683
 21
57.15981842583028
 31
0.0
  0
LINE
  5
DEE
330
2
100
AcDbEntity
  8
0
  6
Continuous
 62
     7
100
AcDbLine
 10
1762.001788570193
 20
57.20253646576111
 30
0.0
 11
1764.997677174544
 21
57.35954433278629
 31
0.0
  0
LINE
  5
DEF
330
2
100
AcDbEntity
  8
0
  6
Continuous
 62
     7
100
AcDbLine
 10
1762.012255761323
 20
57.00281055880418
 30
0.0
 11
1762.001788570193
 21
57.20253646576111
 31
0.0
  0
LINE
  5
DF0
330
2
100
AcDbEntity
  8
0
  6
Continuous
 62
     7
100
AcDbLine
 10
1760.913763273063
 20
56.94524100756234
 30
0.0
 11
1762.012255761323
 21
57.00281055880418
 31
0.0
  0
ARC
  5
DF1
330
2
100
AcDbEntity
  8
0
  6
Continuous
 62
     7
100
AcDbCircle
 10
1760.892828890793
 20
57.34469282147529
 30
0.0
 40
0.4000000000021429
100
AcDbArc
 50
182.9999999674179
 51
272.9999999674439
  0
LINE
  5
DF2
330
2
100
AcDbEntity
  8
0
  6
Continuous
 62
     7
100
AcDbLine
 10
1760.461975503483
 20
57.92293616007508
 30
0.0
 11
1760.493377076886
 21
57.32375843920522
 31
0.0
  0
LINE
  5
DF3
330
2
100
AcDbEntity
  8
0
  6
Continuous
 62
     7
100
AcDbLine
 10
1771.473303997983
 20
58.50001542715131
 30
0.0
 11
1760.461975503483
 21
57.92293616007508
 31
0.0
  0
LINE
  5
DF4
330
2
100
AcDbEntity
  8
0
  6
Continuous
 62
     4
100
AcDbLine
 10
1771.499997664825
 20
48.00001544613132
 30
0.0
 11
1191.499995199292
 21
48.00001544604924
 31
0.0
  0
LINE
  5
DF5
330
2
100
AcDbEntity
  8
0
  6
Continuous
 62
     4
100
AcDbLine
 10
1191.499995199292
 20
48.00001544604924
 30
0.0
 11
1189.699995199285
 21
48.00001544604924
 31
0.0
  0
LINE
  5
DF6
330
2
100
AcDbEntity
  8
0
  6
Continuous
 62
     4
100
AcDbLine
 10
1189.699995199285
 20
48.00001544604924
 30
0.0
 11
1185.199997199292
 21
48.00001544604834
 31
0.0
  0
LINE
  5
DF7
330
2
100
AcDbEntity
  8
0
  6
Continuous
 62
     4
100
AcDbLine
 10
1185.199997199292
 20
48.00001544604834
 30
0.0
 11
1181.499997199293
 21
48.0000154460472
 31
0.0
  0
LINE
  5
DF8
330
2
100
AcDbEntity
  8
0
  6
Continuous
 62
     4
100
AcDbLine
 10
1181.499997199293
 20
48.0000154460472
 30
0.0
 11
1180.497210568202
 21
48.0000154460472
 31
0.0
  0
LINE
  5
DF9
330
2
100
AcDbEntity
  8
0
  6
Continuous
 62
     4
100
AcDbLine
 10
1180.497210568202
 20
48.0000154460472
 30
0.0
 11
1179.502783836884
 21
48.0000154460472
 31
0.0
  0
LINE
  5
DFA
330
2
100
AcDbEntity
  8
0
  6
Continuous
 62
     4
100
AcDbLine
 10
1179.502783836884
 20
48.0000154460472
 30
0.0
 11
1179.499997664814
 21
48.0000154460472
 31
0.0
  0
LINE
  5
DFB
330
2
100
AcDbEntity
  8
0
  6
Continuous
 62
     4
100
AcDbLine
 10
1179.499997664814
 20
48.0000154460472
 30
0.0
 11
1179.499997664814
 21
48.05001750466022
 31
0.0
  0
LINE
  5
DFC
330
2
100
AcDbEntity
  8
0
  6
Continuous
 62
     4
100
AcDbLine
 10
1179.499997664814
 20
48.05001750466022
 30
0.0
 11
1179.499997664814
 21
55.95001550466008
 31
0.0
  0
LINE
  5
DFD
330
2
100
AcDbEntity
  8
0
  6
Continuous
 62
     4
100
AcDbLine
 10
1179.499997664814
 20
55.95001550466008
 30
0.0
 11
1179.499997664814
 21
56.0000154460472
 31
0.0
  0
LINE
  5
DFE
330
2
100
AcDbEntity
  8
0
  6
Continuous
 62
     4
100
AcDbLine
 10
1179.499997664814
 20
56.0000154460472
 30
0.0
 11
1179.502784062766
 21
56.0000154460472
 31
0.0
  0
LINE
  5
DFF
330
2
100
AcDbEntity
  8
0
  6
Continuous
 62
     4
100
AcDbLine
 10
1179.502784062766
 20
56.0000154460472
 30
0.0
 11
1180.497211266216
 21
56.00001544604833
 31
0.0
  0
LINE
  5
E00
330
2
100
AcDbEntity
  8
0
  6
Continuous
 62
     4
100
AcDbLine
 10
1180.497211266216
 20
56.00001544604833
 30
0.0
 11
1181.499997667744
 21
56.00001544604833
 31
0.0
  0
LINE
  5
E01
330
2
100
AcDbEntity
  8
0
  6
Continuous
 62
     4
100
AcDbLine
 10
1181.499997667744
 20
56.00001544604833
 30
0.0
 11
1185.199997667745
 21
56.00001544604833
 31
0.0
  0
LINE
  5
E02
330
2
100
AcDbEntity
  8
0
  6
Continuous
 62
     4
100
AcDbLine
 10
1185.199997667745
 20
56.00001544604833
 30
0.0
 11
1189.699995667744
 21
56.00001544604925
 31
0.0
  0
LINE
  5
E03
330
2
100
AcDbEntity
  8
0
  6
Continuous
 62
     4
100
AcDbLine
 10
1189.699995667744
 20
56.00001544604925
 30
0.0
 11
1191.499995667744
 21
56.00001544604925
 31
0.0
  0
LINE
  5
E04
330
2
100
AcDbEntity
  8
0
  6
Continuous
 62
     4
100
AcDbLine
 10
1191.499995667744
 20
56.00001544604925
 30
0.0
 11
1771.499997664825
 21
56.00001544613132
 31
0.0
  0
LINE
  5
E05
330
2
100
AcDbEntity
  8
0
  6
Continuous
 62
     4
100
AcDbLine
 10
1771.499997664814
 20
56.00001544613132
 30
0.0
 11
1771.499997664825
 21
48.00001544613132
 31
0.0
  0
LINE
  5
E06
330
2
100
AcDbEntity
  8
0
  6
Continuous
 62
     7
100
AcDbLine
 10
1717.499997664476
 20
23.50001536128434
 30
0.0
 11
1212.499997664803
 21
23.50001539308028
 31
0.0
  0
LINE
  5
E07
330
2
100
AcDbEntity
  8
0
  6
Continuous
 62
     9
100
AcDbLine
 10
1723.499997664301
 20
12.00001537800426
 30
0.0
 11
1723.499997664434
 21
14.00001537800426
 31
0.0
  0
LINE
  5
E08
330
2
100
AcDbEntity
  8
0
  6
Continuous
 62
     7
100
AcDbLine
 10
1722.499997664301
 20
12.00001537813205
 30
0.0
 11
1723.499997664301
 21
12.00001537806838
 31
0.0
  0
LINE
  5
E09
330
2
100
AcDbEntity
  8
0
  6
Continuous
 62
     9
100
AcDbLine
 10
1755.499997664301
 20
12.00001537596017
 30
0.0
 11
1755.499997664434
 21
14.00001537596017
 31
0.0
  0
LINE
  5
E0A
330
2
100
AcDbEntity
  8
0
  6
Continuous
 62
     7
100
AcDbLine
 10
1723.499997664301
 20
12.00001537800426
 30
0.0
 11
1755.499997664301
 21
12.00001537596017
 31
0.0
  0
LINE
  5
E0B
330
2
100
AcDbEntity
  8
0
  6
Continuous
 62
     7
100
AcDbLine
 10
1756.499997664301
 20
12.00001537596017
 30
0.0
 11
1756.499997664425
 21
14.00001537595926
 31
0.0
  0
LINE
  5
E0C
330
2
100
AcDbEntity
  8
0
  6
Continuous
 62
     7
100
AcDbLine
 10
1755.499997664301
 20
12.00001537602429
 30
0.0
 11
1756.499997664301
 21
12.00001537596017
 31
0.0
  0
LINE
  5
E0D
330
2
100
AcDbEntity
  8
0
  6
Continuous
 62
     7
100
AcDbLine
 10
1727.999997667193
 20
57.50001537834942
 30
0.0
 11
1724.999997667193
 21
57.50001537854018
 31
0.0
  0
LINE
  5
E0E
330
2
100
AcDbEntity
  8
0
  6
Continuous
 62
     7
100
AcDbLine
 10
1724.999997667193
 20
57.50001537854018
 30
0.0
 11
1721.999997667193
 21
57.50001537873117
 31
0.0
  0
LINE
  5
E0F
330
2
100
AcDbEntity
  8
0
  6
Continuous
 62
     7
100
AcDbLine
 10
1720.999997667703
 20
65.5000153787953
 30
0.0
 11
1724.999997667703
 21
65.50001537854019
 31
0.0
  0
LINE
  5
E10
330
2
100
AcDbEntity
  8
0
  6
Continuous
 62
     7
100
AcDbLine
 10
1724.999997667703
 20
65.50001537854019
 30
0.0
 11
1728.999997667703
 21
65.50001537828619
 31
0.0
  0
LINE
  5
E11
330
2
100
AcDbEntity
  8
0
  6
Continuous
 62
     7
100
AcDbLine
 10
1752.999997701394
 20
57.50001537675918
 30
0.0
 11
1749.999997701394
 21
57.50001537695016
 31
0.0
  0
LINE
  5
E12
330
2
100
AcDbEntity
  8
0
  6
Continuous
 62
     7
100
AcDbLine
 10
1749.999997701394
 20
57.50001537695016
 30
0.0
 11
1746.999997701385
 21
57.50001537714116
 31
0.0
  0
LINE
  5
E13
330
2
100
AcDbEntity
  8
0
  6
Continuous
 62
     7
100
AcDbLine
 10
1745.999997701892
 20
65.50001537720437
 30
0.0
 11
1749.999997701892
 21
65.50001537695016
 31
0.0
  0
LINE
  5
E14
330
2
100
AcDbEntity
  8
0
  6
Continuous
 62
     7
100
AcDbLine
 10
1749.999997701892
 20
65.50001537695016
 30
0.0
 11
1753.999997701892
 21
65.50001537669527
 31
0.0
  0
LINE
  5
E15
330
2
100
AcDbEntity
  8
0
  6
Continuous
 62
     7
100
AcDbLine
 10
1717.499997666502
 20
46.50001537840921
 30
0.0
 11
1757.499997666495
 21
46.50001537586445
 31
0.0
  0
LINE
  5
E16
330
2
100
AcDbEntity
  8
0
  6
Continuous
 62
     7
100
AcDbLine
 10
1717.499997666433
 20
45.40001544457846
 30
0.0
 11
1717.499997666502
 21
46.50001537840624
 31
0.0
  0
LINE
  5
E17
330
2
100
AcDbEntity
  8
0
  6
Continuous
 62
     7
100
AcDbLine
 10
1757.499997666424
 20
45.40001544457846
 30
0.0
 11
1757.499997666495
 21
46.50001537586127
 31
0.0
  0
LINE
  5
E18
330
2
100
AcDbEntity
  8
0
  6
Continuous
 62
     7
100
AcDbLine
 10
1717.499997665045
 20
23.50001537821731
 30
0.0
 11
1757.499997665025
 21
23.50001537567232
 31
0.0
  0
LINE
  5
E19
330
2
100
AcDbEntity
  8
0
  6
Continuous
 62
     7
100
AcDbLine
 10
1717.499997665045
 20
23.50001537821731
 30
0.0
 11
1717.499997665167
 21
25.40001544457938
 31
0.0
  0
LINE
  5
E1A
330
2
100
AcDbEntity
  8
0
  6
Continuous
 62
     7
100
AcDbLine
 10
1757.499997665025
 20
23.50001537567232
 30
0.0
 11
1757.499997665145
 21
25.40001544457938
 31
0.0
  0
LINE
  5
E1B
330
2
100
AcDbEntity
  8
0
  6
Continuous
 62
     7
100
AcDbLine
 10
1717.499997667583
 20
63.50001537869822
 30
0.0
 11
1757.499997667574
 21
63.50001537615208
 31
0.0
  0
LINE
  5
E1C
330
2
100
AcDbEntity
  8
0
  6
Continuous
 62
     9
100
AcDbLine
 10
1757.499997667382
 20
60.50001537596017
 30
0.0
 11
1717.499997667393
 21
60.5000153785054
 31
0.0
  0
LINE
  5
E1D
330
2
100
AcDbEntity
  8
0
  6
Continuous
 62
     7
100
AcDbLine
 10
1717.499997667393
 20
60.5000153785054
 30
0.0
 11
1717.499997667583
 21
63.50001537869434
 31
0.0
  0
LINE
  5
E1E
330
2
100
AcDbEntity
  8
0
  6
Continuous
 62
     7
100
AcDbLine
 10
1757.499997667574
 20
63.50001537615025
 30
0.0
 11
1757.499997667382
 21
60.50001537596017
 31
0.0
  0
LINE
  5
E1F
330
2
100
AcDbEntity
  8
0
  6
Continuous
 62
     7
100
AcDbLine
 10
1717.499997667266
 20
58.50001537850539
 30
0.0
 11
1757.499997667253
 21
58.50001537596018
 31
0.0
  0
LINE
  5
E20
330
2
100
AcDbEntity
  8
0
  6
Continuous
 62
     7
100
AcDbLine
 10
1717.499997667393
 20
60.5000153785054
 30
0.0
 11
1717.499997667266
 21
58.50001537850539
 31
0.0
  0
LINE
  5
E21
330
2
100
AcDbEntity
  8
0
  6
Continuous
 62
     7
100
AcDbLine
 10
1757.499997667382
 20
60.50001537596017
 30
0.0
 11
1757.499997667253
 21
58.50001537596018
 31
0.0
  0
ARC
  5
E22
330
2
100
AcDbEntity
  8
0
  6
Continuous
 62
     7
100
AcDbCircle
 10
1737.499997666915
 20
53.00001537819435
 30
0.0
 40
4.299999999999846
100
AcDbArc
 50
44.24072005367344
 51
135.7592799463359
  0
LINE
  5
E23
330
2
100
AcDbEntity
  8
0
  6
Continuous
 62
     7
100
AcDbLine
 10
1717.499997667266
 20
58.50001537946628
 30
0.0
 11
1717.499997667115
 21
56.00001544612428
 31
0.0
  0
LINE
  5
E24
330
2
100
AcDbEntity
  8
0
  6
Continuous
 62
     7
100
AcDbLine
 10
1717.499997666595
 20
48.00001544612314
 30
0.0
 11
1717.499997666502
 21
46.50001537946628
 31
0.0
  0
LINE
  5
E25
330
2
100
AcDbEntity
  8
0
  6
Continuous
 62
     7
100
AcDbLine
 10
1757.499997667253
 20
58.50001537692243
 30
0.0
 11
1757.499997667093
 21
56.00001544612928
 31
0.0
  0
LINE
  5
E26
330
2
100
AcDbEntity
  8
0
  6
Continuous
 62
     7
100
AcDbLine
 10
1757.499997666584
 20
48.00001544612928
 30
0.0
 11
1757.499997666495
 21
46.50001537692128
 31
0.0
  0
LINE
  5
E27
330
2
100
AcDbEntity
  8
0
  6
Continuous
 62
     7
100
AcDbLine
 10
1757.499997664967
 20
22.50001537583239
 30
0.0
 11
1722.499997664967
 21
22.50001537805929
 31
0.0
  0
LINE
  5
E28
330
2
100
AcDbEntity
  8
0
  6
Continuous
 62
     7
100
AcDbLine
 10
1722.499997664967
 20
22.50001537805929
 30
0.0
 11
1722.499997664934
 21
22.00001544625434
 31
0.0
  0
LINE
  5
E29
330
2
100
AcDbEntity
  8
0
  6
Continuous
 62
     7
100
AcDbLine
 10
1722.499997664425
 20
14.00001544625434
 30
0.0
 11
1722.499997664301
 21
12.00001537805929
 31
0.0
  0
LINE
  5
E2A
330
2
100
AcDbEntity
  8
0
  6
Continuous
 62
     7
100
AcDbLine
 10
1722.499997664301
 20
12.00001537805929
 30
0.0
 11
1723.499997664301
 21
12.00001537799539
 31
0.0
  0
LINE
  5
E2B
330
2
100
AcDbEntity
  8
0
  6
Continuous
 62
     7
100
AcDbLine
 10
1723.499997664301
 20
12.00001537799539
 30
0.0
 11
1755.499997664301
 21
12.00001537596017
 31
0.0
  0
LINE
  5
E2C
330
2
100
AcDbEntity
  8
0
  6
Continuous
 62
     7
100
AcDbLine
 10
1755.499997664301
 20
12.00001537596017
 30
0.0
 11
1757.499997664301
 21
12.00001537583239
 31
0.0
  0
LINE
  5
E2D
330
2
100
AcDbEntity
  8
0
  6
Continuous
 62
     7
100
AcDbLine
 10
1757.499997664301
 20
12.00001537583239
 30
0.0
 11
1757.499997664076
 21
8.50001537583239
 31
0.0
  0
LINE
  5
E2E
330
2
100
AcDbEntity
  8
0
  6
Continuous
 62
     7
100
AcDbLine
 10
1757.499997664076
 20
8.50001537583239
 30
0.0
 11
1719.499997664075
 21
8.500015378250282
 31
0.0
  0
ARC
  5
E2F
330
2
100
AcDbEntity
  8
0
  6
Continuous
 62
     7
100
AcDbCircle
 10
1719.499997664201
 20
10.50001537824937
 30
0.0
 40
1.999999999998889
100
AcDbArc
 50
179.9999999963523
 51
269.9999999963523
  0
LINE
  5
E30
330
2
100
AcDbEntity
  8
0
  6
Continuous
 62
     7
100
AcDbLine
 10
1757.499997665034
 20
23.50001537567232
 30
0.0
 11
1757.499997664967
 21
22.50001537583239
 31
0.0
  0
LINE
  5
E31
330
2
100
AcDbEntity
  8
0
  6
Continuous
 62
     7
100
AcDbLine
 10
1717.499997664201
 20
10.50001537837715
 30
0.0
 11
1717.499997665034
 21
23.50001537821731
 31
0.0
  0
LINE
  5
E32
330
2
100
AcDbEntity
  8
0
  6
Continuous
 62
     4
100
AcDbLine
 10
2328.499997664534
 20
22.00001544625434
 30
0.0
 11
1772.499997671843
 21
22.00001544625434
 31
0.0
  0
LINE
  5
E33
330
2
100
AcDbEntity
  8
0
  6
Continuous
 62
     4
100
AcDbLine
 10
1772.499997671843
 20
22.00001544625434
 30
0.0
 11
1771.951920748404
 21
22.00001544625434
 31
0.0
  0
LINE
  5
E34
330
2
100
AcDbEntity
  8
0
  6
Continuous
 62
     4
100
AcDbLine
 10
1771.951920748404
 20
22.00001544625434
 30
0.0
 11
1722.499997664534
 21
22.00001544625434
 31
0.0
  0
LINE
  5
E35
330
2
100
AcDbEntity
  8
0
  6
Continuous
 62
     4
100
AcDbLine
 10
1722.499997664534
 20
14.00001544625434
 30
0.0
 11
2328.499997664534
 21
14.00001544625434
 31
0.0
  0
LINE
  5
E36
330
2
100
AcDbEntity
  8
0
  6
Continuous
 62
     4
100
AcDbLine
 10
2328.499997664534
 20
14.00001544625434
 30
0.0
 11
2328.499997664534
 21
22.00001544625434
 31
0.0
  0
LINE
  5
E37
330
2
100
AcDbEntity
  8
0
  6
Continuous
 62
     4
100
AcDbLine
 10
1722.499997664534
 20
22.00001544625434
 30
0.0
 11
1722.499997664534
 21
14.00001544625434
 31
0.0
  0
LINE
  5
E38
330
2
100
AcDbEntity
  8
0
  6
Continuous
 62
     7
100
AcDbLine
 10
1150.499997664534
 20
800.0000155744041
 30
0.0
 11
1163.499997664534
 21
800.0000155744041
 31
0.0
  0
LINE
  5
E39
330
2
100
AcDbEntity
  8
0
  6
Continuous
 62
     7
100
AcDbLine
 10
1171.499997664534
 20
800.0000155744041
 30
0.0
 11
1181.499997665516
 21
800.0000155744041
 31
0.0
  0
LINE
  5
E3A
330
2
100
AcDbEntity
  8
0
  6
Continuous
 62
     7
100
AcDbLine
 10
1221.499997665503
 20
800.0000155744041
 30
0.0
 11
2278.499997664763
 21
800.0000155744041
 31
0.0
  0
LINE
  5
E3B
330
2
100
AcDbEntity
  8
0
  6
Continuous
 62
     7
100
AcDbLine
 10
2318.499997664763
 20
800.0000155744041
 30
0.0
 11
2328.499997664534
 21
800.0000155744041
 31
0.0
  0
LINE
  5
E3C
330
2
100
AcDbEntity
  8
0
  6
Continuous
 62
     7
100
AcDbLine
 10
2336.499997664534
 20
800.0000155744041
 30
0.0
 11
2350.499997664534
 21
800.0000155744041
 31
0.0
  0
LINE
  5
E3D
330
2
100
AcDbEntity
  8
0
  6
Continuous
 62
     7
100
AcDbLine
 10
2350.499997664534
 20
0.0000155744032782
 30
0.0
 11
1150.499997664534
 21
0.0000155744032782
 31
0.0
  0
ELLIPSE
  5
E3E
330
2
100
AcDbEntity
  8
0
  6
Continuous
 62
     9
100
AcDbEllipse
 10
2260.758964083125
 20
710.2589819929902
 30
0.0
 11
27.83488918612598
 21
27.83488918612553
 31
0.0
210
0.0
220
0.0
230
1.0
 40
0.8891264907160213
 41
5.556410252859888
 42
7.009960361499286
  0
LINE
  5
E3F
330
2
100
AcDbEntity
  8
0
  6
Continuous
 62
     9
100
AcDbLine
 10
1235.884050936802
 20
747.5052040296458
 30
0.0
 11
2265.115944392275
 21
747.5052040296458
 31
0.0
  0
ELLIPSE
  5
E40
330
2
100
AcDbEntity
  8
0
  6
Continuous
 62
     9
100
AcDbEllipse
 10
1240.241031245952
 20
710.2589819929902
 30
0.0
 11
-27.83488918612774
 21
27.8348891861273
 31
0.0
210
0.0
220
0.0
230
1.0
 40
0.8891264907159643
 41
5.556410252859888
 42
7.009960361499286
  0
LINE
  5
E41
330
2
100
AcDbEntity
  8
0
  6
Continuous
 62
     9
100
AcDbLine
 10
1202.994809209293
 20
85.38406884666731
 30
0.0
 11
1202.994809209293
 21
714.6159623021404
 31
0.0
  0
ELLIPSE
  5
E42
330
2
100
AcDbEntity
  8
0
  6
Continuous
 62
     9
100
AcDbEllipse
 10
1240.241031245952
 20
89.74104915581733
 30
0.0
 11
-27.83488918612777
 21
-27.83488918612709
 31
0.0
210
0.0
220
0.0
230
1.0
 40
0.8891264907159646
 41
5.556410252859888
 42
5.817015373287548
  0
LINE
  5
E43
330
2
100
AcDbEntity
  8
0
  6
Continuous
 62
     9
100
AcDbLine
 10
2265.115944392275
 20
52.49482711916107
 30
0.0
 11
1772.499997689185
 21
52.49482711916107
 31
0.0
  0
ELLIPSE
  5
E44
330
2
100
AcDbEntity
  8
0
  6
Continuous
 62
     9
100
AcDbEllipse
 10
2260.758964083125
 20
89.74104915581824
 30
0.0
 11
27.83488918612598
 21
-27.83488918612553
 31
0.0
210
0.0
220
0.0
230
1.0
 40
0.8891264907160227
 41
0.3658772930980797
 42
0.7267750543196963
  0
ELLIPSE
  5
E45
330
2
100
AcDbEntity
  8
0
  6
Continuous
 62
     9
100
AcDbEllipse
 10
2260.758964083125
 20
89.74104915581824
 30
0.0
 11
27.83488918612598
 21
-27.83488918612553
 31
0.0
210
0.0
220
0.0
230
1.0
 40
0.8891264907160227
 41
5.556410252859888
 42
5.917163506243872
  0
LINE
  5
E46
330
2
100
AcDbEntity
  8
0
  6
Continuous
 62
     9
100
AcDbLine
 10
2298.005186119782
 20
714.6159623021404
 30
0.0
 11
2298.005186119782
 21
85.38406884666731
 31
0.0
  0
LINE
  5
E47
330
2
100
AcDbEntity
  8
0
  6
Continuous
 62
     7
100
AcDbLine
 10
1150.499997664534
 20
0.0000155744032782
 30
0.0
 11
1150.499997664534
 21
800.0000155744041
 31
0.0
  0
LINE
  5
E48
330
2
100
AcDbEntity
  8
0
  6
Continuous
 62
     7
100
AcDbLine
 10
2350.499997664534
 20
800.0000155744041
 30
0.0
 11
2350.499997664534
 21
0.0000155744032782
 31
0.0
  0
ELLIPSE
  5
E49
330
2
100
AcDbEntity
  8
0
  6
Continuous
 62
     9
100
AcDbEllipse
 10
1240.241031245952
 20
710.2589819945911
 30
0.0
 11
-12.11720491336976
 21
12.11720491225732
 31
0.0
210
0.0
220
0.0
230
1.0
 40
0.5835560150004764
 41
5.556410252833122
 42
7.009960361472521
  0
LINE
  5
E4A
330
2
100
AcDbEntity
  8
0
  6
Continuous
 62
     9
100
AcDbLine
 10
1226.487124728943
 20
714.6159623037418
 30
0.0
 11
1202.994809209293
 21
714.6159623037418
 31
0.0
  0
LINE
  5
E4B
330
2
100
AcDbEntity
  8
0
  6
Continuous
 62
     9
100
AcDbLine
 10
1235.884050936802
 20
724.0128885110533
 30
0.0
 11
1235.884050936802
 21
747.5052040296458
 31
0.0
  0
LINE
  5
E4C
330
2
100
AcDbEntity
  8
0
  6
Continuous
 62
     9
100
AcDbLine
 10
2298.005186119782
 20
714.6159623037418
 30
0.0
 11
2274.512870600125
 21
714.6159623037418
 31
0.0
  0
ELLIPSE
  5
E4D
330
2
100
AcDbEntity
  8
0
  6
Continuous
 62
     9
100
AcDbEllipse
 10
2260.758964083125
 20
710.2589819945911
 30
0.0
 11
12.11720491336976
 21
12.11720491225732
 31
0.0
210
0.0
220
0.0
230
1.0
 40
0.5835560150004754
 41
5.556410252886651
 42
7.009960361526062
  0
LINE
  5
E4E
330
2
100
AcDbEntity
  8
0
  6
Continuous
 62
     9
100
AcDbLine
 10
2265.115944392275
 20
747.5052040296458
 30
0.0
 11
2265.115944392275
 21
724.0128885110533
 31
0.0
  0
LINE
  5
E4F
330
2
100
AcDbEntity
  8
0
  6
Continuous
 62
     9
100
AcDbLine
 10
2265.115944392275
 20
724.0128885110533
 30
0.0
 11
1235.884050936802
 21
724.0128885110533
 31
0.0
  0
LINE
  5
E50
330
2
100
AcDbEntity
  8
0
  6
Continuous
 62
     9
100
AcDbLine
 10
1226.487124728943
 20
714.615962303193
 30
0.0
 11
1226.487124728943
 21
85.38406884772234
 31
0.0
  0
LINE
  5
E51
330
2
100
AcDbEntity
  8
0
  6
Continuous
 62
     9
100
AcDbLine
 10
1226.487124728943
 20
85.38406884827031
 30
0.0
 11
1202.994809209293
 21
85.38406884827031
 31
0.0
  0
LINE
  5
E52
330
2
100
AcDbEntity
  8
0
  6
Continuous
 62
     9
100
AcDbLine
 10
2298.005186119782
 20
85.38406884827031
 30
0.0
 11
2274.512870600125
 21
85.38406884827031
 31
0.0
  0
LINE
  5
E53
330
2
100
AcDbEntity
  8
0
  6
Continuous
 62
     9
100
AcDbLine
 10
2274.512870600125
 20
85.38406884772234
 30
0.0
 11
2274.512870600125
 21
714.615962303193
 31
0.0
  0
ELLIPSE
  5
E54
330
2
100
AcDbEntity
  8
0
  6
Continuous
 62
     9
100
AcDbEllipse
 10
1240.241031245952
 20
89.74104915741918
 30
0.0
 11
-12.11720491298962
 21
-12.11720491410206
 31
0.0
210
0.0
220
0.0
230
1.0
 40
0.5835560149651703
 41
5.556410252833122
 42
7.009960361472518
  0
LINE
  5
E55
330
2
100
AcDbEntity
  8
0
  6
Continuous
 62
     9
100
AcDbLine
 10
1235.884050936802
 20
75.98714263986335
 30
0.0
 11
1235.884050936802
 21
63.00001544473116
 31
0.0
  0
LINE
  5
E56
330
2
100
AcDbEntity
  8
0
  6
Continuous
 62
     9
100
AcDbLine
 10
2265.115944392275
 20
52.49482711916107
 30
0.0
 11
2265.115944392275
 21
75.98714263986335
 31
0.0
  0
ELLIPSE
  5
E57
330
2
100
AcDbEntity
  8
0
  6
Continuous
 62
     9
100
AcDbEllipse
 10
2260.758964083125
 20
89.74104915742008
 30
0.0
 11
12.11720491299139
 21
-12.11720491410206
 31
0.0
210
0.0
220
0.0
230
1.0
 40
0.5835560149651704
 41
5.556410252886648
 42
7.009960361526038
  0
LINE
  5
E58
330
2
100
AcDbEntity
  8
0
  6
Continuous
 62
     9
100
AcDbLine
 10
1235.884050936802
 20
75.98714263986335
 30
0.0
 11
2265.115944392275
 21
75.98714263986335
 31
0.0
  0
ELLIPSE
  5
E59
330
2
100
AcDbEntity
  8
0
  6
Continuous
 62
     9
100
AcDbEllipse
 10
1242.060882417276
 20
708.4391308235812
 30
0.0
 11
7.071067811242667
 21
7.071067812487896
 31
0.0
210
0.0
220
0.0
230
0.9999999999999998
 40
0.8891264907367228
 41
0.8440212723762744
 42
2.297571381015582
  0
LINE
  5
E5A
330
2
100
AcDbEntity
  8
0
  6
Continuous
 62
     9
100
AcDbLine
 10
1232.663956209415
 20
708.4391308237991
 30
0.0
 11
1226.487124728943
 21
714.615962303193
 31
0.0
  0
LINE
  5
E5B
330
2
100
AcDbEntity
  8
0
  6
Continuous
 62
     9
100
AcDbLine
 10
1235.884050936802
 20
724.0128885110533
 30
0.0
 11
1242.060882417276
 21
717.8360570316595
 31
0.0
  0
ELLIPSE
  5
E5C
330
2
100
AcDbEntity
  8
0
  6
Continuous
 62
     9
100
AcDbEllipse
 10
2258.939112911792
 20
708.4391308235812
 30
0.0
 11
7.07106781124267
 21
-7.071067812487452
 31
0.0
210
0.0
220
0.0
230
1.0
 40
0.8891264907367229
 41
0.8440212725742528
 42
2.297571381214226
  0
LINE
  5
E5D
330
2
100
AcDbEntity
  8
0
  6
Continuous
 62
     9
100
AcDbLine
 10
2258.939112911785
 20
717.8360570316595
 30
0.0
 11
2265.115944392275
 21
724.0128885110533
 31
0.0
  0
LINE
  5
E5E
330
2
100
AcDbEntity
  8
0
  6
Continuous
 62
     9
100
AcDbLine
 10
2274.512870600125
 20
714.615962303193
 30
0.0
 11
2268.336039119644
 21
708.4391308237991
 31
0.0
  0
ELLIPSE
  5
E5F
330
2
100
AcDbEntity
  8
0
  6
Continuous
 62
     9
100
AcDbEllipse
 10
1242.060882417276
 20
91.56090032907105
 30
0.0
 11
-7.071067812487896
 21
7.071067811242226
 31
0.0
210
0.0
220
0.0
230
1.0
 40
0.8891264906952526
 41
0.8440212723763917
 42
2.297571381015864
  0
LINE
  5
E60
330
2
100
AcDbEntity
  8
0
  6
Continuous
 62
     9
100
AcDbLine
 10
1242.060882417276
 20
82.16397412143145
 30
0.0
 11
1235.884050936802
 21
75.98714263986335
 31
0.0
  0
LINE
  5
E61
330
2
100
AcDbEntity
  8
0
  6
Continuous
 62
     9
100
AcDbLine
 10
1226.487124728943
 20
85.38406884772234
 30
0.0
 11
1232.663956209415
 21
91.56090032929023
 31
0.0
  0
ELLIPSE
  5
E62
330
2
100
AcDbEntity
  8
0
  6
Continuous
 62
     9
100
AcDbEllipse
 10
2258.939112911792
 20
91.56090032907105
 30
0.0
 11
-7.071067812489674
 21
-7.071067811244004
 31
0.0
210
0.0
220
0.0
230
1.0
 40
0.8891264906952526
 41
0.8440212725741778
 42
2.29757138121374
  0
LINE
  5
E63
330
2
100
AcDbEntity
  8
0
  6
Continuous
 62
     9
100
AcDbLine
 10
2268.336039119644
 20
91.56090032929023
 30
0.0
 11
2274.512870600125
 21
85.38406884772234
 31
0.0
  0
LINE
  5
E64
330
2
100
AcDbEntity
  8
0
  6
Continuous
 62
     9
100
AcDbLine
 10
2265.115944392275
 20
75.98714263986335
 30
0.0
 11
2258.939112911792
 21
82.16397412143145
 31
0.0
  0
LINE
  5
E65
330
2
100
AcDbEntity
  8
0
  6
Continuous
 62
     9
100
AcDbLine
 10
1242.060882417276
 20
717.8360570316595
 30
0.0
 11
2258.939112911785
 21
717.8360570316595
 31
0.0
  0
LINE
  5
E66
330
2
100
AcDbEntity
  8
0
  6
Continuous
 62
     9
100
AcDbLine
 10
2268.336039119644
 20
708.4391308237991
 30
0.0
 11
2268.336039119644
 21
91.56090032929023
 31
0.0
  0
LINE
  5
E67
330
2
100
AcDbEntity
  8
0
  6
Continuous
 62
     9
100
AcDbLine
 10
1232.663956209415
 20
91.56090032929023
 30
0.0
 11
1232.663956209415
 21
708.4391308237991
 31
0.0
  0
LINE
  5
E68
330
2
100
AcDbEntity
  8
0
  6
Continuous
 62
     9
100
AcDbLine
 10
2258.939112911792
 20
82.16397412143145
 30
0.0
 11
1242.060882417276
 21
82.16397412143145
 31
0.0
  0
LINE
  5
E69
330
2
100
AcDbEntity
  8
0
  6
Continuous
 62
     9
100
AcDbLine
 10
2258.939112911785
 20
717.8360570316595
 30
0.0
 11
2258.939112911792
 21
708.4391308242211
 31
0.0
  0
LINE
  5
E6A
330
2
100
AcDbEntity
  8
0
  6
Continuous
 62
     9
100
AcDbLine
 10
2268.336039119644
 20
708.4391308235812
 30
0.0
 11
2258.939112911792
 21
708.4391308235812
 31
0.0
  0
LINE
  5
E6B
330
2
100
AcDbEntity
  8
0
  6
Continuous
 62
     9
100
AcDbLine
 10
1232.663956209415
 20
708.4391308235812
 30
0.0
 11
1242.060882417276
 21
708.4391308235812
 31
0.0
  0
LINE
  5
E6C
330
2
100
AcDbEntity
  8
0
  6
Continuous
 62
     9
100
AcDbLine
 10
1242.060882417276
 20
717.8360570316595
 30
0.0
 11
1242.060882417276
 21
708.4391308242211
 31
0.0
  0
LINE
  5
E6D
330
2
100
AcDbEntity
  8
0
  6
Continuous
 62
     9
100
AcDbLine
 10
2258.939112911792
 20
708.4391308242211
 30
0.0
 11
1242.060882417276
 21
708.4391308242211
 31
0.0
  0
LINE
  5
E6E
330
2
100
AcDbEntity
  8
0
  6
Continuous
 62
     9
100
AcDbLine
 10
2258.939112911792
 20
91.56090032971224
 30
0.0
 11
2258.939112911792
 21
708.4391308242211
 31
0.0
  0
LINE
  5
E6F
330
2
100
AcDbEntity
  8
0
  6
Continuous
 62
     9
100
AcDbLine
 10
2258.939112911792
 20
91.56090032907105
 30
0.0
 11
2268.336039119644
 21
91.56090032907105
 31
0.0
  0
LINE
  5
E70
330
2
100
AcDbEntity
  8
0
  6
Continuous
 62
     9
100
AcDbLine
 10
1242.060882417276
 20
708.4391308242211
 30
0.0
 11
1242.060882417276
 21
91.56090032971224
 31
0.0
  0
LINE
  5
E71
330
2
100
AcDbEntity
  8
0
  6
Continuous
 62
     9
100
AcDbLine
 10
1242.060882417276
 20
91.56090032907105
 30
0.0
 11
1232.663956209415
 21
91.56090032907105
 31
0.0
  0
LINE
  5
E72
330
2
100
AcDbEntity
  8
0
  6
Continuous
 62
     9
100
AcDbLine
 10
2258.939112911792
 20
91.56090032971224
 30
0.0
 11
2258.939112911792
 21
82.16397412143145
 31
0.0
  0
LINE
  5
E73
330
2
100
AcDbEntity
  8
0
  6
Continuous
 62
     9
100
AcDbLine
 10
1242.060882417276
 20
91.56090032971224
 30
0.0
 11
1242.060882417276
 21
82.16397412143145
 31
0.0
  0
LINE
  5
E74
330
2
100
AcDbEntity
  8
0
  6
Continuous
 62
     9
100
AcDbLine
 10
1242.060882417276
 20
91.56090032971224
 30
0.0
 11
2258.939112911792
 21
91.56090032971224
 31
0.0
  0
LINE
  5
E75
330
2
100
AcDbEntity
  8
0
  6
Continuous
 62
     9
100
AcDbLine
 10
1171.499997664534
 20
32.02501544458029
 30
0.0
 11
1173.499997664614
 21
32.02501544458029
 31
0.0
  0
LINE
  5
E76
330
2
100
AcDbEntity
  8
0
  6
Continuous
 62
     9
100
AcDbLine
 10
1173.499997665052
 20
38.77501544457937
 30
0.0
 11
1171.499997664534
 21
38.77501544457937
 31
0.0
  0
LINE
  5
E77
330
2
100
AcDbEntity
  8
0
  6
Continuous
 62
     9
100
AcDbLine
 10
2328.499997711924
 20
38.77501544457937
 30
0.0
 11
2326.499997712075
 21
38.77501544457937
 31
0.0
  0
LINE
  5
E78
330
2
100
AcDbEntity
  8
0
  6
Continuous
 62
     9
100
AcDbLine
 10
2326.499997711624
 20
32.02501544457938
 30
0.0
 11
2328.499997712345
 21
32.02501544457938
 31
0.0
  0
LINE
  5
E79
330
2
100
AcDbEntity
  8
0
  6
Continuous
 62
     9
100
AcDbLine
 10
1721.624997667702
 20
65.50001537875528
 30
0.0
 11
1721.624997667573
 21
63.50003537875521
 31
0.0
  0
LINE
  5
E7A
330
2
100
AcDbEntity
  8
0
  6
Continuous
 62
     9
100
AcDbLine
 10
1721.624997667253
 20
58.49999537881718
 30
0.0
 11
1721.624997667215
 21
57.87501537875527
 31
0.0
  0
LINE
  5
E7B
330
2
100
AcDbEntity
  8
0
  6
Continuous
 62
     9
100
AcDbLine
 10
1728.374997667215
 20
57.87501537832621
 30
0.0
 11
1728.374997667253
 21
58.49999537838812
 31
0.0
  0
LINE
  5
E7C
330
2
100
AcDbEntity
  8
0
  6
Continuous
 62
     9
100
AcDbLine
 10
1728.374997667573
 20
63.50003537832616
 30
0.0
 11
1728.374997667702
 21
65.50001537832532
 31
0.0
  0
LINE
  5
E7D
330
2
100
AcDbEntity
  8
0
  6
Continuous
 62
     9
100
AcDbLine
 10
1746.624997701892
 20
65.50001537716525
 30
0.0
 11
1746.624997701776
 21
63.50003537713542
 31
0.0
  0
LINE
  5
E7E
330
2
100
AcDbEntity
  8
0
  6
Continuous
 62
     9
100
AcDbLine
 10
1746.624997701452
 20
58.49999537725626
 30
0.0
 11
1746.624997701416
 21
57.87501537716526
 31
0.0
  0
LINE
  5
E7F
330
2
100
AcDbEntity
  8
0
  6
Continuous
 62
     9
100
AcDbLine
 10
1753.374997701416
 20
57.87501537673528
 30
0.0
 11
1753.374997701452
 21
58.49999537682628
 31
0.0
  0
LINE
  5
E80
330
2
100
AcDbEntity
  8
0
  6
Continuous
 62
     9
100
AcDbLine
 10
1753.374997701776
 20
63.50003537670636
 30
0.0
 11
1753.374997701892
 21
65.50001537673529
 31
0.0
  0
LINE
  5
E81
330
2
100
AcDbEntity
  8
0
  6
Continuous
 62
     7
100
AcDbLine
 10
1162.299997663504
 20
27.40001544456732
 30
0.0
 11
1162.499997663504
 21
27.40001544454117
 31
0.0
  0
LINE
  5
E82
330
2
100
AcDbEntity
  8
0
  6
Continuous
 62
     7
100
AcDbLine
 10
1162.499997665574
 20
43.40001544454117
 30
0.0
 11
1162.299997665574
 21
43.40001544456732
 31
0.0
  0
LINE
  5
E83
330
2
100
AcDbEntity
  8
0
  6
Continuous
 62
     7
100
AcDbLine
 10
1162.099997664034
 20
27.40001544458028
 30
0.0
 11
1162.299997664033
 21
27.40001544456732
 31
0.0
  0
LINE
  5
E84
330
2
100
AcDbEntity
  8
0
  6
Continuous
 62
     7
100
AcDbLine
 10
1162.299997665051
 20
43.40001544456732
 30
0.0
 11
1162.099997665051
 21
43.40001544458027
 31
0.0
  0
LINE
  5
E85
330
2
100
AcDbEntity
  8
0
  6
Continuous
 62
     7
100
AcDbLine
 10
1163.499997665345
 20
47.4000154440821
 30
0.0
 11
1162.499997665345
 21
47.40001544414917
 31
0.0
  0
LINE
  5
E86
330
2
100
AcDbEntity
  8
0
  6
Continuous
 62
     7
100
AcDbLine
 10
1162.499997663734
 20
23.40001544415009
 30
0.0
 11
1163.499997663733
 21
23.4000154440821
 31
0.0
  0
LINE
  5
E87
330
2
100
AcDbEntity
  8
0
  6
Continuous
 62
     7
100
AcDbLine
 10
1171.499997664534
 20
31.40001544458029
 30
0.0
 11
1173.499997664565
 21
31.40001544458029
 31
0.0
  0
LINE
  5
E88
330
2
100
AcDbEntity
  8
0
  6
Continuous
 62
     7
100
AcDbLine
 10
1173.499997665092
 20
39.40001544458027
 30
0.0
 11
1171.499997664534
 21
39.40001544458027
 31
0.0
  0
LINE
  5
E89
330
2
100
AcDbEntity
  8
0
  6
Continuous
 62
     7
100
AcDbLine
 10
1157.099997664543
 20
22.90001544458029
 30
0.0
 11
1162.099997664534
 21
22.90001544458029
 31
0.0
  0
LINE
  5
E8A
330
2
100
AcDbEntity
  8
0
  6
Continuous
 62
     7
100
AcDbLine
 10
1162.099997664534
 20
47.90001544458028
 30
0.0
 11
1157.099997664543
 21
47.90001544458028
 31
0.0
  0
LINE
  5
E8B
330
2
100
AcDbEntity
  8
0
  6
Continuous
 62
     7
100
AcDbLine
 10
1157.099997664543
 20
47.90001544458028
 30
0.0
 11
1156.099997664534
 21
46.90001544458026
 31
0.0
  0
LINE
  5
E8C
330
2
100
AcDbEntity
  8
0
  6
Continuous
 62
     7
100
AcDbLine
 10
1156.099997664534
 20
23.90001544457938
 30
0.0
 11
1157.099997664543
 21
22.90001544458029
 31
0.0
  0
LINE
  5
E8D
330
2
100
AcDbEntity
  8
0
  6
Continuous
 62
     7
100
AcDbLine
 10
1174.499997665625
 20
47.40001544335722
 30
0.0
 11
1173.750485457843
 21
47.40001544340747
 31
0.0
  0
LINE
  5
E8E
330
2
100
AcDbEntity
  8
0
  6
Continuous
 62
     7
100
AcDbLine
 10
1173.499997664043
 20
23.40001544342317
 30
0.0
 11
1174.499997664043
 21
23.40001544335724
 31
0.0
  0
ARC
  5
E8F
330
2
100
AcDbEntity
  8
0
  6
Continuous
 62
     7
100
AcDbCircle
 10
1174.999997666416
 20
47.40001544329106
 30
0.0
 40
0.5000000000001671
100
AcDbArc
 50
89.99999999249613
 51
179.99999999247
  0
ARC
  5
E90
330
2
100
AcDbEntity
  8
0
  6
Continuous
 62
     7
100
AcDbCircle
 10
1174.999997663242
 20
23.40001544329107
 30
0.0
 40
0.4999999999988347
100
AcDbArc
 50
179.999999992444
 51
269.9999999923919
  0
LINE
  5
E91
330
2
100
AcDbEntity
  8
0
  6
Continuous
 62
     7
100
AcDbLine
 10
1177.999997666484
 20
47.9000154428961
 30
0.0
 11
1174.999997666484
 21
47.90001544329107
 31
0.0
  0
LINE
  5
E92
330
2
100
AcDbEntity
  8
0
  6
Continuous
 62
     7
100
AcDbLine
 10
1174.999997663184
 20
22.90001544329107
 30
0.0
 11
1177.999997663184
 21
22.90001544289612
 31
0.0
  0
LINE
  5
E93
330
2
100
AcDbEntity
  8
0
  6
Continuous
 62
     7
100
AcDbLine
 10
1177.999997663184
 20
22.90001544289612
 30
0.0
 11
1179.499997663384
 21
24.40001544269717
 31
0.0
  0
LINE
  5
E94
330
2
100
AcDbEntity
  8
0
  6
Continuous
 62
     7
100
AcDbLine
 10
1178.299998729924
 20
47.60001437936829
 30
0.0
 11
1177.999997666484
 21
47.9000154428961
 31
0.0
  0
LINE
  5
E95
330
2
100
AcDbEntity
  8
0
  6
Continuous
 62
     7
100
AcDbLine
 10
2337.699997713174
 20
43.40001544459233
 30
0.0
 11
2337.499997713174
 21
43.40001544461824
 31
0.0
  0
LINE
  5
E96
330
2
100
AcDbEntity
  8
0
  6
Continuous
 62
     7
100
AcDbLine
 10
2337.499997711104
 20
27.40001544461825
 30
0.0
 11
2337.699997711105
 21
27.40001544459233
 31
0.0
  0
LINE
  5
E97
330
2
100
AcDbEntity
  8
0
  6
Continuous
 62
     7
100
AcDbLine
 10
2337.899997712644
 20
43.40001544457936
 30
0.0
 11
2337.699997712654
 21
43.40001544459233
 31
0.0
  0
LINE
  5
E98
330
2
100
AcDbEntity
  8
0
  6
Continuous
 62
     7
100
AcDbLine
 10
2337.699997711625
 20
27.40001544459233
 30
0.0
 11
2337.899997711624
 21
27.40001544457938
 31
0.0
  0
LINE
  5
E99
330
2
100
AcDbEntity
  8
0
  6
Continuous
 62
     7
100
AcDbLine
 10
2336.499997711333
 20
23.40001544507732
 30
0.0
 11
2337.499997711333
 21
23.40001544501024
 31
0.0
  0
LINE
  5
E9A
330
2
100
AcDbEntity
  8
0
  6
Continuous
 62
     7
100
AcDbLine
 10
2337.499997712944
 20
47.40001544500932
 30
0.0
 11
2336.499997712943
 21
47.40001544507731
 31
0.0
  0
LINE
  5
E9B
330
2
100
AcDbEntity
  8
0
  6
Continuous
 62
     7
100
AcDbLine
 10
2328.499997711893
 20
39.40001544457937
 30
0.0
 11
2326.499997712115
 21
39.40001544457937
 31
0.0
  0
LINE
  5
E9C
330
2
100
AcDbEntity
  8
0
  6
Continuous
 62
     7
100
AcDbLine
 10
2326.499997711584
 20
31.40001544457938
 30
0.0
 11
2328.499997712382
 21
31.40001544457938
 31
0.0
  0
LINE
  5
E9D
330
2
100
AcDbEntity
  8
0
  6
Continuous
 62
     7
100
AcDbLine
 10
2342.899997712144
 20
47.90001544458028
 30
0.0
 11
2337.899997712135
 21
47.90001544458028
 31
0.0
  0
LINE
  5
E9E
330
2
100
AcDbEntity
  8
0
  6
Continuous
 62
     7
100
AcDbLine
 10
2337.899997712135
 20
22.90001544458029
 30
0.0
 11
2342.899997712144
 21
22.90001544458029
 31
0.0
  0
LINE
  5
E9F
330
2
100
AcDbEntity
  8
0
  6
Continuous
 62
     7
100
AcDbLine
 10
2342.899997712144
 20
22.90001544458029
 30
0.0
 11
2343.899997712135
 21
23.90001544457938
 31
0.0
  0
LINE
  5
EA0
330
2
100
AcDbEntity
  8
0
  6
Continuous
 62
     7
100
AcDbLine
 10
2343.899997712135
 20
46.90001544458026
 30
0.0
 11
2342.899997712144
 21
47.90001544458028
 31
0.0
  0
LINE
  5
EA1
330
2
100
AcDbEntity
  8
0
  6
Continuous
 62
     7
100
AcDbLine
 10
2325.499997711055
 20
23.40001544580241
 30
0.0
 11
2326.499997711055
 21
23.40001544573647
 31
0.0
  0
LINE
  5
EA2
330
2
100
AcDbEntity
  8
0
  6
Continuous
 62
     7
100
AcDbLine
 10
2326.499997712636
 20
47.40001544573646
 30
0.0
 11
2325.499997712635
 21
47.4000154458024
 31
0.0
  0
LINE
  5
EA3
330
2
100
AcDbEntity
  8
0
  6
Continuous
 62
     7
100
AcDbLine
 10
2321.999997713494
 20
47.90001544626328
 30
0.0
 11
2320.499997713294
 21
46.40001544646135
 31
0.0
  0
LINE
  5
EA4
330
2
100
AcDbEntity
  8
0
  6
Continuous
 62
     7
100
AcDbLine
 10
2320.499997710393
 20
24.40001544646134
 30
0.0
 11
2321.999997710193
 21
22.90001544626421
 31
0.0
  0
LINE
  5
EA5
330
2
100
AcDbEntity
  8
0
  6
Continuous
 62
     7
100
AcDbLine
 10
2321.999997710193
 20
22.90001544626421
 30
0.0
 11
2324.999997710206
 21
22.90001544586836
 31
0.0
  0
LINE
  5
EA6
330
2
100
AcDbEntity
  8
0
  6
Continuous
 62
     7
100
AcDbLine
 10
2324.999997713494
 20
47.90001544586835
 30
0.0
 11
2321.999997713494
 21
47.90001544626328
 31
0.0
  0
ARC
  5
EA7
330
2
100
AcDbEntity
  8
0
  6
Continuous
 62
     7
100
AcDbCircle
 10
2324.999997710264
 20
23.40001544586836
 30
0.0
 40
0.5000000000001671
100
AcDbArc
 50
269.9999999924961
 51
359.999999992431
  0
ARC
  5
EA8
330
2
100
AcDbEntity
  8
0
  6
Continuous
 62
     7
100
AcDbCircle
 10
2324.999997713425
 20
47.40001544586743
 30
0.0
 40
0.5000000000023876
100
AcDbArc
 50
359.9999999924701
 51
89.99999999249613
  0
ARC
  5
EA9
330
2
100
AcDbEntity
  8
0
  6
Continuous
 62
     7
100
AcDbCircle
 10
2325.499997710584
 20
48.50001544288648
 30
0.0
 40
0.4999999999988347
100
AcDbArc
 50
180.0000000035565
 51
270.0000000035435
  0
ARC
  5
EAA
330
2
100
AcDbEntity
  8
0
  6
Continuous
 62
     7
100
AcDbCircle
 10
2325.499997708785
 20
77.50001544288649
 30
0.0
 40
0.4999999999997229
100
AcDbArc
 50
90.00000000343927
 51
180.0000000034653
  0
LINE
  5
EAB
330
2
100
AcDbEntity
  8
0
  6
Continuous
 62
     7
100
AcDbLine
 10
2325.499997710613
 20
48.00001544288647
 30
0.0
 11
2327.999997710612
 21
48.00001544304109
 31
0.0
  0
LINE
  5
EAC
330
2
100
AcDbEntity
  8
0
  6
Continuous
 62
     7
100
AcDbLine
 10
2327.999997708756
 20
78.00001544304109
 30
0.0
 11
2325.499997708743
 21
78.00001544288647
 31
0.0
  0
LINE
  5
EAD
330
2
100
AcDbEntity
  8
0
  6
Continuous
 62
     7
100
AcDbLine
 10
2302.499997714764
 20
22.50001544003112
 30
0.0
 11
2302.499997714452
 21
25.00001544003112
 31
0.0
  0
ARC
  5
EAE
330
2
100
AcDbEntity
  8
0
  6
Continuous
 62
     7
100
AcDbCircle
 10
2301.999997714453
 20
25.00001543996928
 30
0.0
 40
0.4999999999988347
100
AcDbArc
 50
0.0000000072042362
 51
53.13010323466998
  0
LINE
  5
EAF
330
2
100
AcDbEntity
  8
0
  6
Continuous
 62
     7
100
AcDbLine
 10
2328.499997708794
 20
77.25001544307315
 30
0.0
 11
2327.999997708943
 21
77.25001544304245
 31
0.0
  0
LINE
  5
EB0
330
2
100
AcDbEntity
  8
0
  6
Continuous
 62
     7
100
AcDbLine
 10
2327.999997710726
 20
48.75001544304109
 30
0.0
 11
2328.499997710574
 21
48.75001544307314
 31
0.0
  0
LINE
  5
EB1
330
2
100
AcDbEntity
  8
0
  6
Continuous
 62
     7
100
AcDbLine
 10
2301.749997714825
 20
22.00001543993721
 30
0.0
 11
2301.749997714764
 21
22.50001544039446
 31
0.0
  0
LINE
  5
EB2
330
2
100
AcDbEntity
  8
0
  6
Continuous
 62
     7
100
AcDbLine
 10
1171.999997666595
 20
773.2500154463322
 30
0.0
 11
1171.499997666274
 21
773.2500154462991
 31
0.0
  0
LINE
  5
EB3
330
2
100
AcDbEntity
  8
0
  6
Continuous
 62
     7
100
AcDbLine
 10
1171.499997668143
 20
744.7500154462991
 30
0.0
 11
1171.999997666644
 21
744.7500154463321
 31
0.0
  0
ARC
  5
EB4
330
2
100
AcDbEntity
  8
0
  6
Continuous
 62
     7
100
AcDbCircle
 10
1174.499997667182
 20
773.5000154463672
 30
0.0
 40
0.4999999999988347
100
AcDbArc
 50
0.0000000001042204
 51
90.0000000001042
  0
ARC
  5
EB5
330
2
100
AcDbEntity
  8
0
  6
Continuous
 62
     7
100
AcDbCircle
 10
1174.499997667233
 20
744.5000154463683
 30
0.0
 40
0.5000000000001671
100
AcDbArc
 50
270.0
 51
0.0
  0
LINE
  5
EB6
330
2
100
AcDbEntity
  8
0
  6
Continuous
 62
     7
100
AcDbLine
 10
1174.499997667182
 20
774.0000154463672
 30
0.0
 11
1171.999997667182
 21
774.0000154463642
 31
0.0
  0
LINE
  5
EB7
330
2
100
AcDbEntity
  8
0
  6
Continuous
 62
     7
100
AcDbLine
 10
1171.999997667233
 20
744.0000154463632
 30
0.0
 11
1174.499997667233
 21
744.0000154463682
 31
0.0
  0
LINE
  5
EB8
330
2
100
AcDbEntity
  8
0
  6
Continuous
 62
     7
100
AcDbLine
 10
2327.999997670073
 20
744.7500154422582
 30
0.0
 11
2328.499997669164
 21
744.7500154422892
 31
0.0
  0
LINE
  5
EB9
330
2
100
AcDbEntity
  8
0
  6
Continuous
 62
     7
100
AcDbLine
 10
2328.499997667393
 20
773.2500154422893
 30
0.0
 11
2327.999997666484
 21
773.2500154422582
 31
0.0
  0
ARC
  5
EBA
330
2
100
AcDbEntity
  8
0
  6
Continuous
 62
     7
100
AcDbCircle
 10
2325.499997670113
 20
744.5000154419752
 30
0.0
 40
0.5000000000023876
100
AcDbArc
 50
180.0000000072303
 51
270.0000000071912
  0
ARC
  5
EBB
330
2
100
AcDbEntity
  8
0
  6
Continuous
 62
     7
100
AcDbCircle
 10
2325.499997666444
 20
773.5000154419752
 30
0.0
 40
0.5000000000001671
100
AcDbArc
 50
90.0000000072954
 51
180.0000000073215
  0
LINE
  5
EBC
330
2
100
AcDbEntity
  8
0
  6
Continuous
 62
     7
100
AcDbLine
 10
2325.499997670173
 20
744.0000154419744
 30
0.0
 11
2327.999997670173
 21
744.00001544229
 31
0.0
  0
LINE
  5
EBD
330
2
100
AcDbEntity
  8
0
  6
Continuous
 62
     7
100
AcDbLine
 10
2327.999997666384
 20
774.0000154422902
 30
0.0
 11
2325.499997666384
 21
774.0000154419743
 31
0.0
  0
LINE
  5
EBE
330
2
100
AcDbEntity
  8
0
  6
Continuous
 62
     7
100
AcDbLine
 10
2287.499997664583
 20
13.00001544533825
 30
0.0
 11
2287.499997664514
 21
14.00001544533825
 31
0.0
  0
LINE
  5
EBF
330
2
100
AcDbEntity
  8
0
  6
Continuous
 62
     7
100
AcDbLine
 10
2263.499997664514
 20
14.00001544382212
 30
0.0
 11
2263.499997664583
 21
13.00001544382212
 31
0.0
  0
LINE
  5
EC0
330
2
100
AcDbEntity
  8
0
  6
Continuous
 62
     7
100
AcDbLine
 10
2262.999997664583
 20
7.300015444580139
 30
0.0
 11
2263.299997664582
 21
7.000015444580184
 31
0.0
  0
LINE
  5
EC1
330
2
100
AcDbEntity
  8
0
  6
Continuous
 62
     7
100
AcDbLine
 10
2287.699997664582
 20
7.000015444580184
 30
0.0
 11
2287.999997664583
 21
7.300015444580139
 31
0.0
  0
LINE
  5
EC2
330
2
100
AcDbEntity
  8
0
  6
Continuous
 62
     7
100
AcDbLine
 10
2262.999997664583
 20
13.00001544458018
 30
0.0
 11
2262.999997664583
 21
7.300015444580139
 31
0.0
  0
LINE
  5
EC3
330
2
100
AcDbEntity
  8
0
  6
Continuous
 62
     7
100
AcDbLine
 10
2287.999997664583
 20
7.300015444580139
 30
0.0
 11
2287.999997664583
 21
13.00001544458018
 31
0.0
  0
LINE
  5
EC4
330
2
100
AcDbEntity
  8
0
  6
Continuous
 62
     7
100
AcDbLine
 10
2262.999997664583
 20
23.50001544457928
 30
0.0
 11
2262.999997664583
 21
22.00001544457927
 31
0.0
  0
LINE
  5
EC5
330
2
100
AcDbEntity
  8
0
  6
Continuous
 62
     7
100
AcDbLine
 10
2287.999997664583
 20
22.00001544458132
 30
0.0
 11
2287.999997664583
 21
23.50001544458132
 31
0.0
  0
LINE
  5
EC6
330
2
100
AcDbEntity
  8
0
  6
Continuous
 62
     7
100
AcDbLine
 10
2287.999997664583
 20
23.50001544458132
 30
0.0
 11
2282.499997664583
 21
25.00001544458019
 31
0.0
  0
LINE
  5
EC7
330
2
100
AcDbEntity
  8
0
  6
Continuous
 62
     7
100
AcDbLine
 10
2268.499997664576
 20
25.00001544458019
 30
0.0
 11
2262.999997664583
 21
23.50001544457928
 31
0.0
  0
LINE
  5
EC8
330
2
100
AcDbEntity
  8
0
  6
Continuous
 62
     7
100
AcDbLine
 10
1787.499997664603
 20
13.00001544533734
 30
0.0
 11
1787.499997664534
 21
14.00001544533734
 31
0.0
  0
LINE
  5
EC9
330
2
100
AcDbEntity
  8
0
  6
Continuous
 62
     7
100
AcDbLine
 10
1763.499997664534
 20
14.00001544382121
 30
0.0
 11
1763.499997664603
 21
13.00001544382121
 31
0.0
  0
LINE
  5
ECA
330
2
100
AcDbEntity
  8
0
  6
Continuous
 62
     7
100
AcDbLine
 10
1762.999997664603
 20
7.30001544457923
 30
0.0
 11
1763.299997664602
 21
7.000015444579275
 31
0.0
  0
LINE
  5
ECB
330
2
100
AcDbEntity
  8
0
  6
Continuous
 62
     7
100
AcDbLine
 10
1787.699997664602
 20
7.000015444579275
 30
0.0
 11
1787.999997664603
 21
7.30001544457923
 31
0.0
  0
LINE
  5
ECC
330
2
100
AcDbEntity
  8
0
  6
Continuous
 62
     7
100
AcDbLine
 10
1762.999997664603
 20
13.00001544457927
 30
0.0
 11
1762.999997664603
 21
7.30001544457923
 31
0.0
  0
LINE
  5
ECD
330
2
100
AcDbEntity
  8
0
  6
Continuous
 62
     7
100
AcDbLine
 10
1787.999997664603
 20
7.30001544457923
 30
0.0
 11
1787.999997664603
 21
13.00001544457927
 31
0.0
  0
LINE
  5
ECE
330
2
100
AcDbEntity
  8
0
  6
Continuous
 62
     7
100
AcDbLine
 10
1762.999997664603
 20
23.50001544457632
 30
0.0
 11
1762.999997664603
 21
22.00001544457632
 31
0.0
  0
LINE
  5
ECF
330
2
100
AcDbEntity
  8
0
  6
Continuous
 62
     7
100
AcDbLine
 10
1787.999997664603
 20
22.00001544458223
 30
0.0
 11
1787.999997664603
 21
23.50001544458223
 31
0.0
  0
LINE
  5
ED0
330
2
100
AcDbEntity
  8
0
  6
Continuous
 62
     7
100
AcDbLine
 10
1787.999997664603
 20
23.50001544458223
 30
0.0
 11
1782.499997664603
 21
25.00001544458132
 31
0.0
  0
LINE
  5
ED1
330
2
100
AcDbEntity
  8
0
  6
Continuous
 62
     7
100
AcDbLine
 10
1768.499997664603
 20
25.00001544457723
 30
0.0
 11
1762.999997664603
 21
23.50001544457632
 31
0.0
  0
LINE
  5
ED2
330
2
100
AcDbEntity
  8
0
  6
Continuous
 62
     7
100
AcDbLine
 10
1661.499997664814
 20
48.00001544511339
 30
0.0
 11
1661.499997664814
 21
47.00001544511336
 31
0.0
  0
LINE
  5
ED3
330
2
100
AcDbEntity
  8
0
  6
Continuous
 62
     7
100
AcDbLine
 10
1685.499997664814
 20
47.00001544511633
 30
0.0
 11
1685.499997664814
 21
48.00001544511633
 31
0.0
  0
LINE
  5
ED4
330
2
100
AcDbEntity
  8
0
  6
Continuous
 62
     7
100
AcDbLine
 10
1659.499997664814
 20
57.0000154451111
 30
0.0
 11
1659.499997664814
 21
56.00001544511247
 31
0.0
  0
LINE
  5
ED5
330
2
100
AcDbEntity
  8
0
  6
Continuous
 62
     7
100
AcDbLine
 10
1683.499997664814
 20
56.0000154451152
 30
0.0
 11
1683.499997664814
 21
57.00001544511518
 31
0.0
  0
LINE
  5
ED6
330
2
100
AcDbEntity
  8
0
  6
Continuous
 62
     7
100
AcDbLine
 10
1660.999997664814
 20
25.53591382997729
 30
0.0
 11
1662.999997664814
 21
25.0000154451152
 31
0.0
  0
LINE
  5
ED7
330
2
100
AcDbEntity
  8
0
  6
Continuous
 62
     7
100
AcDbLine
 10
1683.999997664814
 20
25.00001544511815
 30
0.0
 11
1685.999997664814
 21
25.53591382998116
 31
0.0
  0
LINE
  5
ED8
330
2
100
AcDbEntity
  8
0
  6
Continuous
 62
     7
100
AcDbLine
 10
1660.999997664814
 20
26.5000154451152
 30
0.0
 11
1660.999997664814
 21
25.53591382997729
 31
0.0
  0
LINE
  5
ED9
330
2
100
AcDbEntity
  8
0
  6
Continuous
 62
     7
100
AcDbLine
 10
1685.999997664814
 20
25.53591382998116
 30
0.0
 11
1685.999997664814
 21
26.50001544511815
 31
0.0
  0
LINE
  5
EDA
330
2
100
AcDbEntity
  8
0
  6
Continuous
 62
     7
100
AcDbLine
 10
1667.999997664825
 20
27.00001544547217
 30
0.0
 11
1667.999997664825
 21
26.50001544511634
 31
0.0
  0
LINE
  5
EDB
330
2
100
AcDbEntity
  8
0
  6
Continuous
 62
     7
100
AcDbLine
 10
1678.999997664825
 20
26.50001544511724
 30
0.0
 11
1678.999997664825
 21
27.00001544547445
 31
0.0
  0
LINE
  5
EDC
330
2
100
AcDbEntity
  8
0
  6
Continuous
 62
     7
100
AcDbLine
 10
1683.999997664814
 20
57.00001544511518
 30
0.0
 11
1683.999997664814
 21
62.70001544511524
 31
0.0
  0
LINE
  5
EDD
330
2
100
AcDbEntity
  8
0
  6
Continuous
 62
     7
100
AcDbLine
 10
1658.999997664814
 20
62.7000154451125
 30
0.0
 11
1658.999997664814
 21
57.0000154451111
 31
0.0
  0
LINE
  5
EDE
330
2
100
AcDbEntity
  8
0
  6
Continuous
 62
     7
100
AcDbLine
 10
1683.999997664814
 20
62.70001544511524
 30
0.0
 11
1683.699997664815
 21
63.0000154451152
 31
0.0
  0
LINE
  5
EDF
330
2
100
AcDbEntity
  8
0
  6
Continuous
 62
     7
100
AcDbLine
 10
1659.299997664815
 20
63.00001544511246
 30
0.0
 11
1658.999997664814
 21
62.7000154451125
 31
0.0
  0
ARC
  5
EE0
330
2
100
AcDbEntity
  8
0
  6
Continuous
 62
     7
100
AcDbCircle
 10
1685.499997664814
 20
27.50001544511815
 30
0.0
 40
0.5000000000001671
100
AcDbArc
 50
270.0
 51
0.0
  0
ARC
  5
EE1
330
2
100
AcDbEntity
  8
0
  6
Continuous
 62
     7
100
AcDbCircle
 10
1661.499997664814
 20
27.50001544511429
 30
0.0
 40
0.4999999999988347
100
AcDbArc
 50
180.0
 51
270.0
  0
LINE
  5
EE2
330
2
100
AcDbEntity
  8
0
  6
Continuous
 62
     7
100
AcDbLine
 10
1660.999997664814
 20
28.19928019074723
 30
0.0
 11
1660.999997664814
 21
27.50001544511429
 31
0.0
  0
LINE
  5
EE3
330
2
100
AcDbEntity
  8
0
  6
Continuous
 62
     7
100
AcDbLine
 10
1685.999997664814
 20
27.50001544511815
 30
0.0
 11
1685.999997664814
 21
28.1992801907502
 31
0.0
  0
ARC
  5
EE4
330
2
100
AcDbEntity
  8
0
  6
Continuous
 62
     7
100
AcDbCircle
 10
1693.999997664814
 20
35.00001544511905
 30
0.0
 40
10.50000000000006
100
AcDbArc
 50
139.6324064558089
 51
220.3675935442011
  0
ARC
  5
EE5
330
2
100
AcDbEntity
  8
0
  6
Continuous
 62
     7
100
AcDbCircle
 10
1652.999997664814
 20
35.00001544511429
 30
0.0
 40
10.50000000000021
100
AcDbArc
 50
319.6324064558088
 51
40.36759354420103
  0
LINE
  5
EE6
330
2
100
AcDbEntity
  8
0
  6
Continuous
 62
     7
100
AcDbLine
 10
1660.999997664814
 20
42.50001544511518
 30
0.0
 11
1660.999997664814
 21
41.80075069948225
 31
0.0
  0
LINE
  5
EE7
330
2
100
AcDbEntity
  8
0
  6
Continuous
 62
     7
100
AcDbLine
 10
1685.999997664814
 20
41.80075069948657
 30
0.0
 11
1685.999997664814
 21
42.50001544511815
 31
0.0
  0
ARC
  5
EE8
330
2
100
AcDbEntity
  8
0
  6
Continuous
 62
     7
100
AcDbCircle
 10
1661.499997664814
 20
42.50001544511518
 30
0.0
 40
0.5000000000001671
100
AcDbArc
 50
90.0
 51
180.0
  0
ARC
  5
EE9
330
2
100
AcDbEntity
  8
0
  6
Continuous
 62
     7
100
AcDbCircle
 10
1685.499997664814
 20
42.50001544511815
 30
0.0
 40
0.5000000000023876
100
AcDbArc
 50
0.0
 51
90.0
  0
LINE
  5
EEA
330
2
100
AcDbEntity
  8
0
  6
Continuous
 62
     7
100
AcDbLine
 10
1685.999997664814
 20
43.50001544511814
 30
0.0
 11
1685.999997664814
 21
47.00001544511815
 31
0.0
  0
LINE
  5
EEB
330
2
100
AcDbEntity
  8
0
  6
Continuous
 62
     7
100
AcDbLine
 10
1660.999997664814
 20
47.00001544511429
 30
0.0
 11
1660.999997664814
 21
43.50001544511427
 31
0.0
  0
ARC
  5
EEC
330
2
100
AcDbEntity
  8
0
  6
Continuous
 62
     7
100
AcDbCircle
 10
1666.999997664814
 20
43.00001544511518
 30
0.0
 40
0.5000000000001671
100
AcDbArc
 50
0.0
 51
90.0
  0
ARC
  5
EED
330
2
100
AcDbEntity
  8
0
  6
Continuous
 62
     7
100
AcDbCircle
 10
1679.999997664814
 20
43.00001544511724
 30
0.0
 40
0.4999999999988347
100
AcDbArc
 50
90.0
 51
180.0
  0
LINE
  5
EEE
330
2
100
AcDbEntity
  8
0
  6
Continuous
 62
     7
100
AcDbLine
 10
1219.499997664814
 20
48.00001544505221
 30
0.0
 11
1219.499997664814
 21
47.0000154450513
 31
0.0
  0
LINE
  5
EEF
330
2
100
AcDbEntity
  8
0
  6
Continuous
 62
     7
100
AcDbLine
 10
1243.499997664814
 20
47.00001544505538
 30
0.0
 11
1243.499997664814
 21
48.0000154450554
 31
0.0
  0
LINE
  5
EF0
330
2
100
AcDbEntity
  8
0
  6
Continuous
 62
     7
100
AcDbLine
 10
1217.499997664814
 20
57.00001544504925
 30
0.0
 11
1217.499997664814
 21
56.00001544504926
 31
0.0
  0
LINE
  5
EF1
330
2
100
AcDbEntity
  8
0
  6
Continuous
 62
     7
100
AcDbLine
 10
1241.499997664814
 20
56.00001544505312
 30
0.0
 11
1241.499997664814
 21
57.00001544505312
 31
0.0
  0
LINE
  5
EF2
330
2
100
AcDbEntity
  8
0
  6
Continuous
 62
     7
100
AcDbLine
 10
1218.999997664814
 20
26.50001544505722
 30
0.0
 11
1218.999997664814
 21
25.53591382991931
 31
0.0
  0
LINE
  5
EF3
330
2
100
AcDbEntity
  8
0
  6
Continuous
 62
     7
100
AcDbLine
 10
1243.999997664814
 20
25.53591382992318
 30
0.0
 11
1243.999997664814
 21
26.50001544506017
 31
0.0
  0
LINE
  5
EF4
330
2
100
AcDbEntity
  8
0
  6
Continuous
 62
     7
100
AcDbLine
 10
1218.999997664814
 20
25.53591382991931
 30
0.0
 11
1220.999997664825
 21
25.00001544505835
 31
0.0
  0
LINE
  5
EF5
330
2
100
AcDbEntity
  8
0
  6
Continuous
 62
     7
100
AcDbLine
 10
1241.999997664814
 20
25.00001544506017
 30
0.0
 11
1243.999997664814
 21
25.53591382992318
 31
0.0
  0
LINE
  5
EF6
330
2
100
AcDbEntity
  8
0
  6
Continuous
 62
     7
100
AcDbLine
 10
1225.999997664825
 20
27.00001544472935
 30
0.0
 11
1225.999997664825
 21
26.50001544505836
 31
0.0
  0
LINE
  5
EF7
330
2
100
AcDbEntity
  8
0
  6
Continuous
 62
     7
100
AcDbLine
 10
1236.999997664825
 20
26.50001544506017
 30
0.0
 11
1236.999997664825
 21
27.00001544473116
 31
0.0
  0
LINE
  5
EF8
330
2
100
AcDbEntity
  8
0
  6
Continuous
 62
     7
100
AcDbLine
 10
1241.999997664814
 20
62.70001544505226
 30
0.0
 11
1241.699997664815
 21
63.00001544505129
 31
0.0
  0
LINE
  5
EF9
330
2
100
AcDbEntity
  8
0
  6
Continuous
 62
     7
100
AcDbLine
 10
1217.299997664815
 20
63.00001544504834
 30
0.0
 11
1216.999997664814
 21
62.7000154450484
 31
0.0
  0
LINE
  5
EFA
330
2
100
AcDbEntity
  8
0
  6
Continuous
 62
     7
100
AcDbLine
 10
1241.999997664814
 20
57.00001544505312
 30
0.0
 11
1241.999997664814
 21
62.70001544505226
 31
0.0
  0
LINE
  5
EFB
330
2
100
AcDbEntity
  8
0
  6
Continuous
 62
     7
100
AcDbLine
 10
1216.999997664814
 20
62.7000154450484
 30
0.0
 11
1216.999997664814
 21
57.00001544504925
 31
0.0
  0
ARC
  5
EFC
330
2
100
AcDbEntity
  8
0
  6
Continuous
 62
     7
100
AcDbCircle
 10
1219.499997664825
 20
42.50001544505403
 30
0.0
 40
0.5000000000001671
100
AcDbArc
 50
90.0000000002084
 51
180.000000000026
  0
ARC
  5
EFD
330
2
100
AcDbEntity
  8
0
  6
Continuous
 62
     7
100
AcDbCircle
 10
1243.499997664814
 20
42.50001544505835
 30
0.0
 40
0.5000000000023876
100
AcDbArc
 50
0.0
 51
89.99999999979158
  0
LINE
  5
EFE
330
2
100
AcDbEntity
  8
0
  6
Continuous
 62
     7
100
AcDbLine
 10
1218.999997664814
 20
42.50001544505403
 30
0.0
 11
1218.999997664814
 21
41.80075069942245
 31
0.0
  0
LINE
  5
EFF
330
2
100
AcDbEntity
  8
0
  6
Continuous
 62
     7
100
AcDbLine
 10
1243.999997664814
 20
41.80075069942609
 30
0.0
 11
1243.999997664814
 21
42.50001544505835
 31
0.0
  0
ARC
  5
F00
330
2
100
AcDbEntity
  8
0
  6
Continuous
 62
     7
100
AcDbCircle
 10
1251.999997664814
 20
35.00001544506017
 30
0.0
 40
10.49999999999871
100
AcDbArc
 50
139.6324064558089
 51
220.3675935442011
  0
ARC
  5
F01
330
2
100
AcDbEntity
  8
0
  6
Continuous
 62
     7
100
AcDbCircle
 10
1210.999997664825
 20
35.00001544505404
 30
0.0
 40
10.50000000000122
100
AcDbArc
 50
319.6324064558088
 51
40.36759354420103
  0
LINE
  5
F02
330
2
100
AcDbEntity
  8
0
  6
Continuous
 62
     7
100
AcDbLine
 10
1218.999997664814
 20
28.19928019068925
 30
0.0
 11
1218.999997664814
 21
27.50001544505721
 31
0.0
  0
LINE
  5
F03
330
2
100
AcDbEntity
  8
0
  6
Continuous
 62
     7
100
AcDbLine
 10
1243.999997664814
 20
27.50001544506017
 30
0.0
 11
1243.999997664814
 21
28.19928019069221
 31
0.0
  0
ARC
  5
F04
330
2
100
AcDbEntity
  8
0
  6
Continuous
 62
     7
100
AcDbCircle
 10
1243.499997664814
 20
27.50001544506017
 30
0.0
 40
0.5000000000001671
100
AcDbArc
 50
270.0000000002084
 51
0.0000000000260551
  0
ARC
  5
F05
330
2
100
AcDbEntity
  8
0
  6
Continuous
 62
     7
100
AcDbCircle
 10
1219.499997664825
 20
27.50001544505721
 30
0.0
 40
0.4999999999988347
100
AcDbArc
 50
180.0
 51
269.9999999997916
  0
LINE
  5
F06
330
2
100
AcDbEntity
  8
0
  6
Continuous
 62
     7
100
AcDbLine
 10
1243.999997664814
 20
43.50001544505835
 30
0.0
 11
1243.999997664814
 21
47.0000154450572
 31
0.0
  0
LINE
  5
F07
330
2
100
AcDbEntity
  8
0
  6
Continuous
 62
     7
100
AcDbLine
 10
1218.999997664814
 20
47.00001544505403
 30
0.0
 11
1218.999997664814
 21
43.50001544505403
 31
0.0
  0
ARC
  5
F08
330
2
100
AcDbEntity
  8
0
  6
Continuous
 62
     7
100
AcDbCircle
 10
1224.999997664814
 20
43.0000154450554
 30
0.0
 40
0.5000000000001671
100
AcDbArc
 50
0.0000000001042204
 51
90.0000000002084
  0
ARC
  5
F09
330
2
100
AcDbEntity
  8
0
  6
Continuous
 62
     7
100
AcDbCircle
 10
1237.999997664814
 20
43.00001544505721
 30
0.0
 40
0.4999999999988347
100
AcDbArc
 50
89.99999999989578
 51
180.0
  0
LINE
  5
F0A
330
2
100
AcDbEntity
  8
0
  6
Continuous
 62
     7
100
AcDbLine
 10
2320.499997711762
 20
45.40001544457935
 30
0.0
 11
2262.466890671805
 21
45.40001544457935
 31
0.0
  0
LINE
  5
F0B
330
2
100
AcDbEntity
  8
0
  6
Continuous
 62
     7
100
AcDbLine
 10
2242.466890671824
 20
45.40001544457935
 30
0.0
 11
1772.499997685152
 21
45.40001544457935
 31
0.0
  0
LINE
  5
F0C
330
2
100
AcDbEntity
  8
0
  6
Continuous
 62
     7
100
AcDbLine
 10
1771.501920761744
 20
45.40001544457935
 30
0.0
 11
1685.999997664814
 21
45.40001544457935
 31
0.0
  0
LINE
  5
F0D
330
2
100
AcDbEntity
  8
0
  6
Continuous
 62
     7
100
AcDbLine
 10
1660.999997664814
 20
45.40001544457935
 30
0.0
 11
1243.999997664814
 21
45.40001544457935
 31
0.0
  0
LINE
  5
F0E
330
2
100
AcDbEntity
  8
0
  6
Continuous
 62
     7
100
AcDbLine
 10
1218.999997664814
 20
45.40001544457935
 30
0.0
 11
1179.499997665694
 21
45.40001544457935
 31
0.0
  0
LINE
  5
F0F
330
2
100
AcDbEntity
  8
0
  6
Continuous
 62
     7
100
AcDbLine
 10
2281.905633127935
 20
25.40001544457938
 30
0.0
 11
2320.499997709125
 21
25.40001544457938
 31
0.0
  0
LINE
  5
F10
330
2
100
AcDbEntity
  8
0
  6
Continuous
 62
     7
100
AcDbLine
 10
1781.914405848684
 20
25.40001544457938
 30
0.0
 11
2242.466890671824
 21
25.40001544457938
 31
0.0
  0
LINE
  5
F11
330
2
100
AcDbEntity
  8
0
  6
Continuous
 62
     7
100
AcDbLine
 10
2262.466890671805
 20
25.40001544457938
 30
0.0
 11
2269.074628626484
 21
25.40001544457938
 31
0.0
  0
LINE
  5
F12
330
2
100
AcDbEntity
  8
0
  6
Continuous
 62
     7
100
AcDbLine
 10
1179.499997663042
 20
25.40001544457938
 30
0.0
 11
1219.507177343574
 21
25.40001544457938
 31
0.0
  0
LINE
  5
F13
330
2
100
AcDbEntity
  8
0
  6
Continuous
 62
     7
100
AcDbLine
 10
1243.492817986043
 20
25.40001544457938
 30
0.0
 11
1661.507177343794
 21
25.40001544457938
 31
0.0
  0
LINE
  5
F14
330
2
100
AcDbEntity
  8
0
  6
Continuous
 62
     7
100
AcDbLine
 10
1685.492817985833
 20
25.40001544457938
 30
0.0
 11
1769.083321075642
 21
25.40001544457938
 31
0.0
  0
LINE
  5
F15
330
2
100
AcDbEntity
  8
0
  6
Continuous
 62
     7
100
AcDbLine
 10
1742.999997666402
 20
46.50001537703838
 30
0.0
 11
1742.999997666595
 21
48.00001537703929
 31
0.0
  0
LINE
  5
F16
330
2
100
AcDbEntity
  8
0
  6
Continuous
 62
     7
100
AcDbLine
 10
1731.999997666595
 20
48.00001537845128
 30
0.0
 11
1731.999997666402
 21
46.50001537845128
 31
0.0
  0
LINE
  5
F17
330
2
100
AcDbEntity
  8
0
  6
Continuous
 62
     7
100
AcDbLine
 10
1729.999997664934
 20
22.50001537758226
 30
0.0
 11
1729.999997664934
 21
22.00001544625434
 31
0.0
  0
LINE
  5
F18
330
2
100
AcDbEntity
  8
0
  6
Continuous
 62
     7
100
AcDbLine
 10
1740.999997664934
 20
22.00001544625434
 30
0.0
 11
1740.999997664934
 21
22.50001537688218
 31
0.0
  0
LINE
  5
F19
330
2
100
AcDbEntity
  8
0
  6
Continuous
 62
     7
100
AcDbLine
 10
1720.999997667253
 20
58.5000153787953
 30
0.0
 11
1721.624997667215
 21
57.87501537875527
 31
0.0
  0
LINE
  5
F1A
330
2
100
AcDbEntity
  8
0
  6
Continuous
 62
     7
100
AcDbLine
 10
1721.624997667215
 20
57.87501537875527
 30
0.0
 11
1721.999997667193
 21
57.50001537873117
 31
0.0
  0
LINE
  5
F1B
330
2
100
AcDbEntity
  8
0
  6
Continuous
 62
     7
100
AcDbLine
 10
1727.999997667193
 20
57.50001537834942
 30
0.0
 11
1728.374997667215
 21
57.87501537832621
 31
0.0
  0
LINE
  5
F1C
330
2
100
AcDbEntity
  8
0
  6
Continuous
 62
     7
100
AcDbLine
 10
1728.374997667215
 20
57.87501537832621
 30
0.0
 11
1728.999997667253
 21
58.50001537828621
 31
0.0
  0
LINE
  5
F1D
330
2
100
AcDbEntity
  8
0
  6
Continuous
 62
     7
100
AcDbLine
 10
1720.999997667703
 20
65.5000153787953
 30
0.0
 11
1720.999997667573
 21
63.50003474123127
 31
0.0
  0
LINE
  5
F1E
330
2
100
AcDbEntity
  8
0
  6
Continuous
 62
     7
100
AcDbLine
 10
1728.999997667574
 20
63.50003474123628
 30
0.0
 11
1728.999997667703
 21
65.50001537828619
 31
0.0
  0
LINE
  5
F1F
330
2
100
AcDbEntity
  8
0
  6
Continuous
 62
     7
100
AcDbLine
 10
1745.999997701452
 20
58.50001537720528
 30
0.0
 11
1746.624997701416
 21
57.87501537716526
 31
0.0
  0
LINE
  5
F20
330
2
100
AcDbEntity
  8
0
  6
Continuous
 62
     7
100
AcDbLine
 10
1746.624997701416
 20
57.87501537716526
 30
0.0
 11
1746.999997701385
 21
57.50001537714116
 31
0.0
  0
LINE
  5
F21
330
2
100
AcDbEntity
  8
0
  6
Continuous
 62
     7
100
AcDbLine
 10
1752.999997701394
 20
57.50001537675918
 30
0.0
 11
1753.374997701416
 21
57.87501537673528
 31
0.0
  0
LINE
  5
F22
330
2
100
AcDbEntity
  8
0
  6
Continuous
 62
     7
100
AcDbLine
 10
1753.374997701416
 20
57.87501537673528
 30
0.0
 11
1753.999997701452
 21
58.50001537669527
 31
0.0
  0
LINE
  5
F23
330
2
100
AcDbEntity
  8
0
  6
Continuous
 62
     7
100
AcDbLine
 10
1745.999997701892
 20
65.50001537720437
 30
0.0
 11
1745.999997701776
 21
63.50003474845926
 31
0.0
  0
LINE
  5
F24
330
2
100
AcDbEntity
  8
0
  6
Continuous
 62
     7
100
AcDbLine
 10
1753.999997701776
 20
63.50003473076345
 30
0.0
 11
1753.999997701892
 21
65.50001537669527
 31
0.0
  0
TEXT
  5
F26
330
2
100
AcDbEntity
  8
0
 62
     7
100
AcDbText
 10
1546.651139580077
 20
3716.599074353272
 30
0.0
 40
200.0
  1
BZ06
 41
0.9
100
AcDbText
  0
ARC
  5
F29
330
2
100
AcDbEntity
  8
0
  6
Continuous
 62
     7
100
AcDbCircle
 10
1775.623397867922
 20
19.04973088841655
 30
0.0
 40
8.779684016909675
100
AcDbArc
 50
51.96568197095532
 51
110.8428991234132
  0
ARC
  5
F2A
330
2
100
AcDbEntity
  8
0
  6
Continuous
 62
     7
100
AcDbCircle
 10
1765.50935459431
 20
0.7649970359937477
 30
0.0
 40
29.59760208696656
100
AcDbArc
 50
54.96654113753805
 51
58.36641731973053
  0
ARC
  5
F2B
330
2
100
AcDbEntity
  8
0
  6
Continuous
 62
     7
100
AcDbCircle
 10
2276.170531841319
 20
15.93326573545213
 30
0.0
 40
11.87612630276549
100
AcDbArc
 50
89.26175118394573
 51
130.2312959055839
  0
ARC
  5
F2C
330
2
100
AcDbEntity
  8
0
  6
Continuous
 62
     7
100
AcDbCircle
 10
2273.031136643123
 20
12.37152731133787
 30
0.0
 40
15.78408109051748
100
AcDbArc
 50
53.13750366342582
 51
77.96022053292762
  0
ENDSEC
  0
SECTION
  2
OBJECTS
  0
DICTIONARY
  5
7
330
0
100
AcDbDictionary
281
     1
  3
ACAD_COLOR
350
65C
  3
ACAD_GROUP
350
20
  3
ACAD_LAYOUT
350
B
  3
ACAD_MATERIAL
350
632
  3
ACAD_MLEADERSTYLE
350
681
  3
ACAD_MLINESTYLE
350
21
  3
ACAD_PLOTSETTINGS
350
22
  3
ACAD_PLOTSTYLENAME
350
6
  3
ACAD_SCALELIST
350
65F
  3
ACAD_TABLESTYLE
350
65D
  3
ACAD_VISUALSTYLE
350
64B
  3
ACDB_RECOMPOSE_DATA
350
6A0
  3
AcDbVariableDictionary
350
6A1
  3
ASE_INDEX_DICTIONARY
350
69B
  3
DWGPROPS
350
F41
  0
DICTIONARY
  5
68A
330
4
100
AcDbDictionary
280
     1
281
     1
  3
ADSK_XREC_LAYER_RECONCILED
360
68B
  0
DICTIONARY
  5
F27
330
2
100
AcDbDictionary
280
     1
281
     1
  3
ACAD_SORTENTS
360
F28
  0
DICTIONARY
  5
65C
102
{ACAD_REACTORS
330
7
102
}
330
7
100
AcDbDictionary
281
     1
  0
DICTIONARY
  5
20
102
{ACAD_REACTORS
330
7
102
}
330
7
100
AcDbDictionary
281
     1
  0
DICTIONARY
  5
B
102
{ACAD_REACTORS
330
7
102
}
330
7
100
AcDbDictionary
281
     1
  3
Layout1
350
F
  3
Model
350
A
  0
DICTIONARY
  5
632
102
{ACAD_REACTORS
330
7
102
}
330
7
100
AcDbDictionary
281
     1
  3
ByBlock
350
63B
  3
ByLayer
350
633
  3
Global
350
643
  0
DICTIONARY
  5
681
102
{ACAD_REACTORS
330
7
102
}
330
7
100
AcDbDictionary
281
     1
  3
Standard
350
682
  0
DICTIONARY
  5
21
102
{ACAD_REACTORS
330
7
102
}
330
7
100
AcDbDictionary
281
     1
  3
Standard
350
23
  0
DICTIONARY
  5
22
102
{ACAD_REACTORS
330
7
102
}
330
7
100
AcDbDictionary
281
     1
  0
ACDBDICTIONARYWDFLT
  5
6
102
{ACAD_REACTORS
330
7
102
}
330
7
100
AcDbDictionary
281
     1
  3
Normal
350
5
100
AcDbDictionaryWithDefault
340
5
  0
DICTIONARY
  5
65F
102
{ACAD_REACTORS
330
7
102
}
330
7
100
AcDbDictionary
281
     1
  3
A0
350
660
  3
A1
350
661
  3
A2
350
662
  3
A3
350
663
  3
A4
350
664
  3
A5
350
665
  3
A6
350
666
  3
A7
350
667
  3
A8
350
668
  3
A9
350
669
  3
B0
350
66A
  3
B1
350
66B
  3
B2
350
66C
  3
B3
350
66D
  3
B4
350
66E
  3
B5
350
66F
  3
B6
350
670
  3
B7
350
671
  3
B8
350
672
  3
B9
350
673
  3
C0
350
674
  3
C1
350
675
  3
C2
350
676
  3
C3
350
677
  3
C4
350
678
  3
C5
350
679
  3
C6
350
67A
  3
C7
350
67B
  3
C8
350
67C
  3
C9
350
67D
  3
D0
350
67E
  3
D1
350
67F
  3
D2
350
680
  0
DICTIONARY
  5
65D
102
{ACAD_REACTORS
330
7
102
}
330
7
100
AcDbDictionary
281
     1
  3
Standard
350
65E
  0
DICTIONARY
  5
64B
102
{ACAD_REACTORS
330
7
102
}
330
7
100
AcDbDictionary
281
     1
  3
2dWireframe
350
651
  3
3D Hidden
350
653
  3
3dWireframe
350
652
  3
Basic
350
650
  3
Brighten
350
657
  3
ColorChange
350
65B
  3
Conceptual
350
654
  3
Dim
350
656
  3
Facepattern
350
65A
  3
Flat
350
64C
  3
FlatWithEdges
350
64D
  3
Gouraud
350
64E
  3
GouraudWithEdges
350
64F
  3
Linepattern
350
659
  3
Realistic
350
655
  3
Thicken
350
658
  0
XRECORD
  5
6A0
102
{ACAD_REACTORS
330
7
102
}
330
7
100
AcDbXrecord
280
     1
 90
        1
330
65E
  0
DICTIONARY
  5
6A1
102
{ACAD_REACTORS
330
7
102
}
330
7
100
AcDbDictionary
281
     1
  3
CANNOSCALE
350
6A5
  3
CMLEADERSTYLE
350
6A3
  3
CTABLESTYLE
350
6A2
  3
DIMASSOC
350
F2F
  3
INDEXCTL
350
F2E
  3
LIGHTINGUNITS
350
6A6
  3
MSLTSCALE
350
6A4
  3
SORTENTS
350
F2D
  0
DICTIONARY
  5
69B
102
{ACAD_REACTORS
330
7
102
}
330
7
100
AcDbDictionary
281
     1
  3
ASEBlockHierarchyIndexRecord
350
69D
1001
DCO15
1040
1678078617.738
  0
XRECORD
  5
F41
102
{ACAD_REACTORS
330
7
102
}
330
7
100
AcDbXrecord
280
     1
  1
DWGPROPS COOKIE
  2

  3

  4

  6

  7

  8
renzo.ceresoli
  9

300
=
301
=
302
=
303
=
304
=
305
=
306
=
307
=
308
=
309
=
 40
0.0007265509259259
 41
2455315.368353577
 42
2455315.370200857
  1

 90
        0
  0
XRECORD
  5
68B
102
{ACAD_REACTORS
330
68A
102
}
330
68A
100
AcDbXrecord
280
     1
290
     1
  0
SORTENTSTABLE
  5
F28
102
{ACAD_REACTORS
330
F27
102
}
330
F27
100
AcDbSortentsTable
330
2
331
DA1
  5
DA5
331
DC0
  5
DC4
331
D4C
  5
D50
331
D63
  5
D67
331
D2D
  5
D31
331
CB9
  5
CB9
331
CD8
  5
CD8
331
C7B
  5
C7B
331
C9A
  5
C9A
331
CEF
  5
CEF
331
D82
  5
D86
331
C6C
  5
C6C
331
C2E
  5
C2E
331
C4D
  5
C4D
331
B01
  5
B01
331
B6D
  5
B6D
331
F22
  5
F29
331
C0F
  5
C0F
331
B2F
  5
B2F
331
B4E
  5
B4E
331
DC1
  5
DC5
331
DD8
  5
DDC
331
D64
  5
D68
331
D83
  5
D87
331
D2E
  5
D32
331
CD9
  5
CD9
331
CF0
  5
CF0
331
C9B
  5
C9B
331
CBA
  5
CBA
331
D4D
  5
D51
331
C7C
  5
C7C
331
DA2
  5
DA6
331
C4E
  5
C4E
331
C6D
  5
C6D
331
C10
  5
C10
331
F23
  5
F2A
331
B02
  5
B02
331
C2F
  5
C2F
331
B4F
  5
B4F
331
B6E
  5
B6E
331
DD9
  5
DDD
331
DF8
  5
DFC
331
D84
  5
D88
331
DA3
  5
DA7
331
D4E
  5
D52
331
D65
  5
D69
331
D2F
  5
D33
331
DC2
  5
DC6
331
CBB
  5
CBB
331
CDA
  5
CDA
331
C7D
  5
C7D
331
C9C
  5
C9C
331
CF1
  5
CF1
331
C6E
  5
C6E
331
C30
  5
C30
331
C4F
  5
C4F
331
B03
  5
B03
331
B6F
  5
B6F
331
F24
  5
F2B
331
C11
  5
C11
331
DF9
  5
DFD
331
E18
  5
E1C
331
DC3
  5
DC7
331
DDA
  5
DDE
331
D66
  5
D6A
331
D85
  5
D89
331
D30
  5
D34
331
CDB
  5
CDB
331
CF2
  5
CF2
331
C9D
  5
C9D
331
CBC
  5
CBC
331
D4F
  5
D53
331
C7E
  5
C7E
331
DA4
  5
DA8
331
C50
  5
C50
331
C6F
  5
C6F
331
C12
  5
C12
331
B04
  5
B04
331
C31
  5
C31
331
E19
  5
E1D
331
E38
  5
E3C
331
DDB
  5
DDF
331
DFA
  5
DFE
331
D86
  5
D8A
331
DA5
  5
DA9
331
D50
  5
D54
331
D67
  5
D6B
331
CF3
  5
CF3
331
CBD
  5
CBD
331
CDC
  5
CDC
331
C7F
  5
C7F
331
C9E
  5
C9E
331
D31
  5
D35
331
DC4
  5
DC8
331
C32
  5
C32
331
C51
  5
C51
331
B05
  5
B05
331
F26
  5
F2C
331
C13
  5
C13
331
E39
  5
E3D
331
DFB
  5
DFF
331
E1A
  5
E1E
331
DA6
  5
DAA
331
DC5
  5
DC9
331
D68
  5
D6C
331
D87
  5
D8B
331
D32
  5
D36
331
D51
  5
D55
331
DDC
  5
DE0
331
CDD
  5
CDD
331
CF4
  5
CF4
331
C9F
  5
C9F
331
CBE
  5
CBE
331
C80
  5
C80
331
D13
  5
D15
331
C52
  5
C52
331
C14
  5
C14
331
B06
  5
B06
331
C33
  5
C33
331
E1B
  5
E1F
331
E3A
  5
E3E
331
DDD
  5
DE1
331
DFC
  5
E00
331
D88
  5
D8C
331
DA7
  5
DAB
331
D52
  5
D56
331
D69
  5
D6D
331
CF5
  5
CF5
331
D14
  5
D16
331
CBF
  5
CBF
331
CDE
  5
CDE
331
C81
  5
C81
331
CA0
  5
CA0
331
D33
  5
D37
331
DC6
  5
DCA
331
C15
  5
C15
331
B07
  5
B07
331
C34
  5
C34
331
C53
  5
C53
331
E3B
  5
E3F
331
DFD
  5
E01
331
E1C
  5
E20
331
DA8
  5
DAC
331
DC7
  5
DCB
331
D6A
  5
D6E
331
D89
  5
D8D
331
D15
  5
D17
331
D34
  5
D38
331
CDF
  5
CDF
331
CF6
  5
CF6
331
CA1
  5
CA1
331
CC0
  5
CC0
331
D53
  5
D57
331
DDE
  5
DE2
331
C82
  5
C82
331
C54
  5
C54
331
C16
  5
C16
331
C35
  5
C35
331
E1D
  5
E21
331
E3C
  5
E40
331
DC8
  5
DCC
331
DDF
  5
DE3
331
D8A
  5
D8E
331
DA9
  5
DAD
331
D54
  5
D58
331
D6B
  5
D6F
331
DFE
  5
E02
331
CF7
  5
CF7
331
D16
  5
D18
331
CC1
  5
CC1
331
CE0
  5
CE0
331
C83
  5
C83
331
CA2
  5
CA2
331
D35
  5
D39
331
C17
  5
C17
331
C36
  5
C36
331
C55
  5
C55
331
E3D
  5
E41
331
DFF
  5
E03
331
E1E
  5
E22
331
DAA
  5
DAE
331
DC9
  5
DCD
331
D6C
  5
D70
331
D8B
  5
D8F
331
D17
  5
D19
331
D36
  5
D3A
331
CE1
  5
CE1
331
CF8
  5
CF8
331
C84
  5
C84
331
CA3
  5
CA3
331
CC2
  5
CC2
331
D55
  5
D59
331
DE0
  5
DE4
331
C37
  5
C37
331
C56
  5
C56
331
E1F
  5
E23
331
E3E
  5
E42
331
DCA
  5
DCE
331
DE1
  5
DE5
331
D8C
  5
D90
331
DAB
  5
DAF
331
D37
  5
D3B
331
D56
  5
D5A
331
CF9
  5
CF9
331
D18
  5
D1A
331
CC3
  5
CC3
331
CE2
  5
CE2
331
D6D
  5
D71
331
E00
  5
E04
331
C85
  5
C85
331
CA4
  5
CA4
331
C57
  5
C57
331
E3F
  5
E43
331
DE2
  5
DE6
331
E01
  5
E05
331
DAC
  5
DB0
331
DCB
  5
DCF
331
D6E
  5
D72
331
D8D
  5
D91
331
E20
  5
E24
331
D19
  5
D20
331
D38
  5
D3C
331
CE3
  5
CE3
331
CFA
  5
CFA
331
C86
  5
C86
331
CA5
  5
CA5
331
CC4
  5
CC4
331
D57
  5
D5B
331
E21
  5
E25
331
E40
  5
E44
331
DCC
  5
DD0
331
DE3
  5
DE7
331
D8E
  5
D92
331
DAD
  5
DB1
331
D39
  5
D3D
331
D58
  5
D5C
331
CFB
  5
CFB
331
D1A
  5
D21
331
CA6
  5
CA6
331
CC5
  5
CC5
331
C87
  5
C87
331
CE4
  5
CE4
331
D6F
  5
D73
331
E02
  5
E06
331
E50
  5
E54
331
E41
  5
E45
331
DE4
  5
DE8
331
E03
  5
E07
331
DAE
  5
DB2
331
DCD
  5
DD1
331
D59
  5
D5D
331
D70
  5
D74
331
D3A
  5
D3E
331
CE5
  5
CE5
331
CFC
  5
CFC
331
D8F
  5
D93
331
E22
  5
E26
331
C88
  5
C88
331
CA7
  5
CA7
331
CC6
  5
CC6
331
E51
  5
E55
331
E70
  5
E74
331
E04
  5
E08
331
E23
  5
E27
331
DCE
  5
DD2
331
DE5
  5
DE9
331
D90
  5
D94
331
DAF
  5
DB3
331
E42
  5
E46
331
D3B
  5
D3F
331
CFD
  5
CFD
331
D5A
  5
D5E
331
CA8
  5
CA8
331
CC7
  5
CC7
331
C89
  5
C89
331
CE6
  5
CE6
331
D71
  5
D75
331
E71
  5
E75
331
E90
  5
E94
331
E52
  5
E56
331
E43
  5
E47
331
DE6
  5
DEA
331
E05
  5
E09
331
DB0
  5
DB4
331
DCF
  5
DD3
331
D5B
  5
D5F
331
D72
  5
D76
331
D3C
  5
D40
331
CC8
  5
CC8
331
CE7
  5
CE7
331
C8A
  5
C8A
331
CA9
  5
CA9
331
CFE
  5
CFE
331
D91
  5
D95
331
E24
  5
E28
331
E91
  5
E95
331
EB0
  5
EB4
331
E53
  5
E57
331
E72
  5
E76
331
E06
  5
E0A
331
E25
  5
E29
331
DD0
  5
DD4
331
DE7
  5
DEB
331
D73
  5
D77
331
D92
  5
D96
331
D3D
  5
D41
331
CFF
  5
CFF
331
CAA
  5
CAA
331
CC9
  5
CC9
331
D5C
  5
D60
331
C8B
  5
C8B
331
DB1
  5
DB5
331
E44
  5
E48
331
EB1
  5
EB5
331
EC8
  5
ECC
331
E73
  5
E77
331
E92
  5
E96
331
E54
  5
E58
331
E26
  5
E2A
331
E45
  5
E49
331
DE8
  5
DEC
331
E07
  5
E0B
331
DB2
  5
DB6
331
DD1
  5
DD5
331
D5D
  5
D61
331
D74
  5
D78
331
D3E
  5
D42
331
CCA
  5
CCA
331
C8C
  5
C8C
331
CAB
  5
CAB
331
D00
  5
D00
331
D93
  5
D97
331
EC9
  5
ECD
331
EE8
  5
EEC
331
E93
  5
E97
331
EB2
  5
EB6
331
E55
  5
E59
331
E74
  5
E78
331
E08
  5
E0C
331
E27
  5
E2B
331
DD2
  5
DD6
331
DE9
  5
DED
331
D75
  5
D79
331
D94
  5
D98
331
D3F
  5
D43
331
D5E
  5
D62
331
D01
  5
D01
331
CAC
  5
CAC
331
CCB
  5
CCB
331
C8D
  5
C8D
331
D20
  5
D24
331
DB3
  5
DB7
331
E46
  5
E4A
331
EE9
  5
EED
331
F08
  5
F0C
331
EB3
  5
EB7
331
ECA
  5
ECE
331
E56
  5
E5A
331
E75
  5
E79
331
E94
  5
E98
331
E28
  5
E2C
331
E47
  5
E4B
331
DEA
  5
DEE
331
E09
  5
E0D
331
D95
  5
D99
331
DB4
  5
DB8
331
D5F
  5
D63
331
D76
  5
D7A
331
D21
  5
D25
331
D40
  5
D44
331
DD3
  5
DD7
331
CCC
  5
CCC
331
C8E
  5
C8E
331
CAD
  5
CAD
331
D02
  5
D02
331
F09
  5
F0D
331
ECB
  5
ECF
331
EEA
  5
EEE
331
E95
  5
E99
331
EB4
  5
EB8
331
E57
  5
E5B
331
E76
  5
E7A
331
E48
  5
E4C
331
E0A
  5
E0E
331
E29
  5
E2D
331
DD4
  5
DD8
331
DEB
  5
DEF
331
D77
  5
D7B
331
D41
  5
D45
331
D96
  5
D9A
331
D03
  5
D03
331
CAE
  5
CAE
331
CCD
  5
CCD
331
C8F
  5
C8F
331
D22
  5
D26
331
DB5
  5
DB9
331
EEB
  5
EEF
331
F0A
  5
F0E
331
EB5
  5
EB9
331
ECC
  5
ED0
331
E58
  5
E5C
331
E77
  5
E7B
331
E96
  5
E9A
331
E2A
  5
E2E
331
E49
  5
E4D
331
DEC
  5
DF0
331
E0B
  5
E0F
331
D97
  5
D9B
331
DB6
  5
DBA
331
D78
  5
D7C
331
D04
  5
D04
331
CCE
  5
CCE
331
D23
  5
D27
331
CAF
  5
CAF
331
D42
  5
D46
331
DD5
  5
DD9
331
F0B
  5
F0F
331
ECD
  5
ED1
331
EEC
  5
EF0
331
E78
  5
E7C
331
E97
  5
E9B
331
E59
  5
E5D
331
EB6
  5
EBA
331
E4A
  5
E4E
331
E0C
  5
E10
331
E2B
  5
E2F
331
DB7
  5
DBB
331
DD6
  5
DDA
331
D79
  5
D7D
331
D43
  5
D47
331
D98
  5
D9C
331
DED
  5
DF1
331
D05
  5
D05
331
CCF
  5
CCF
331
D24
  5
D28
331
EED
  5
EF1
331
F0C
  5
F10
331
EB7
  5
EBB
331
ECE
  5
ED2
331
E5A
  5
E5E
331
E79
  5
E7D
331
E98
  5
E9C
331
E2C
  5
E30
331
E4B
  5
E4F
331
DEE
  5
DF2
331
E0D
  5
E11
331
D99
  5
D9D
331
DB8
  5
DBC
331
D7A
  5
D7E
331
D06
  5
D06
331
D25
  5
D29
331
D44
  5
D48
331
DD7
  5
DDB
331
F0D
  5
F11
331
ECF
  5
ED3
331
EEE
  5
EF2
331
E7A
  5
E7E
331
E99
  5
E9D
331
E5B
  5
E5F
331
EB8
  5
EBC
331
E4C
  5
E50
331
E0E
  5
E12
331
E2D
  5
E31
331
DB9
  5
DBD
331
D7B
  5
D7F
331
D26
  5
D2A
331
D45
  5
D49
331
D07
  5
D07
331
D9A
  5
D9E
331
DEF
  5
DF3
331
EEF
  5
EF3
331
F0E
  5
F12
331
E9A
  5
E9E
331
EB9
  5
EBD
331
E5C
  5
E60
331
E7B
  5
E7F
331
ED0
  5
ED4
331
E2E
  5
E32
331
E4D
  5
E51
331
DF0
  5
DF4
331
D9B
  5
D9F
331
DBA
  5
DBE
331
D7C
  5
D80
331
E0F
  5
E13
331
D27
  5
D2B
331
D46
  5
D4A
331
F0F
  5
F13
331
ED1
  5
ED5
331
EF0
  5
EF4
331
E7C
  5
E80
331
E9B
  5
E9F
331
E5D
  5
E61
331
EBA
  5
EBE
331
E4E
  5
E52
331
E10
  5
E14
331
E2F
  5
E33
331
DBB
  5
DBF
331
D7D
  5
D81
331
D47
  5
D4B
331
D9C
  5
DA0
331
DF1
  5
DF5
331
EF1
  5
EF5
331
F10
  5
F14
331
E9C
  5
EA0
331
EBB
  5
EBF
331
E5E
  5
E62
331
E7D
  5
E81
331
ED2
  5
ED6
331
E30
  5
E34
331
E4F
  5
E53
331
DF2
  5
DF6
331
D9D
  5
DA1
331
DBC
  5
DC0
331
D7E
  5
D82
331
E11
  5
E15
331
F11
  5
F15
331
EBC
  5
EC0
331
ED3
  5
ED7
331
E7E
  5
E82
331
E9D
  5
EA1
331
E5F
  5
E63
331
EF2
  5
EF6
331
DF3
  5
DF7
331
DBD
  5
DC1
331
E12
  5
E16
331
D7F
  5
D83
331
D9E
  5
DA2
331
E31
  5
E35
331
EF3
  5
EF7
331
F12
  5
F16
331
E9E
  5
EA2
331
EBD
  5
EC1
331
E60
  5
E64
331
E7F
  5
E83
331
ED4
  5
ED8
331
E32
  5
E36
331
DF4
  5
DF8
331
D9F
  5
DA3
331
DBE
  5
DC2
331
E13
  5
E17
331
F13
  5
F17
331
EBE
  5
EC2
331
ED5
  5
ED9
331
E80
  5
E84
331
E9F
  5
EA3
331
E61
  5
E65
331
EF4
  5
EF8
331
DF5
  5
DF9
331
DBF
  5
DC3
331
E14
  5
E18
331
E33
  5
E37
331
BA0
  5
BA0
331
ED6
  5
EDA
331
EF5
  5
EF9
331
EA0
  5
EA4
331
EBF
  5
EC3
331
E62
  5
E66
331
E81
  5
E85
331
F14
  5
F18
331
E15
  5
E19
331
E34
  5
E38
331
DF6
  5
DFA
331
BC0
  5
BC0
331
BA1
  5
BA1
331
F15
  5
F19
331
EC0
  5
EC4
331
ED7
  5
EDB
331
E82
  5
E86
331
EA1
  5
EA5
331
E63
  5
E67
331
EF6
  5
EFA
331
DF7
  5
DFB
331
E16
  5
E1A
331
E35
  5
E39
331
BE0
  5
BE0
331
BA2
  5
BA2
331
BC1
  5
BC1
331
ED8
  5
EDC
331
EF7
  5
EFB
331
EA2
  5
EA6
331
EC1
  5
EC5
331
E64
  5
E68
331
E83
  5
E87
331
F16
  5
F1A
331
E17
  5
E1B
331
E36
  5
E3A
331
BC2
  5
BC2
331
BE1
  5
BE1
331
BA3
  5
BA3
331
EF8
  5
EFC
331
F17
  5
F1B
331
EC2
  5
EC6
331
ED9
  5
EDD
331
E84
  5
E88
331
EA3
  5
EA7
331
E65
  5
E69
331
E37
  5
E3B
331
B30
  5
B30
331
BE2
  5
BE2
331
BA4
  5
BA4
331
BC3
  5
BC3
331
EDA
  5
EDE
331
EF9
  5
EFD
331
EA4
  5
EA8
331
EC3
  5
EC7
331
E66
  5
E6A
331
E85
  5
E89
331
F18
  5
F1C
331
B50
  5
B50
331
B31
  5
B31
331
BC4
  5
BC4
331
BE3
  5
BE3
331
BA5
  5
BA5
331
EFA
  5
EFE
331
F19
  5
F1D
331
EC4
  5
EC8
331
EDB
  5
EDF
331
E67
  5
E6B
331
E86
  5
E8A
331
EA5
  5
EA9
331
B32
  5
B32
331
BE4
  5
BE4
331
B51
  5
B51
331
BA6
  5
BA6
331
BC5
  5
BC5
331
B70
  5
B70
331
F1A
  5
F1E
331
EDC
  5
EE0
331
EFB
  5
EFF
331
EA6
  5
EAA
331
EC5
  5
EC9
331
E68
  5
E6C
331
E87
  5
E8B
331
B52
  5
B52
331
B71
  5
B71
331
B33
  5
B33
331
BA7
  5
BA7
331
BC6
  5
BC6
331
B88
  5
B88
331
BE5
  5
BE5
331
EFC
  5
F00
331
F1B
  5
F1F
331
EC6
  5
ECA
331
EDD
  5
EE1
331
E69
  5
E6D
331
E88
  5
E8C
331
EA7
  5
EAB
331
B72
  5
B72
331
B34
  5
B34
331
BE6
  5
BE6
331
B53
  5
B53
331
B89
  5
B89
331
BA8
  5
BA8
331
BC7
  5
BC7
331
F1C
  5
F20
331
EDE
  5
EE2
331
EFD
  5
F01
331
E89
  5
E8D
331
EA8
  5
EAC
331
E6A
  5
E6E
331
EC7
  5
ECB
331
B54
  5
B54
331
B73
  5
B73
331
B35
  5
B35
331
BA9
  5
BA9
331
BC8
  5
BC8
331
B8A
  5
B8A
331
BE7
  5
BE7
331
EFE
  5
F02
331
F1D
  5
F21
331
EDF
  5
EE3
331
E6B
  5
E6F
331
E8A
  5
E8E
331
EA9
  5
EAD
331
B74
  5
B74
331
B36
  5
B36
331
BC9
  5
BC9
331
BE8
  5
BE8
331
B8B
  5
B8B
331
BAA
  5
BAA
331
B55
  5
B55
331
B08
  5
B08
331
F1E
  5
F22
331
EE0
  5
EE4
331
E8B
  5
E8F
331
EAA
  5
EAE
331
E6C
  5
E70
331
EFF
  5
F03
331
B09
  5
B09
331
B56
  5
B56
331
B75
  5
B75
331
BF8
  5
BF8
331
B37
  5
B37
331
BAB
  5
BAB
331
BCA
  5
BCA
331
B8C
  5
B8C
331
BE9
  5
BE9
331
F00
  5
F04
331
F1F
  5
F23
331
EAB
  5
EAF
331
E6D
  5
E71
331
E8C
  5
E90
331
EE1
  5
EE5
331
BF9
  5
BF9
331
C18
  5
C18
331
B76
  5
B76
331
B38
  5
B38
331
BCB
  5
BCB
331
BEA
  5
BEA
331
B8D
  5
B8D
331
BAC
  5
BAC
331
B57
  5
B57
331
B0A
  5
B0A
331
EE2
  5
EE6
331
E8D
  5
E91
331
EAC
  5
EB0
331
E6E
  5
E72
331
F01
  5
F05
331
C19
  5
C19
331
C38
  5
C38
331
B0B
  5
B0B
331
B58
  5
B58
331
B77
  5
B77
331
BFA
  5
BFA
331
BEB
  5
BEB
331
BAD
  5
BAD
331
BCC
  5
BCC
331
B8E
  5
B8E
331
B39
  5
B39
331
F02
  5
F06
331
F29
  5
D22
331
EAD
  5
EB1
331
E6F
  5
E73
331
E8E
  5
E92
331
EE3
  5
EE7
331
C39
  5
C39
331
C58
  5
C58
331
BFB
  5
BFB
331
C1A
  5
C1A
331
B78
  5
B78
331
B3A
  5
B3A
331
BCD
  5
BCD
331
BEC
  5
BEC
331
B8F
  5
B8F
331
BAE
  5
BAE
331
B59
  5
B59
331
B0C
  5
B0C
331
F2A
  5
D23
331
EE4
  5
EE8
331
E8F
  5
E93
331
EAE
  5
EB2
331
F03
  5
F07
331
C59
  5
C59
331
C1B
  5
C1B
331
C3A
  5
C3A
331
B0D
  5
B0D
331
BFC
  5
BFC
331
B5A
  5
B5A
331
B79
  5
B79
331
BED
  5
BED
331
BAF
  5
BAF
331
BCE
  5
BCE
331
B90
  5
B90
331
B3B
  5
B3B
331
AEE
  5
AEE
331
F04
  5
F08
331
F2B
  5
D13
331
EAF
  5
EB3
331
EE5
  5
EE9
331
C3B
  5
C3B
331
C5A
  5
C5A
331
BFD
  5
BFD
331
C1C
  5
C1C
331
B7A
  5
B7A
331
AEF
  5
AEF
331
B3C
  5
B3C
331
BCF
  5
BCF
331
BEE
  5
BEE
331
B91
  5
B91
331
BB0
  5
BB0
331
B5B
  5
B5B
331
B0E
  5
B0E
331
F2C
  5
D14
331
EE6
  5
EEA
331
F05
  5
F09
331
C5B
  5
C5B
331
C1D
  5
C1D
331
C3C
  5
C3C
331
AF0
  5
AF0
331
B0F
  5
B0F
331
B5C
  5
B5C
331
B7B
  5
B7B
331
BFE
  5
BFE
331
BEF
  5
BEF
331
BB1
  5
BB1
331
BD0
  5
BD0
331
B92
  5
B92
331
B3D
  5
B3D
331
EE7
  5
EEB
331
F06
  5
F0A
331
C3D
  5
C3D
331
C5C
  5
C5C
331
BFF
  5
BFF
331
C1E
  5
C1E
331
B7C
  5
B7C
331
AF1
  5
AF1
331
B3E
  5
B3E
331
BD1
  5
BD1
331
BF0
  5
BF0
331
B93
  5
B93
331
BB2
  5
BB2
331
B5D
  5
B5D
331
B10
  5
B10
331
F07
  5
F0B
331
C5D
  5
C5D
331
C1F
  5
C1F
331
C3E
  5
C3E
331
AF2
  5
AF2
331
B11
  5
B11
331
B3F
  5
B3F
331
B5E
  5
B5E
331
BF1
  5
BF1
331
B20
  5
B20
331
BB3
  5
BB3
331
BD2
  5
BD2
331
B7D
  5
B7D
331
C00
  5
C00
331
B94
  5
B94
331
C3F
  5
C3F
331
C5E
  5
C5E
331
B12
  5
B12
331
C01
  5
C01
331
B7E
  5
B7E
331
AF3
  5
AF3
331
C20
  5
C20
331
B21
  5
B21
331
B40
  5
B40
331
BD3
  5
BD3
331
BF2
  5
BF2
331
B95
  5
B95
331
BB4
  5
BB4
331
B5F
  5
B5F
331
C5F
  5
C5F
331
C21
  5
C21
331
C40
  5
C40
331
AF4
  5
AF4
331
B13
  5
B13
331
B41
  5
B41
331
B60
  5
B60
331
BF3
  5
BF3
331
B22
  5
B22
331
B96
  5
B96
331
BB5
  5
BB5
331
BD4
  5
BD4
331
B7F
  5
B7F
331
C02
  5
C02
331
C41
  5
C41
331
C60
  5
C60
331
B14
  5
B14
331
C03
  5
C03
331
B61
  5
B61
331
B80
  5
B80
331
B23
  5
B23
331
B42
  5
B42
331
AF5
  5
AF5
331
BD5
  5
BD5
331
BF4
  5
BF4
331
C22
  5
C22
331
B97
  5
B97
331
BB6
  5
BB6
331
C70
  5
C70
331
C61
  5
C61
331
C04
  5
C04
331
C23
  5
C23
331
AF6
  5
AF6
331
B15
  5
B15
331
C42
  5
C42
331
B43
  5
B43
331
B62
  5
B62
331
BF5
  5
BF5
331
B24
  5
B24
331
B98
  5
B98
331
BB7
  5
BB7
331
BD6
  5
BD6
331
B81
  5
B81
331
C90
  5
C90
331
C71
  5
C71
331
C43
  5
C43
331
C62
  5
C62
331
B16
  5
B16
331
C05
  5
C05
331
B63
  5
B63
331
B82
  5
B82
331
B25
  5
B25
331
B44
  5
B44
331
AF7
  5
AF7
331
BB8
  5
BB8
331
BD7
  5
BD7
331
B99
  5
B99
331
BF6
  5
BF6
331
C24
  5
C24
331
CB0
  5
CB0
331
C72
  5
C72
331
C91
  5
C91
331
C63
  5
C63
331
C06
  5
C06
331
C25
  5
C25
331
B83
  5
B83
331
AF8
  5
AF8
331
B45
  5
B45
331
B64
  5
B64
331
B17
  5
B17
331
BF7
  5
BF7
331
B26
  5
B26
331
C44
  5
C44
331
B9A
  5
B9A
331
BB9
  5
BB9
331
BD8
  5
BD8
331
CD0
  5
CD0
331
C73
  5
C73
331
C92
  5
C92
331
CB1
  5
CB1
331
C26
  5
C26
331
C45
  5
C45
331
B18
  5
B18
331
C07
  5
C07
331
B65
  5
B65
331
B84
  5
B84
331
B27
  5
B27
331
BBA
  5
BBA
331
BD9
  5
BD9
331
B9B
  5
B9B
331
B46
  5
B46
331
AF9
  5
AF9
331
C64
  5
C64
331
CE8
  5
CE8
331
CB2
  5
CB2
331
CD1
  5
CD1
331
C74
  5
C74
331
C93
  5
C93
331
C65
  5
C65
331
C08
  5
C08
331
C27
  5
C27
331
B85
  5
B85
331
AFA
  5
AFA
331
B47
  5
B47
331
B66
  5
B66
331
B19
  5
B19
331
BDA
  5
BDA
331
B9C
  5
B9C
331
BBB
  5
BBB
331
B28
  5
B28
331
C46
  5
C46
331
D08
  5
D08
331
CD2
  5
CD2
331
CE9
  5
CE9
331
C75
  5
C75
331
C94
  5
C94
331
CB3
  5
CB3
331
C28
  5
C28
331
C47
  5
C47
331
B1A
  5
B1A
331
C09
  5
C09
331
B67
  5
B67
331
B86
  5
B86
331
B29
  5
B29
331
BBC
  5
BBC
331
BDB
  5
BDB
331
B9D
  5
B9D
331
B48
  5
B48
331
AFB
  5
AFB
331
C66
  5
C66
331
D28
  5
D2C
331
CEA
  5
CEA
331
D09
  5
D09
331
C95
  5
C95
331
CB4
  5
CB4
331
C76
  5
C76
331
CD3
  5
CD3
331
C48
  5
C48
331
C67
  5
C67
331
C0A
  5
C0A
331
C29
  5
C29
331
B87
  5
B87
331
AFC
  5
AFC
331
B49
  5
B49
331
B68
  5
B68
331
B1B
  5
B1B
331
BDC
  5
BDC
331
B9E
  5
B9E
331
BBD
  5
BBD
331
B2A
  5
B2A
331
D48
  5
D4C
331
D0A
  5
D0A
331
D29
  5
D2D
331
CD4
  5
CD4
331
CEB
  5
CEB
331
C77
  5
C77
331
C96
  5
C96
331
CB5
  5
CB5
331
C2A
  5
C2A
331
C49
  5
C49
331
B1C
  5
B1C
331
C0B
  5
C0B
331
B69
  5
B69
331
B2B
  5
B2B
331
BBE
  5
BBE
331
BDD
  5
BDD
331
B9F
  5
B9F
331
B4A
  5
B4A
331
AFD
  5
AFD
331
C68
  5
C68
331
D2A
  5
D2E
331
D49
  5
D4D
331
CEC
  5
CEC
331
D0B
  5
D0B
331
C97
  5
C97
331
CB6
  5
CB6
331
C78
  5
C78
331
CD5
  5
CD5
331
D60
  5
D64
331
C4A
  5
C4A
331
C69
  5
C69
331
C0C
  5
C0C
331
C2B
  5
C2B
331
AFE
  5
AFE
331
B4B
  5
B4B
331
B6A
  5
B6A
331
B1D
  5
B1D
331
BDE
  5
BDE
331
BBF
  5
BBF
331
B2C
  5
B2C
331
D4A
  5
D4E
331
D61
  5
D65
331
D0C
  5
D0C
331
D2B
  5
D2F
331
CB7
  5
CB7
331
CD6
  5
CD6
331
C79
  5
C79
331
C98
  5
C98
331
CED
  5
CED
331
D80
  5
D84
331
C6A
  5
C6A
331
C2C
  5
C2C
331
C4B
  5
C4B
331
B1E
  5
B1E
331
C0D
  5
C0D
331
B6B
  5
B6B
331
F20
  5
F24
331
B2D
  5
B2D
331
BDF
  5
BDF
331
B4C
  5
B4C
331
AFF
  5
AFF
331
D62
  5
D66
331
D81
  5
D85
331
D2C
  5
D30
331
D4B
  5
D4F
331
CEE
  5
CEE
331
D0D
  5
D0D
331
DA0
  5
DA4
331
C99
  5
C99
331
CB8
  5
CB8
331
C7A
  5
C7A
331
CD7
  5
CD7
331
C4C
  5
C4C
331
C6B
  5
C6B
331
C0E
  5
C0E
331
C2D
  5
C2D
331
F21
  5
F26
331
B00
  5
B00
331
B2E
  5
B2E
331
B4D
  5
B4D
331
B6C
  5
B6C
331
B1F
  5
B1F
  0
LAYOUT
  5
F
102
{ACAD_XDICTIONARY
360
F44
102
}
102
{ACAD_REACTORS
330
B
102
}
330
B
100
AcDbPlotSettings
  1

  2
hp deskjet 930c series
  4

  6

 40
0.0
 41
0.0
 42
0.0
 43
0.0
 44
0.0
 45
0.0
 46
0.0
 47
0.0
 48
0.0
 49
0.0
140
0.0
141
0.0
142
1.0
143
1.0
 70
   688
 72
     0
 73
     0
 74
     5
  7
monochrome.ctb
 75
    16
147
1.0
148
0.0
149
0.0
100
AcDbLayout
  1
Layout1
 70
     1
 71
     1
 10
0.0
 20
0.0
 11
420.0
 21
297.0
 12
0.0
 22
0.0
 32
0.0
 14
1.000000000000000E+20
 24
1.000000000000000E+20
 34
1.000000000000000E+20
 15
-1.000000000000000E+20
 25
-1.000000000000000E+20
 35
-1.000000000000000E+20
146
0.0
 13
0.0
 23
0.0
 33
0.0
 16
1.0
 26
0.0
 36
0.0
 17
0.0
 27
1.0
 37
0.0
 76
     0
330
C
  0
LAYOUT
  5
A
102
{ACAD_XDICTIONARY
360
F42
102
}
102
{ACAD_REACTORS
330
B
102
}
330
B
100
AcDbPlotSettings
  1

  2
HP DeskJet 1120C Printer
  4
A4
  6

 40
4.180416584014891
 41
13.49374103546142
 42
4.180404663085936
 43
3.757080078125
 44
209.9733276367186
 45
296.9259948730469
 46
0.0
 47
0.0
 48
232.1274484221087
 49
0.0
140
429.5274484221087
141
279.18
142
1.0
143
1.0
 70
 11952
 72
     1
 73
     0
 74
     4
  7
monochrome.ctb
 75
    16
147
1.0
148
-232.1274484221087
149
0.0
100
AcDbLayout
  1
Model
 70
     1
 71
     0
 10
0.0
 20
0.0
 11
12.0
 21
9.0
 12
0.0
 22
0.0
 32
0.0
 14
0.0
 24
0.0
 34
0.0
 15
0.0
 25
0.0
 35
0.0
146
0.0
 13
0.0
 23
0.0
 33
0.0
 16
1.0
 26
0.0
 36
0.0
 17
0.0
 27
1.0
 37
0.0
 76
     0
330
2
331
630
  0
MATERIAL
  5
63B
102
{ACAD_XDICTIONARY
360
63C
102
}
102
{ACAD_REACTORS
330
632
102
}
330
632
100
AcDbMaterial
  1
ByBlock
 72
     0
 43
0.0008202099737533
 43
0.0
 43
0.0
 43
0.0
 43
0.0
 43
0.0008202099737533
 43
0.0
 43
0.0
 43
0.0
 43
0.0
 43
1.0
 43
0.0
 43
0.0
 43
0.0
 43
0.0
 43
1.0
 77
     0
 47
0.0008202099737533
 47
0.0
 47
0.0
 47
0.0
 47
0.0
 47
0.0008202099737533
 47
0.0
 47
0.0
 47
0.0
 47
0.0
 47
1.0
 47
0.0
 47
0.0
 47
0.0
 47
0.0
 47
1.0
171
     0
 49
0.0008202099737533
 49
0.0
 49
0.0
 49
0.0
 49
0.0
 49
0.0008202099737533
 49
0.0
 49
0.0
 49
0.0
 49
0.0
 49
1.0
 49
0.0
 49
0.0
 49
0.0
 49
0.0
 49
1.0
175
     0
142
0.0008202099737533
142
0.0
142
0.0
142
0.0
142
0.0
142
0.0008202099737533
142
0.0
142
0.0
142
0.0
142
0.0
142
1.0
142
0.0
142
0.0
142
0.0
142
0.0
142
1.0
179
     0
144
0.0008202099737533
144
0.0
144
0.0
144
0.0
144
0.0
144
0.0008202099737533
144
0.0
144
0.0
144
0.0
144
0.0
144
1.0
144
0.0
144
0.0
144
0.0
144
0.0
144
1.0
147
0.0008202099737533
147
0.0
147
0.0
147
0.0
147
0.0
147
0.0008202099737533
147
0.0
147
0.0
147
0.0
147
0.0
147
1.0
147
0.0
147
0.0
147
0.0
147
0.0
147
1.0
  0
MATERIAL
  5
633
102
{ACAD_XDICTIONARY
360
634
102
}
102
{ACAD_REACTORS
330
632
102
}
330
632
100
AcDbMaterial
  1
ByLayer
 72
     0
 43
0.0008202099737533
 43
0.0
 43
0.0
 43
0.0
 43
0.0
 43
0.0008202099737533
 43
0.0
 43
0.0
 43
0.0
 43
0.0
 43
1.0
 43
0.0
 43
0.0
 43
0.0
 43
0.0
 43
1.0
 77
     0
 47
0.0008202099737533
 47
0.0
 47
0.0
 47
0.0
 47
0.0
 47
0.0008202099737533
 47
0.0
 47
0.0
 47
0.0
 47
0.0
 47
1.0
 47
0.0
 47
0.0
 47
0.0
 47
0.0
 47
1.0
171
     0
 49
0.0008202099737533
 49
0.0
 49
0.0
 49
0.0
 49
0.0
 49
0.0008202099737533
 49
0.0
 49
0.0
 49
0.0
 49
0.0
 49
1.0
 49
0.0
 49
0.0
 49
0.0
 49
0.0
 49
1.0
175
     0
142
0.0008202099737533
142
0.0
142
0.0
142
0.0
142
0.0
142
0.0008202099737533
142
0.0
142
0.0
142
0.0
142
0.0
142
1.0
142
0.0
142
0.0
142
0.0
142
0.0
142
1.0
179
     0
144
0.0008202099737533
144
0.0
144
0.0
144
0.0
144
0.0
144
0.0008202099737533
144
0.0
144
0.0
144
0.0
144
0.0
144
1.0
144
0.0
144
0.0
144
0.0
144
0.0
144
1.0
147
0.0008202099737533
147
0.0
147
0.0
147
0.0
147
0.0
147
0.0008202099737533
147
0.0
147
0.0
147
0.0
147
0.0
147
1.0
147
0.0
147
0.0
147
0.0
147
0.0
147
1.0
  0
MATERIAL
  5
643
102
{ACAD_XDICTIONARY
360
644
102
}
102
{ACAD_REACTORS
330
632
102
}
330
632
100
AcDbMaterial
  1
Global
 72
     0
 43
0.0008202099737533
 43
0.0
 43
0.0
 43
0.0
 43
0.0
 43
0.0008202099737533
 43
0.0
 43
0.0
 43
0.0
 43
0.0
 43
1.0
 43
0.0
 43
0.0
 43
0.0
 43
0.0
 43
1.0
 77
     0
 47
0.0008202099737533
 47
0.0
 47
0.0
 47
0.0
 47
0.0
 47
0.0008202099737533
 47
0.0
 47
0.0
 47
0.0
 47
0.0
 47
1.0
 47
0.0
 47
0.0
 47
0.0
 47
0.0
 47
1.0
171
     0
 49
0.0008202099737533
 49
0.0
 49
0.0
 49
0.0
 49
0.0
 49
0.0008202099737533
 49
0.0
 49
0.0
 49
0.0
 49
0.0
 49
1.0
 49
0.0
 49
0.0
 49
0.0
 49
0.0
 49
1.0
175
     0
142
0.0008202099737533
142
0.0
142
0.0
142
0.0
142
0.0
142
0.0008202099737533
142
0.0
142
0.0
142
0.0
142
0.0
142
1.0
142
0.0
142
0.0
142
0.0
142
0.0
142
1.0
179
     0
144
0.0008202099737533
144
0.0
144
0.0
144
0.0
144
0.0
144
0.0008202099737533
144
0.0
144
0.0
144
0.0
144
0.0
144
1.0
144
0.0
144
0.0
144
0.0
144
0.0
144
1.0
147
0.0008202099737533
147
0.0
147
0.0
147
0.0
147
0.0
147
0.0008202099737533
147
0.0
147
0.0
147
0.0
147
0.0
147
1.0
147
0.0
147
0.0
147
0.0
147
0.0
147
1.0
  0
MLEADERSTYLE
  5
682
102
{ACAD_REACTORS
330
681
102
}
330
681
100
AcDbMLeaderStyle
170
     2
171
     1
172
     0
 90
        2
 40
0.0
 41
0.0
173
     1
 91
-1056964608
340
15
 92
       -2
290
     1
 42
2.0
291
     1
 43
0.36
  3
Standard
 44
4.0
300

342
12
174
     1
178
     6
175
     1
176
     0
 93
-1056964608
 45
4.0
292
     0
297
     0
 46
4.0
 94
-1056964608
 47
1.0
 49
1.0
140
1.0
293
     1
141
0.0
294
     1
177
     0
142
1.0
295
     0
296
     0
143
0.125
1001
ACAD_MLEADERVER
1070
     2
  0
MLINESTYLE
  5
23
102
{ACAD_REACTORS
330
21
102
}
330
21
100
AcDbMlineStyle
  2
STANDARD
 70
     0
  3

 62
   256
 51
90.0
 52
90.0
 71
     2
 49
0.5
 62
   256
  6
BYLAYER
 49
-0.5
 62
   256
  6
BYLAYER
  0
ACDBPLACEHOLDER
  5
5
102
{ACAD_REACTORS
330
6
102
}
330
6
  0
SCALE
  5
660
102
{ACAD_REACTORS
330
65F
102
}
330
65F
100
AcDbScale
 70
     0
300
1:1
140
1.0
141
1.0
290
     1
  0
SCALE
  5
661
102
{ACAD_REACTORS
330
65F
102
}
330
65F
100
AcDbScale
 70
     0
300
1:2
140
1.0
141
2.0
290
     0
  0
SCALE
  5
662
102
{ACAD_REACTORS
330
65F
102
}
330
65F
100
AcDbScale
 70
     0
300
1:4
140
1.0
141
4.0
290
     0
  0
SCALE
  5
663
102
{ACAD_REACTORS
330
65F
102
}
330
65F
100
AcDbScale
 70
     0
300
1:5
140
1.0
141
5.0
290
     0
  0
SCALE
  5
664
102
{ACAD_REACTORS
330
65F
102
}
330
65F
100
AcDbScale
 70
     0
300
1:8
140
1.0
141
8.0
290
     0
  0
SCALE
  5
665
102
{ACAD_REACTORS
330
65F
102
}
330
65F
100
AcDbScale
 70
     0
300
1:10
140
1.0
141
10.0
290
     0
  0
SCALE
  5
666
102
{ACAD_REACTORS
330
65F
102
}
330
65F
100
AcDbScale
 70
     0
300
1:16
140
1.0
141
16.0
290
     0
  0
SCALE
  5
667
102
{ACAD_REACTORS
330
65F
102
}
330
65F
100
AcDbScale
 70
     0
300
1:20
140
1.0
141
20.0
290
     0
  0
SCALE
  5
668
102
{ACAD_REACTORS
330
65F
102
}
330
65F
100
AcDbScale
 70
     0
300
1:30
140
1.0
141
30.0
290
     0
  0
SCALE
  5
669
102
{ACAD_REACTORS
330
65F
102
}
330
65F
100
AcDbScale
 70
     0
300
1:40
140
1.0
141
40.0
290
     0
  0
SCALE
  5
66A
102
{ACAD_REACTORS
330
65F
102
}
330
65F
100
AcDbScale
 70
     0
300
1:50
140
1.0
141
50.0
290
     0
  0
SCALE
  5
66B
102
{ACAD_REACTORS
330
65F
102
}
330
65F
100
AcDbScale
 70
     0
300
1:100
140
1.0
141
100.0
290
     0
  0
SCALE
  5
66C
102
{ACAD_REACTORS
330
65F
102
}
330
65F
100
AcDbScale
 70
     0
300
2:1
140
2.0
141
1.0
290
     0
  0
SCALE
  5
66D
102
{ACAD_REACTORS
330
65F
102
}
330
65F
100
AcDbScale
 70
     0
300
4:1
140
4.0
141
1.0
290
     0
  0
SCALE
  5
66E
102
{ACAD_REACTORS
330
65F
102
}
330
65F
100
AcDbScale
 70
     0
300
8:1
140
8.0
141
1.0
290
     0
  0
SCALE
  5
66F
102
{ACAD_REACTORS
330
65F
102
}
330
65F
100
AcDbScale
 70
     0
300
10:1
140
10.0
141
1.0
290
     0
  0
SCALE
  5
670
102
{ACAD_REACTORS
330
65F
102
}
330
65F
100
AcDbScale
 70
     0
300
100:1
140
100.0
141
1.0
290
     0
  0
SCALE
  5
671
102
{ACAD_REACTORS
330
65F
102
}
330
65F
100
AcDbScale
 70
     0
300
1/128" = 1'-0"
140
0.0078125
141
12.0
290
     0
  0
SCALE
  5
672
102
{ACAD_REACTORS
330
65F
102
}
330
65F
100
AcDbScale
 70
     0
300
1/64" = 1'-0"
140
0.015625
141
12.0
290
     0
  0
SCALE
  5
673
102
{ACAD_REACTORS
330
65F
102
}
330
65F
100
AcDbScale
 70
     0
300
1/32" = 1'-0"
140
0.03125
141
12.0
290
     0
  0
SCALE
  5
674
102
{ACAD_REACTORS
330
65F
102
}
330
65F
100
AcDbScale
 70
     0
300
1/16" = 1'-0"
140
0.0625
141
12.0
290
     0
  0
SCALE
  5
675
102
{ACAD_REACTORS
330
65F
102
}
330
65F
100
AcDbScale
 70
     0
300
3/32" = 1'-0"
140
0.09375
141
12.0
290
     0
  0
SCALE
  5
676
102
{ACAD_REACTORS
330
65F
102
}
330
65F
100
AcDbScale
 70
     0
300
1/8" = 1'-0"
140
0.125
141
12.0
290
     0
  0
SCALE
  5
677
102
{ACAD_REACTORS
330
65F
102
}
330
65F
100
AcDbScale
 70
     0
300
3/16" = 1'-0"
140
0.1875
141
12.0
290
     0
  0
SCALE
  5
678
102
{ACAD_REACTORS
330
65F
102
}
330
65F
100
AcDbScale
 70
     0
300
1/4" = 1'-0"
140
0.25
141
12.0
290
     0
  0
SCALE
  5
679
102
{ACAD_REACTORS
330
65F
102
}
330
65F
100
AcDbScale
 70
     0
300
3/8" = 1'-0"
140
0.375
141
12.0
290
     0
  0
SCALE
  5
67A
102
{ACAD_REACTORS
330
65F
102
}
330
65F
100
AcDbScale
 70
     0
300
1/2" = 1'-0"
140
0.5
141
12.0
290
     0
  0
SCALE
  5
67B
102
{ACAD_REACTORS
330
65F
102
}
330
65F
100
AcDbScale
 70
     0
300
3/4" = 1'-0"
140
0.75
141
12.0
290
     0
  0
SCALE
  5
67C
102
{ACAD_REACTORS
330
65F
102
}
330
65F
100
AcDbScale
 70
     0
300
1" = 1'-0"
140
1.0
141
12.0
290
     0
  0
SCALE
  5
67D
102
{ACAD_REACTORS
330
65F
102
}
330
65F
100
AcDbScale
 70
     0
300
1-1/2" = 1'-0"
140
1.5
141
12.0
290
     0
  0
SCALE
  5
67E
102
{ACAD_REACTORS
330
65F
102
}
330
65F
100
AcDbScale
 70
     0
300
3" = 1'-0"
140
3.0
141
12.0
290
     0
  0
SCALE
  5
67F
102
{ACAD_REACTORS
330
65F
102
}
330
65F
100
AcDbScale
 70
     0
300
6" = 1'-0"
140
6.0
141
12.0
290
     0
  0
SCALE
  5
680
102
{ACAD_REACTORS
330
65F
102
}
330
65F
100
AcDbScale
 70
     0
300
1'-0" = 1'-0"
140
12.0
141
12.0
290
     0
  0
TABLESTYLE
  5
65E
102
{ACAD_XDICTIONARY
360
69E
102
}
102
{ACAD_REACTORS
330
65D
102
}
330
65D
100
AcDbTableStyle
  3
Standard
 70
     0
 71
     0
 40
1.5
 41
1.5
280
     0
281
     0
  7
Standard
140
4.5
170
     2
 62
     0
 63
     7
283
     0
274
    -2
284
     1
 64
     0
275
    -2
285
     1
 65
     0
276
    -2
286
     1
 66
     0
277
    -2
287
     1
 67
     0
278
    -2
288
     1
 68
     0
279
    -2
289
     1
 69
     0
  7
Standard
140
6.0
170
     5
 62
     0
 63
     7
283
     0
274
    -2
284
     1
 64
     0
275
    -2
285
     1
 65
     0
276
    -2
286
     1
 66
     0
277
    -2
287
     1
 67
     0
278
    -2
288
     1
 68
     0
279
    -2
289
     1
 69
     0
  7
Standard
140
4.5
170
     5
 62
     0
 63
     7
283
     0
274
    -2
284
     1
 64
     0
275
    -2
285
     1
 65
     0
276
    -2
286
     1
 66
     0
277
    -2
287
     1
 67
     0
278
    -2
288
     1
 68
     0
279
    -2
289
     1
 69
     0
  0
VISUALSTYLE
  5
651
102
{ACAD_REACTORS
330
64B
102
}
330
64B
100
AcDbVisualStyle
  2
2dWireframe
 70
     4
 71
     0
 72
     2
 73
     0
 90
        0
 40
-0.6
 41
-30.0
 62
     5
 63
     7
 74
     1
 91
        4
 64
     7
 65
   257
 75
     1
175
     1
 42
1.0
 92
        0
 66
   257
 43
1.0
 76
     1
 77
     6
 78
     2
 67
     7
 79
     5
170
     0
171
     0
290
     0
174
     0
 93
        1
 44
0.0
173
     0
291
     0
 45
0.0
1001
ACAD
1000
AcDbSavedByObjectVersion
1070
     0
1000
AcDbSavedByObjectVersion
1070
     0
  0
VISUALSTYLE
  5
653
102
{ACAD_REACTORS
330
64B
102
}
330
64B
100
AcDbVisualStyle
  2
3D Hidden
 70
     6
 71
     1
 72
     2
 73
     2
 90
        0
 40
-0.6
 41
-30.0
 62
     5
 63
     7
 74
     2
 91
        2
 64
     7
 65
   257
 75
     2
175
     1
 42
40.0
 92
        0
 66
   257
 43
1.0
 76
     1
 77
     6
 78
     2
 67
     7
 79
     3
170
     0
171
     0
290
     0
174
     0
 93
        1
 44
0.0
173
     0
291
     0
 45
0.0
1001
ACAD
1000
AcDbSavedByObjectVersion
1070
     0
1000
AcDbSavedByObjectVersion
1070
     0
  0
VISUALSTYLE
  5
652
102
{ACAD_REACTORS
330
64B
102
}
330
64B
100
AcDbVisualStyle
  2
3dWireframe
 70
     5
 71
     0
 72
     2
 73
     0
 90
        0
 40
-0.6
 41
-30.0
 62
     5
 63
     7
 74
     1
 91
        4
 64
     7
 65
   257
 75
     1
175
     1
 42
1.0
 92
        0
 66
   257
 43
1.0
 76
     1
 77
     6
 78
     2
 67
     7
 79
     5
170
     0
171
     0
290
     0
174
     0
 93
        1
 44
0.0
173
     0
291
     0
 45
0.0
1001
ACAD
1000
AcDbSavedByObjectVersion
1070
     0
1000
AcDbSavedByObjectVersion
1070
     0
  0
VISUALSTYLE
  5
650
102
{ACAD_REACTORS
330
64B
102
}
330
64B
100
AcDbVisualStyle
  2
Basic
 70
     7
 71
     1
 72
     0
 73
     1
 90
        0
 40
-0.6
 41
-30.0
 62
     5
 63
     7
 74
     0
 91
        4
 64
     7
 65
   257
 75
     1
175
     1
 42
1.0
 92
        8
 66
     7
 43
1.0
 76
     1
 77
     6
 78
     2
 67
     7
 79
     5
170
     0
171
     0
290
     0
174
     0
 93
        1
 44
0.0
173
     0
291
     1
 45
0.0
1001
ACAD
1000
AcDbSavedByObjectVersion
1070
     0
1000
AcDbSavedByObjectVersion
1070
     0
  0
VISUALSTYLE
  5
657
102
{ACAD_REACTORS
330
64B
102
}
330
64B
100
AcDbVisualStyle
  2
Brighten
 70
    12
 71
     2
 72
     2
 73
     0
 90
        0
 40
-0.6
 41
-30.0
 62
     5
 63
     7
 74
     1
 91
        4
 64
     7
 65
   257
 75
     1
175
     1
 42
1.0
 92
        8
 66
     7
 43
1.0
 76
     1
 77
     6
 78
     2
 67
     7
 79
     5
170
     0
171
     0
290
     0
174
     0
 93
        1
 44
50.0
173
     0
291
     1
 45
0.0
1001
ACAD
1000
AcDbSavedByObjectVersion
1070
     0
1000
AcDbSavedByObjectVersion
1070
     0
  0
VISUALSTYLE
  5
65B
102
{ACAD_REACTORS
330
64B
102
}
330
64B
100
AcDbVisualStyle
  2
ColorChange
 70
    16
 71
     2
 72
     2
 73
     3
 90
        0
 40
-0.6
 41
-30.0
 62
     5
 63
     8
 74
     1
 91
        4
 64
     7
 65
   257
 75
     1
175
     1
 42
1.0
 92
        8
 66
     8
 43
1.0
 76
     1
 77
     6
 78
     2
 67
     7
 79
     5
170
     0
171
     0
290
     0
174
     0
 93
        1
 44
0.0
173
     0
291
     1
 45
0.0
1001
ACAD
1000
AcDbSavedByObjectVersion
1070
     0
1000
AcDbSavedByObjectVersion
1070
     0
  0
VISUALSTYLE
  5
654
102
{ACAD_REACTORS
330
64B
102
}
330
64B
100
AcDbVisualStyle
  2
Conceptual
 70
     9
 71
     3
 72
     2
 73
     0
 90
        0
 40
-0.6
 41
-30.0
 62
     5
 63
     7
 74
     2
 91
        2
 64
     7
 65
   257
 75
     1
175
     1
 42
40.0
 92
        8
 66
     7
 43
1.0
 76
     1
 77
     6
 78
     2
 67
     7
 79
     3
170
     0
171
     0
290
     0
174
     0
 93
        1
 44
0.0
173
     0
291
     0
 45
0.0
1001
ACAD
1000
AcDbSavedByObjectVersion
1070
     0
1000
AcDbSavedByObjectVersion
1070
     0
  0
VISUALSTYLE
  5
656
102
{ACAD_REACTORS
330
64B
102
}
330
64B
100
AcDbVisualStyle
  2
Dim
 70
    11
 71
     2
 72
     2
 73
     0
 90
        0
 40
-0.6
 41
-30.0
 62
     5
 63
     7
 74
     1
 91
        4
 64
     7
 65
   257
 75
     1
175
     1
 42
1.0
 92
        8
 66
     7
 43
1.0
 76
     1
 77
     6
 78
     2
 67
     7
 79
     5
170
     0
171
     0
290
     0
174
     0
 93
        1
 44
-50.0
173
     0
291
     1
 45
0.0
1001
ACAD
1000
AcDbSavedByObjectVersion
1070
     0
1000
AcDbSavedByObjectVersion
1070
     0
  0
VISUALSTYLE
  5
65A
102
{ACAD_REACTORS
330
64B
102
}
330
64B
100
AcDbVisualStyle
  2
Facepattern
 70
    15
 71
     2
 72
     2
 73
     0
 90
        0
 40
-0.6
 41
-30.0
 62
     5
 63
     7
 74
     1
 91
        4
 64
     7
 65
   257
 75
     1
175
     1
 42
1.0
 92
        8
 66
     7
 43
1.0
 76
     1
 77
     6
 78
     2
 67
     7
 79
     5
170
     0
171
     0
290
     0
174
     0
 93
        1
 44
0.0
173
     0
291
     1
 45
0.0
1001
ACAD
1000
AcDbSavedByObjectVersion
1070
     0
1000
AcDbSavedByObjectVersion
1070
     0
  0
VISUALSTYLE
  5
64C
102
{ACAD_REACTORS
330
64B
102
}
330
64B
100
AcDbVisualStyle
  2
Flat
 70
     0
 71
     2
 72
     1
 73
     1
 90
        2
 40
-0.6
 41
30.0
 62
     5
 63
     7
 74
     0
 91
        4
 64
     7
 65
   257
 75
     1
175
     1
 42
1.0
 92
        8
 66
     7
 43
1.0
 76
     1
 77
     6
 78
     2
 67
     7
 79
     5
170
     0
171
     0
290
     0
174
     0
 93
       13
 44
0.0
173
     0
291
     1
 45
0.0
1001
ACAD
1000
AcDbSavedByObjectVersion
1070
     0
1000
AcDbSavedByObjectVersion
1070
     0
  0
VISUALSTYLE
  5
64D
102
{ACAD_REACTORS
330
64B
102
}
330
64B
100
AcDbVisualStyle
  2
FlatWithEdges
 70
     1
 71
     2
 72
     1
 73
     1
 90
        2
 40
-0.6
 41
30.0
 62
     5
 63
     7
 74
     1
 91
        4
 64
     7
 65
   257
 75
     1
175
     1
 42
1.0
 92
        0
 66
   257
 43
1.0
 76
     1
 77
     6
 78
     2
 67
     7
 79
     5
170
     0
171
     0
290
     0
174
     0
 93
       13
 44
0.0
173
     0
291
     1
 45
0.0
1001
ACAD
1000
AcDbSavedByObjectVersion
1070
     0
1000
AcDbSavedByObjectVersion
1070
     0
  0
VISUALSTYLE
  5
64E
102
{ACAD_REACTORS
330
64B
102
}
330
64B
100
AcDbVisualStyle
  2
Gouraud
 70
     2
 71
     2
 72
     2
 73
     1
 90
        2
 40
-0.6
 41
30.0
 62
     5
 63
     7
 74
     0
 91
        4
 64
     7
 65
   257
 75
     1
175
     1
 42
1.0
 92
        0
 66
     7
 43
1.0
 76
     1
 77
     6
 78
     2
 67
     7
 79
     5
170
     0
171
     0
290
     0
174
     0
 93
       13
 44
0.0
173
     0
291
     1
 45
0.0
1001
ACAD
1000
AcDbSavedByObjectVersion
1070
     0
1000
AcDbSavedByObjectVersion
1070
     0
  0
VISUALSTYLE
  5
64F
102
{ACAD_REACTORS
330
64B
102
}
330
64B
100
AcDbVisualStyle
  2
GouraudWithEdges
 70
     3
 71
     2
 72
     2
 73
     1
 90
        2
 40
-0.6
 41
30.0
 62
     5
 63
     7
 74
     1
 91
        4
 64
     7
 65
   257
 75
     1
175
     1
 42
1.0
 92
        0
 66
   257
 43
1.0
 76
     1
 77
     6
 78
     2
 67
     7
 79
     5
170
     0
171
     0
290
     0
174
     0
 93
       13
 44
0.0
173
     0
291
     1
 45
0.0
1001
ACAD
1000
AcDbSavedByObjectVersion
1070
     0
1000
AcDbSavedByObjectVersion
1070
     0
  0
VISUALSTYLE
  5
659
102
{ACAD_REACTORS
330
64B
102
}
330
64B
100
AcDbVisualStyle
  2
Linepattern
 70
    14
 71
     2
 72
     2
 73
     0
 90
        0
 40
-0.6
 41
-30.0
 62
     5
 63
     7
 74
     1
 91
        4
 64
     7
 65
   257
 75
     7
175
     7
 42
1.0
 92
        8
 66
     7
 43
1.0
 76
     1
 77
     6
 78
     2
 67
     7
 79
     5
170
     0
171
     0
290
     0
174
     0
 93
        1
 44
0.0
173
     0
291
     1
 45
0.0
1001
ACAD
1000
AcDbSavedByObjectVersion
1070
     0
1000
AcDbSavedByObjectVersion
1070
     0
  0
VISUALSTYLE
  5
655
102
{ACAD_REACTORS
330
64B
102
}
330
64B
100
AcDbVisualStyle
  2
Realistic
 70
     8
 71
     2
 72
     2
 73
     0
 90
        0
 40
-0.6
 41
-30.0
 62
     5
 63
     7
 74
     1
 91
        0
 64
     7
 65
   257
 75
     1
175
     1
 42
1.0
 92
        8
 66
     8
 43
1.0
 76
     1
 77
     6
 78
     2
 67
     7
 79
     5
170
     0
171
     0
290
     0
174
     0
 93
       13
 44
0.0
173
     0
291
     0
 45
0.0
1001
ACAD
1000
AcDbSavedByObjectVersion
1070
     0
1000
AcDbSavedByObjectVersion
1070
     0
  0
VISUALSTYLE
  5
658
102
{ACAD_REACTORS
330
64B
102
}
330
64B
100
AcDbVisualStyle
  2
Thicken
 70
    13
 71
     2
 72
     2
 73
     0
 90
        0
 40
-0.6
 41
-30.0
 62
     5
 63
     7
 74
     1
 91
        4
 64
     7
 65
   257
 75
     1
175
     1
 42
1.0
 92
       12
 66
     7
 43
1.0
 76
     1
 77
     6
 78
     2
 67
     7
 79
     5
170
     0
171
     0
290
     0
174
     0
 93
        1
 44
0.0
173
     0
291
     1
 45
0.0
1001
ACAD
1000
AcDbSavedByObjectVersion
1070
     0
1000
AcDbSavedByObjectVersion
1070
     0
  0
DICTIONARYVAR
  5
6A5
102
{ACAD_REACTORS
330
6A1
102
}
330
6A1
100
DictionaryVariables
280
     0
  1
1:1
  0
DICTIONARYVAR
  5
6A3
102
{ACAD_REACTORS
330
6A1
102
}
330
6A1
100
DictionaryVariables
280
     0
  1
STANDARD
  0
DICTIONARYVAR
  5
6A2
102
{ACAD_REACTORS
330
6A1
102
}
330
6A1
100
DictionaryVariables
280
     0
  1
STANDARD
  0
DICTIONARYVAR
  5
F2F
102
{ACAD_REACTORS
330
6A1
102
}
330
6A1
100
DictionaryVariables
280
     0
  1
1
  0
DICTIONARYVAR
  5
F2E
102
{ACAD_REACTORS
330
6A1
102
}
330
6A1
100
DictionaryVariables
280
     0
  1
0
  0
DICTIONARYVAR
  5
6A6
102
{ACAD_REACTORS
330
6A1
102
}
330
6A1
100
DictionaryVariables
280
     0
  1
0
  0
DICTIONARYVAR
  5
6A4
102
{ACAD_REACTORS
330
6A1
102
}
330
6A1
100
DictionaryVariables
280
     0
  1
0
  0
DICTIONARYVAR
  5
F2D
102
{ACAD_REACTORS
330
6A1
102
}
330
6A1
100
DictionaryVariables
280
     0
  1
127
  0
XRECORD
  5
69D
102
{ACAD_REACTORS
330
69B
102
}
330
69B
100
AcDbXrecord
280
     1
330
39
330
F2
  0
DICTIONARY
  5
F44
330
F
100
AcDbDictionary
280
     1
281
     1
  3
ACAD_XREC_ROUNDTRIP
360
F45
  0
DICTIONARY
  5
F42
330
A
100
AcDbDictionary
280
     1
281
     1
  3
ACAD_XREC_ROUNDTRIP
360
F43
  0
DICTIONARY
  5
63C
330
63B
100
AcDbDictionary
280
     1
281
     1
  3
ACAD_XREC_ROUNDTRIP
360
F3A
  3
BUMPTILE
360
63E
  3
DIFFUSETILE
360
63D
  3
OPACITYTILE
360
641
  3
REFLECTIONTILE
360
640
  3
REFRACTIONTILE
360
642
  3
SPECULARTILE
360
63F
  0
DICTIONARY
  5
634
330
633
100
AcDbDictionary
280
     1
281
     1
  3
ACAD_XREC_ROUNDTRIP
360
F39
  3
BUMPTILE
360
636
  3
DIFFUSETILE
360
635
  3
OPACITYTILE
360
639
  3
REFLECTIONTILE
360
638
  3
REFRACTIONTILE
360
63A
  3
SPECULARTILE
360
637
  0
DICTIONARY
  5
644
330
643
100
AcDbDictionary
280
     1
281
     1
  3
ACAD_XREC_ROUNDTRIP
360
F3B
  3
BUMPTILE
360
646
  3
DIFFUSETILE
360
645
  3
OPACITYTILE
360
649
  3
REFLECTIONTILE
360
648
  3
REFRACTIONTILE
360
64A
  3
SPECULARTILE
360
647
  0
DICTIONARY
  5
69E
330
65E
100
AcDbDictionary
280
     1
281
     1
  3
ACAD_ROUNDTRIP_2008_TABLESTYLE_CELLSTYLEMAP
360
F40
  3
ACAD_XREC_ROUNDTRIP
360
F46
  0
XRECORD
  5
F45
102
{ACAD_REACTORS
330
F44
102
}
330
F44
100
AcDbXrecord
280
     1
102
SHADEPLOT
 70
     0
102
SHADEPLOTRESLEVEL
 70
     2
102
SHADEPLOTCUSTOMDPI
 70
   300
  0
XRECORD
  5
F43
102
{ACAD_REACTORS
330
F42
102
}
330
F42
100
AcDbXrecord
280
     1
102
SHADEPLOT
 70
     0
102
SHADEPLOTRESLEVEL
 70
     2
102
SHADEPLOTCUSTOMDPI
 70
   300
  0
XRECORD
  5
F3A
102
{ACAD_REACTORS
330
63C
102
}
330
63C
100
AcDbXrecord
280
     1
102
MATERIAL
148
0.0
149
0.0
149
0.0
 93
        0
 94
      127
282
     0
 72
     0
 77
     0
171
     0
175
     0
179
     0
273
     0
  0
XRECORD
  5
63E
102
{ACAD_REACTORS
330
63C
102
}
330
63C
100
AcDbXrecord
280
     1
270
     1
271
     1
  0
XRECORD
  5
63D
102
{ACAD_REACTORS
330
63C
102
}
330
63C
100
AcDbXrecord
280
     1
270
     1
271
     1
  0
XRECORD
  5
641
102
{ACAD_REACTORS
330
63C
102
}
330
63C
100
AcDbXrecord
280
     1
270
     1
271
     1
  0
XRECORD
  5
640
102
{ACAD_REACTORS
330
63C
102
}
330
63C
100
AcDbXrecord
280
     1
270
     1
271
     1
  0
XRECORD
  5
642
102
{ACAD_REACTORS
330
63C
102
}
330
63C
100
AcDbXrecord
280
     1
270
     1
271
     1
  0
XRECORD
  5
63F
102
{ACAD_REACTORS
330
63C
102
}
330
63C
100
AcDbXrecord
280
     1
270
     1
271
     1
  0
XRECORD
  5
F39
102
{ACAD_REACTORS
330
634
102
}
330
634
100
AcDbXrecord
280
     1
102
MATERIAL
148
0.0
149
0.0
149
0.0
 93
        0
 94
      127
282
     0
 72
     0
 77
     0
171
     0
175
     0
179
     0
273
     0
  0
XRECORD
  5
636
102
{ACAD_REACTORS
330
634
102
}
330
634
100
AcDbXrecord
280
     1
270
     1
271
     1
  0
XRECORD
  5
635
102
{ACAD_REACTORS
330
634
102
}
330
634
100
AcDbXrecord
280
     1
270
     1
271
     1
  0
XRECORD
  5
639
102
{ACAD_REACTORS
330
634
102
}
330
634
100
AcDbXrecord
280
     1
270
     1
271
     1
  0
XRECORD
  5
638
102
{ACAD_REACTORS
330
634
102
}
330
634
100
AcDbXrecord
280
     1
270
     1
271
     1
  0
XRECORD
  5
63A
102
{ACAD_REACTORS
330
634
102
}
330
634
100
AcDbXrecord
280
     1
270
     1
271
     1
  0
XRECORD
  5
637
102
{ACAD_REACTORS
330
634
102
}
330
634
100
AcDbXrecord
280
     1
270
     1
271
     1
  0
XRECORD
  5
F3B
102
{ACAD_REACTORS
330
644
102
}
330
644
100
AcDbXrecord
280
     1
102
MATERIAL
148
0.0
149
0.0
149
0.0
 93
        0
 94
      127
282
     0
 72
     0
 77
     0
171
     0
175
     0
179
     0
273
     0
  0
XRECORD
  5
646
102
{ACAD_REACTORS
330
644
102
}
330
644
100
AcDbXrecord
280
     1
270
     1
271
     1
  0
XRECORD
  5
645
102
{ACAD_REACTORS
330
644
102
}
330
644
100
AcDbXrecord
280
     1
270
     1
271
     1
  0
XRECORD
  5
649
102
{ACAD_REACTORS
330
644
102
}
330
644
100
AcDbXrecord
280
     1
270
     1
271
     1
  0
XRECORD
  5
648
102
{ACAD_REACTORS
330
644
102
}
330
644
100
AcDbXrecord
280
     1
270
     1
271
     1
  0
XRECORD
  5
64A
102
{ACAD_REACTORS
330
644
102
}
330
644
100
AcDbXrecord
280
     1
270
     1
271
     1
  0
XRECORD
  5
647
102
{ACAD_REACTORS
330
644
102
}
330
644
100
AcDbXrecord
280
     1
270
     1
271
     1
  0
CELLSTYLEMAP
  5
F40
102
{ACAD_REACTORS
330
69E
102
}
330
69E
100
AcDbCellStyleMap
 90
        3
300
CELLSTYLE
  1
TABLEFORMAT_BEGIN
 90
        5
170
     1
 91
        0
 92
    32768
 62
   257
 93
        1
300
CONTENTFORMAT
  1
CONTENTFORMAT_BEGIN
 90
        0
 91
        0
 92
      512
 93
        0
300

 40
0.0
140
1.0
 94
        5
 62
     0
340
12
144
6.0
309
CONTENTFORMAT_END
171
     1
301
MARGIN
  1
CELLMARGIN_BEGIN
 40
1.5
 40
1.5
 40
1.5
 40
1.5
 40
0.18
 40
0.18
309
CELLMARGIN_END
 94
        6
 95
        1
302
GRIDFORMAT
  1
GRIDFORMAT_BEGIN
 90
        0
 91
        1
 62
     0
 92
       -2
340
0
 93
        0
 40
1.125
309
GRIDFORMAT_END
 95
        2
302
GRIDFORMAT
  1
GRIDFORMAT_BEGIN
 90
        0
 91
        1
 62
     0
 92
       -2
340
0
 93
        0
 40
1.125
309
GRIDFORMAT_END
 95
        4
302
GRIDFORMAT
  1
GRIDFORMAT_BEGIN
 90
        0
 91
        1
 62
     0
 92
       -2
340
0
 93
        0
 40
1.125
309
GRIDFORMAT_END
 95
        8
302
GRIDFORMAT
  1
GRIDFORMAT_BEGIN
 90
        0
 91
        1
 62
     0
 92
       -2
340
0
 93
        0
 40
1.125
309
GRIDFORMAT_END
 95
       16
302
GRIDFORMAT
  1
GRIDFORMAT_BEGIN
 90
        0
 91
        1
 62
     0
 92
       -2
340
0
 93
        0
 40
1.125
309
GRIDFORMAT_END
 95
       32
302
GRIDFORMAT
  1
GRIDFORMAT_BEGIN
 90
        0
 91
        1
 62
     0
 92
       -2
340
0
 93
        0
 40
1.125
309
GRIDFORMAT_END
309
TABLEFORMAT_END
  1
CELLSTYLE_BEGIN
 90
        1
 91
        1
300
_TITLE
309
CELLSTYLE_END
300
CELLSTYLE
  1
TABLEFORMAT_BEGIN
 90
        5
170
     1
 91
        0
 92
        0
 62
   257
 93
        1
300
CONTENTFORMAT
  1
CONTENTFORMAT_BEGIN
 90
        0
 91
        0
 92
      512
 93
        0
300

 40
0.0
140
1.0
 94
        5
 62
     0
340
12
144
4.5
309
CONTENTFORMAT_END
171
     1
301
MARGIN
  1
CELLMARGIN_BEGIN
 40
1.5
 40
1.5
 40
1.5
 40
1.5
 40
0.18
 40
0.18
309
CELLMARGIN_END
 94
        6
 95
        1
302
GRIDFORMAT
  1
GRIDFORMAT_BEGIN
 90
        0
 91
        1
 62
     0
 92
       -2
340
0
 93
        0
 40
1.125
309
GRIDFORMAT_END
 95
        2
302
GRIDFORMAT
  1
GRIDFORMAT_BEGIN
 90
        0
 91
        1
 62
     0
 92
       -2
340
0
 93
        0
 40
1.125
309
GRIDFORMAT_END
 95
        4
302
GRIDFORMAT
  1
GRIDFORMAT_BEGIN
 90
        0
 91
        1
 62
     0
 92
       -2
340
0
 93
        0
 40
1.125
309
GRIDFORMAT_END
 95
        8
302
GRIDFORMAT
  1
GRIDFORMAT_BEGIN
 90
        0
 91
        1
 62
     0
 92
       -2
340
0
 93
        0
 40
1.125
309
GRIDFORMAT_END
 95
       16
302
GRIDFORMAT
  1
GRIDFORMAT_BEGIN
 90
        0
 91
        1
 62
     0
 92
       -2
340
0
 93
        0
 40
1.125
309
GRIDFORMAT_END
 95
       32
302
GRIDFORMAT
  1
GRIDFORMAT_BEGIN
 90
        0
 91
        1
 62
     0
 92
       -2
340
0
 93
        0
 40
1.125
309
GRIDFORMAT_END
309
TABLEFORMAT_END
  1
CELLSTYLE_BEGIN
 90
        2
 91
        1
300
_HEADER
309
CELLSTYLE_END
300
CELLSTYLE
  1
TABLEFORMAT_BEGIN
 90
        5
170
     1
 91
        0
 92
        0
 62
   257
 93
        1
300
CONTENTFORMAT
  1
CONTENTFORMAT_BEGIN
 90
        0
 91
        0
 92
      512
 93
        0
300

 40
0.0
140
1.0
 94
        2
 62
     0
340
12
144
4.5
309
CONTENTFORMAT_END
171
     1
301
MARGIN
  1
CELLMARGIN_BEGIN
 40
1.5
 40
1.5
 40
1.5
 40
1.5
 40
0.18
 40
0.18
309
CELLMARGIN_END
 94
        6
 95
        1
302
GRIDFORMAT
  1
GRIDFORMAT_BEGIN
 90
        0
 91
        1
 62
     0
 92
       -2
340
0
 93
        0
 40
1.125
309
GRIDFORMAT_END
 95
        2
302
GRIDFORMAT
  1
GRIDFORMAT_BEGIN
 90
        0
 91
        1
 62
     0
 92
       -2
340
0
 93
        0
 40
1.125
309
GRIDFORMAT_END
 95
        4
302
GRIDFORMAT
  1
GRIDFORMAT_BEGIN
 90
        0
 91
        1
 62
     0
 92
       -2
340
0
 93
        0
 40
1.125
309
GRIDFORMAT_END
 95
        8
302
GRIDFORMAT
  1
GRIDFORMAT_BEGIN
 90
        0
 91
        1
 62
     0
 92
       -2
340
0
 93
        0
 40
1.125
309
GRIDFORMAT_END
 95
       16
302
GRIDFORMAT
  1
GRIDFORMAT_BEGIN
 90
        0
 91
        1
 62
     0
 92
       -2
340
0
 93
        0
 40
1.125
309
GRIDFORMAT_END
 95
       32
302
GRIDFORMAT
  1
GRIDFORMAT_BEGIN
 90
        0
 91
        1
 62
     0
 92
       -2
340
0
 93
        0
 40
1.125
309
GRIDFORMAT_END
309
TABLEFORMAT_END
  1
CELLSTYLE_BEGIN
 90
        3
 91
        2
300
_DATA
309
CELLSTYLE_END
  0
XRECORD
  5
F46
102
{ACAD_REACTORS
330
69E
102
}
330
69E
100
AcDbXrecord
280
     1
102
ACAD_ROUNDTRIP_PRE2007_TABLESTYLE
 90
      512
 91
        0
  1

 92
      512
 93
        0
  2

 94
      512
 95
        0
  3

  0
ENDSEC
  0
EOF
