  0
SECTION
  2
HEADER
  9
$ACADVER
  1
AC1015
  9
$ACADMAINTVER
 70
    20
  9
$DWGCODEPAGE
  3
ANSI_1252
  9
$INSBASE
 10
0.0
 20
0.0
 30
0.0
  9
$EXTMIN
 10
-19.71561113376265
 20
-299.8476331105321
 30
-0.0000000000000152
  9
$EXTMAX
 10
920.3132537748023
 20
52.98604598583733
 30
0.0000000000000153
  9
$LIMMIN
 10
-66.34999999999982
 20
-2008.85
  9
$LIMMAX
 10
3734.350000000001
 20
346.85
  9
$ORTHOMODE
 70
     0
  9
$REGENMODE
 70
     1
  9
$FILLMODE
 70
     1
  9
$QTEXTMODE
 70
     0
  9
$MIRRTEXT
 70
     1
  9
$LTSCALE
 40
10.0
  9
$ATTMODE
 70
     1
  9
$TEXTSIZE
 40
0.0
  9
$TRACEWID
 40
0.05
  9
$TEXTSTYLE
  7
Standard
  9
$CLAYER
  8
0
  9
$CELTYPE
  6
Continuous
  9
$CECOLOR
 62
   256
  9
$CELTSCALE
 40
1.0
  9
$DISPSILH
 70
     0
  9
$DIMSCALE
 40
1.0
  9
$DIMASZ
 40
1.25
  9
$DIMEXO
 40
0.0
  9
$DIMDLI
 40
0.38
  9
$DIMRND
 40
0.0
  9
$DIMDLE
 40
0.0
  9
$DIMEXE
 40
0.75
  9
$DIMTP
 40
0.0
  9
$DIMTM
 40
0.0
  9
$DIMTXT
 40
2.5
  9
$DIMCEN
 40
0.09
  9
$DIMTSZ
 40
0.0
  9
$DIMTOL
 70
     0
  9
$DIMLIM
 70
     0
  9
$DIMTIH
 70
     0
  9
$DIMTOH
 70
     0
  9
$DIMSE1
 70
     0
  9
$DIMSE2
 70
     0
  9
$DIMTAD
 70
     1
  9
$DIMZIN
 70
     0
  9
$DIMBLK
  1

  9
$DIMASO
 70
     1
  9
$DIMSHO
 70
     1
  9
$DIMPOST
  1

  9
$DIMAPOST
  1

  9
$DIMALT
 70
     0
  9
$DIMALTD
 70
     2
  9
$DIMALTF
 40
25.4
  9
$DIMLFAC
 40
1.0
  9
$DIMTOFL
 70
     0
  9
$DIMTVP
 40
0.0
  9
$DIMTIX
 70
     0
  9
$DIMSOXD
 70
     0
  9
$DIMSAH
 70
     0
  9
$DIMBLK1
  1

  9
$DIMBLK2
  1

  9
$DIMSTYLE
  2
Standard
  9
$DIMCLRD
 70
     7
  9
$DIMCLRE
 70
     7
  9
$DIMCLRT
 70
     7
  9
$DIMTFAC
 40
0.8
  9
$DIMGAP
 40
1.25
  9
$DIMJUST
 70
     0
  9
$DIMSD1
 70
     0
  9
$DIMSD2
 70
     0
  9
$DIMTOLJ
 70
     1
  9
$DIMTZIN
 70
     0
  9
$DIMALTZ
 70
     0
  9
$DIMALTTZ
 70
     0
  9
$DIMUPT
 70
     0
  9
$DIMDEC
 70
     2
  9
$DIMTDEC
 70
     2
  9
$DIMALTU
 70
     2
  9
$DIMALTTD
 70
     2
  9
$DIMTXSTY
  7
Standard
  9
$DIMAUNIT
 70
     0
  9
$DIMADEC
 70
     2
  9
$DIMALTRND
 40
0.0
  9
$DIMAZIN
 70
     0
  9
$DIMDSEP
 70
     0
  9
$DIMATFIT
 70
     3
  9
$DIMFRAC
 70
     0
  9
$DIMLDRBLK
  1

  9
$DIMLUNIT
 70
     2
  9
$DIMLWD
 70
     0
  9
$DIMLWE
 70
     0
  9
$DIMTMOVE
 70
     0
  9
$LUNITS
 70
     2
  9
$LUPREC
 70
     4
  9
$SKETCHINC
 40
0.1
  9
$FILLETRAD
 40
0.0
  9
$AUNITS
 70
     0
  9
$AUPREC
 70
     0
  9
$MENU
  1
acad
  9
$ELEVATION
 40
0.0
  9
$PELEVATION
 40
0.0
  9
$THICKNESS
 40
0.0
  9
$LIMCHECK
 70
     0
  9
$CHAMFERA
 40
0.0
  9
$CHAMFERB
 40
0.0
  9
$CHAMFERC
 40
0.0
  9
$CHAMFERD
 40
0.0
  9
$SKPOLY
 70
     0
  9
$TDCREATE
 40
2455303.727916667
  9
$TDUCREATE
 40
2455303.644583334
  9
$TDUPDATE
 40
2455306.505678739
  9
$TDUUPDATE
 40
2455306.422345405
  9
$TDINDWG
 40
0.0139111343
  9
$TDUSRTIMER
 40
0.0139106019
  9
$USRTIMER
 70
     1
  9
$ANGBASE
 50
0.0
  9
$ANGDIR
 70
     0
  9
$PDMODE
 70
     0
  9
$PDSIZE
 40
0.0
  9
$PLINEWID
 40
0.0
  9
$SPLFRAME
 70
     0
  9
$SPLINETYPE
 70
     6
  9
$SPLINESEGS
 70
     8
  9
$HANDSEED
  5
63BE
  9
$SURFTAB1
 70
     6
  9
$SURFTAB2
 70
     6
  9
$SURFTYPE
 70
     6
  9
$SURFU
 70
     6
  9
$SURFV
 70
     6
  9
$UCSBASE
  2

  9
$UCSNAME
  2

  9
$UCSORG
 10
0.0
 20
0.0
 30
0.0
  9
$UCSXDIR
 10
1.0
 20
0.0
 30
0.0
  9
$UCSYDIR
 10
0.0
 20
1.0
 30
0.0
  9
$UCSORTHOREF
  2

  9
$UCSORTHOVIEW
 70
     0
  9
$UCSORGTOP
 10
0.0
 20
0.0
 30
0.0
  9
$UCSORGBOTTOM
 10
0.0
 20
0.0
 30
0.0
  9
$UCSORGLEFT
 10
0.0
 20
0.0
 30
0.0
  9
$UCSORGRIGHT
 10
0.0
 20
0.0
 30
0.0
  9
$UCSORGFRONT
 10
0.0
 20
0.0
 30
0.0
  9
$UCSORGBACK
 10
0.0
 20
0.0
 30
0.0
  9
$PUCSBASE
  2

  9
$PUCSNAME
  2

  9
$PUCSORG
 10
0.0
 20
0.0
 30
0.0
  9
$PUCSXDIR
 10
1.0
 20
0.0
 30
0.0
  9
$PUCSYDIR
 10
0.0
 20
1.0
 30
0.0
  9
$PUCSORTHOREF
  2

  9
$PUCSORTHOVIEW
 70
     0
  9
$PUCSORGTOP
 10
0.0
 20
0.0
 30
0.0
  9
$PUCSORGBOTTOM
 10
0.0
 20
0.0
 30
0.0
  9
$PUCSORGLEFT
 10
0.0
 20
0.0
 30
0.0
  9
$PUCSORGRIGHT
 10
0.0
 20
0.0
 30
0.0
  9
$PUCSORGFRONT
 10
0.0
 20
0.0
 30
0.0
  9
$PUCSORGBACK
 10
0.0
 20
0.0
 30
0.0
  9
$USERI1
 70
     0
  9
$USERI2
 70
     0
  9
$USERI3
 70
     0
  9
$USERI4
 70
     0
  9
$USERI5
 70
     0
  9
$USERR1
 40
0.0
  9
$USERR2
 40
0.0
  9
$USERR3
 40
0.0
  9
$USERR4
 40
0.0
  9
$USERR5
 40
0.0
  9
$WORLDVIEW
 70
     1
  9
$SHADEDGE
 70
     3
  9
$SHADEDIF
 70
    70
  9
$TILEMODE
 70
     1
  9
$MAXACTVP
 70
    16
  9
$PINSBASE
 10
0.0
 20
0.0
 30
0.0
  9
$PLIMCHECK
 70
     0
  9
$PEXTMIN
 10
1.000000000000000E+20
 20
1.000000000000000E+20
 30
1.000000000000000E+20
  9
$PEXTMAX
 10
-1.000000000000000E+20
 20
-1.000000000000000E+20
 30
-1.000000000000000E+20
  9
$PLIMMIN
 10
0.0
 20
0.0
  9
$PLIMMAX
 10
12.0
 20
9.0
  9
$UNITMODE
 70
     0
  9
$VISRETAIN
 70
     0
  9
$PLINEGEN
 70
     1
  9
$PSLTSCALE
 70
     0
  9
$TREEDEPTH
 70
  3020
  9
$CMLSTYLE
  2
Standard
  9
$CMLJUST
 70
     0
  9
$CMLSCALE
 40
1.0
  9
$PROXYGRAPHICS
 70
     0
  9
$MEASUREMENT
 70
     1
  9
$CELWEIGHT
370
     0
  9
$ENDCAPS
280
     0
  9
$JOINSTYLE
280
     0
  9
$LWDISPLAY
290
     0
  9
$INSUNITS
 70
     0
  9
$HYPERLINKBASE
  1

  9
$STYLESHEET
  1

  9
$XEDIT
290
     1
  9
$CEPSNTYPE
380
     0
  9
$PSTYLEMODE
290
     1
  9
$FINGERPRINTGUID
  2

  9
$VERSIONGUID
  2
{F4EBED15-1162-4C99-A73B-43F77661297F}
  9
$EXTNAMES
290
     1
  9
$PSVPSCALE
 40
0.0
  9
$OLESTARTUP
290
     0
  0
ENDSEC
  0
SECTION
  2
CLASSES
  0
CLASS
  1
IMAGE
  2
AcDbRasterImage
  3
ISM
 90
    34943
280
     0
281
     1
  0
CLASS
  1
DICTIONARYVAR
  2
AcDbDictionaryVar
  3
ObjectDBX Classes
 90
        0
280
     0
281
     0
  0
CLASS
  1
RASTERVARIABLES
  2
AcDbRasterVariables
  3
ISM
 90
    32768
280
     0
281
     0
  0
CLASS
  1
IMAGEDEF
  2
AcDbRasterImageDef
  3
ISM
 90
    32768
280
     0
281
     0
  0
CLASS
  1
IMAGEDEF_REACTOR
  2
AcDbRasterImageDefReactor
  3
ISM
 90
    32769
280
     0
281
     0
  0
CLASS
  1
IDBUFFER
  2
AcDbIdBuffer
  3
ObjectDBX Classes
 90
    32768
280
     0
281
     0
  0
CLASS
  1
SPATIAL_FILTER
  2
AcDbSpatialFilter
  3
ObjectDBX Classes
 90
    32768
280
     0
281
     0
  0
CLASS
  1
SORTENTSTABLE
  2
AcDbSortentsTable
  3
ObjectDBX Classes
 90
        0
280
     0
281
     0
  0
CLASS
  1
LAYER_INDEX
  2
AcDbLayerIndex
  3
ObjectDBX Classes
 90
    32768
280
     0
281
     0
  0
CLASS
  1
SPATIAL_INDEX
  2
AcDbSpatialIndex
  3
ObjectDBX Classes
 90
    32768
280
     0
281
     0
  0
CLASS
  1
OBJECT_PTR
  2
CAseDLPNTableRecord
  3
ASE-LPNTableRecord
 90
    32769
280
     0
281
     0
  0
CLASS
  1
LAYOUT
  2
AcDbLayout
  3
ObjectDBX Classes
 90
        0
280
     0
281
     0
  0
CLASS
  1
PLOTSETTINGS
  2
AcDbPlotSettings
  3
ObjectDBX Classes
 90
    32768
280
     0
281
     0
  0
CLASS
  1
ACDBDICTIONARYWDFLT
  2
AcDbDictionaryWithDefault
  3
ObjectDBX Classes
 90
        0
280
     0
281
     0
  0
CLASS
  1
ACDBPLACEHOLDER
  2
AcDbPlaceHolder
  3
ObjectDBX Classes
 90
        0
280
     0
281
     0
  0
CLASS
  1
VBA_PROJECT
  2
AcDbVbaProject
  3
acad
 90
    32768
280
     0
281
     0
  0
CLASS
  1
WIPEOUT
  2
AcDbWipeout
  3
"WipeOut|Product Desc: Object Enabler for WipeOut entity                        |Company: Autodesk, Inc.                        |WEB Address: www.autodesk.com"
 90
    34943
280
     0
281
     1
  0
CLASS
  1
WIPEOUTVARIABLES
  2
AcDbWipeoutVariables
  3
"WipeOut|Product Desc:     WipeOut Dbx Application|Company:          Autodesk, Inc.|WEB Address:      www.autodesk.com"
 90
        0
280
     0
281
     0
  0
CLASS
  1
RTEXT
  2
RText
  3
RText|AutoCAD Express Tool|expresstools@autodesk.com
 90
    35839
280
     0
281
     1
  0
CLASS
  1
ARCALIGNEDTEXT
  2
AcDbArcAlignedText
  3
ATEXT|AutoCAD Express Tool|expresstools@autodesk.com
 90
    32768
280
     0
281
     1
  0
CLASS
  1
MATERIAL
  2
AcDbMaterial
  3
ObjectDBX Classes
 90
     1153
280
     0
281
     0
  0
CLASS
  1
VISUALSTYLE
  2
AcDbVisualStyle
  3
ObjectDBX Classes
 90
     4095
280
     0
281
     0
  0
CLASS
  1
TABLESTYLE
  2
AcDbTableStyle
  3
ObjectDBX Classes
 90
     4095
280
     0
281
     0
  0
CLASS
  1
SCALE
  2
AcDbScale
  3
ObjectDBX Classes
 90
     1153
280
     0
281
     0
  0
CLASS
  1
MLEADERSTYLE
  2
AcDbMLeaderStyle
  3
ACDB_MLEADERSTYLE_CLASS
 90
     4095
280
     0
281
     0
  0
CLASS
  1
CELLSTYLEMAP
  2
AcDbCellStyleMap
  3
ObjectDBX Classes
 90
     1152
280
     0
281
     0
  0
ENDSEC
  0
SECTION
  2
TABLES
  0
TABLE
  2
VPORT
  5
7
330
0
100
AcDbSymbolTable
 70
     1
  0
VPORT
  5
15
330
7
100
AcDbSymbolTableRecord
100
AcDbViewportTableRecord
  2
*ACTIVE
 70
     0
 10
0.0
 20
0.0
 11
1.0
 21
1.0
 12
449.4215159801049
 22
-146.4206433558023
 13
0.0
 23
0.0
 14
1.0
 24
1.0
 15
0.0
 25
0.0
 16
0.0
 26
0.0
 36
1.0
 17
0.0
 27
0.0
 37
0.0
 40
658.0893778932211
 41
1.611330698287219
 42
50.0
 43
0.0
 44
0.0
 50
0.0
 51
0.0
 71
     0
 72
   100
 73
     1
 74
     1
 75
     0
 76
     0
 77
     0
 78
     0
281
     0
 65
     0
110
0.0
120
0.0
130
0.0
111
1.0
121
0.0
131
0.0
112
0.0
122
1.0
132
0.0
 79
     0
146
0.0
  0
ENDTAB
  0
TABLE
  2
LTYPE
  5
4
330
0
100
AcDbSymbolTable
 70
     3
  0
LTYPE
  5
11
330
4
100
AcDbSymbolTableRecord
100
AcDbLinetypeTableRecord
  2
ByBlock
 70
     0
  3

 72
    65
 73
     0
 40
0.0
  0
LTYPE
  5
12
330
4
100
AcDbSymbolTableRecord
100
AcDbLinetypeTableRecord
  2
ByLayer
 70
     0
  3

 72
    65
 73
     0
 40
0.0
  0
LTYPE
  5
13
330
4
100
AcDbSymbolTableRecord
100
AcDbLinetypeTableRecord
  2
Continuous
 70
     0
  3
Solid line
 72
    65
 73
     0
 40
0.0
  0
LTYPE
  5
1E4
330
4
100
AcDbSymbolTableRecord
100
AcDbLinetypeTableRecord
  2
CENTER
 70
     0
  3
____ _ ____ _ ____ _ ____ _ ____ _ ____ _ ____
 72
    65
 73
     4
 40
2.0
 49
1.25
 74
     0
 49
-0.25
 74
     0
 49
0.25
 74
     0
 49
-0.25
 74
     0
  0
ENDTAB
  0
TABLE
  2
LAYER
  5
2
330
0
100
AcDbSymbolTable
 70
     2
  0
LAYER
  5
14
102
{ACAD_XDICTIONARY
360
5E41
102
}
330
2
100
AcDbSymbolTableRecord
100
AcDbLayerTableRecord
  2
0
 70
     0
 62
     7
  6
Continuous
370
    -3
390
1D
  0
LAYER
  5
635B
330
2
100
AcDbSymbolTableRecord
100
AcDbLayerTableRecord
  2
Defpoints
 70
     0
 62
     7
  6
Continuous
290
     0
370
    -3
390
1D
  0
ENDTAB
  0
TABLE
  2
STYLE
  5
3
330
0
100
AcDbSymbolTable
 70
     1
  0
STYLE
  5
17
330
3
100
AcDbSymbolTableRecord
100
AcDbTextStyleTableRecord
  2
Standard
 70
     0
 40
0.0
 41
1.0
 50
0.0
 71
     0
 42
0.0
  3
I011000D.TTF
  4

1001
ACAD
1000
IsonormD
1071
        0
  0
ENDTAB
  0
TABLE
  2
VIEW
  5
5
330
0
100
AcDbSymbolTable
 70
     0
  0
ENDTAB
  0
TABLE
  2
UCS
  5
6
330
0
100
AcDbSymbolTable
 70
     0
  0
ENDTAB
  0
TABLE
  2
APPID
  5
8
330
0
100
AcDbSymbolTable
 70
     7
  0
APPID
  5
16
330
8
100
AcDbSymbolTableRecord
100
AcDbRegAppTableRecord
  2
ACAD
 70
     0
  0
APPID
  5
26
330
8
100
AcDbSymbolTableRecord
100
AcDbRegAppTableRecord
  2
TopSolid'Draft
 70
     0
  0
APPID
  5
319D
330
8
100
AcDbSymbolTableRecord
100
AcDbRegAppTableRecord
  2
ACAD_MLEADERVER
 70
     0
  0
APPID
  5
5E45
330
8
100
AcDbSymbolTableRecord
100
AcDbRegAppTableRecord
  2
DCO15
 70
     0
  0
APPID
  5
6340
330
8
100
AcDbSymbolTableRecord
100
AcDbRegAppTableRecord
  2
ACAD_EXEMPT_FROM_CAD_STANDARDS
 70
     0
  0
APPID
  5
636D
330
8
100
AcDbSymbolTableRecord
100
AcDbRegAppTableRecord
  2
ACAD_DSTYLE_DIMJAG
 70
     0
  0
APPID
  5
636E
330
8
100
AcDbSymbolTableRecord
100
AcDbRegAppTableRecord
  2
ACAD_DSTYLE_DIMTALN
 70
     0
  0
ENDTAB
  0
TABLE
  2
DIMSTYLE
  5
9
330
0
100
AcDbSymbolTable
 70
     2
100
AcDbDimStyleTable
 71
     1
340
18
  0
DIMSTYLE
105
18
330
9
100
AcDbSymbolTableRecord
100
AcDbDimStyleTableRecord
  2
Standard
 70
     0
 41
1.25
 42
0.0
 44
0.75
 73
     0
 74
     0
 77
     1
140
2.5
146
0.8
147
1.25
176
     7
177
     7
178
     7
271
     2
340
17
  0
ENDTAB
  0
TABLE
  2
BLOCK_RECORD
  5
1
330
0
100
AcDbSymbolTable
 70
     4
  0
BLOCK_RECORD
  5
A
102
{ACAD_XDICTIONARY
360
31A7
102
}
330
1
100
AcDbSymbolTableRecord
100
AcDbBlockTableRecord
  2
*MODEL_SPACE
340
20
  0
BLOCK_RECORD
  5
B
330
1
100
AcDbSymbolTableRecord
100
AcDbBlockTableRecord
  2
*PAPER_SPACE
340
21
  0
ENDTAB
  0
ENDSEC
  0
SECTION
  2
BLOCKS
  0
BLOCK
  5
D
330
A
100
AcDbEntity
  8
0
100
AcDbBlockBegin
  2
*MODEL_SPACE
 70
     0
 10
0.0
 20
0.0
 30
0.0
  3
*MODEL_SPACE
  1

  0
ENDBLK
  5
E
330
A
100
AcDbEntity
  8
0
100
AcDbBlockEnd
  0
BLOCK
  5
F
330
B
100
AcDbEntity
 67
     1
  8
0
100
AcDbBlockBegin
  2
*PAPER_SPACE
 70
     0
 10
0.0
 20
0.0
 30
0.0
  3
*PAPER_SPACE
  1

  0
ENDBLK
  5
10
330
B
100
AcDbEntity
 67
     1
  8
0
100
AcDbBlockEnd
  0
ENDSEC
  0
SECTION
  2
ENTITIES
  0
LINE
  5
3136
330
A
100
AcDbEntity
  8
0
  6
CENTER
 62
     1
100
AcDbLine
 10
25.49978965089281
 20
-95.8241338974658
 30
0.0
 11
574.4956209063698
 21
-95.82413389718704
 31
0.0
  0
LINE
  5
3137
330
A
100
AcDbEntity
  8
0
  6
CENTER
 62
     1
100
AcDbLine
 10
-2.059158063298127
 20
-163.8241338296247
 30
0.0
 11
1.951110994782083
 21
-163.8241339617748
 31
0.0
  0
LINE
  5
3138
330
A
100
AcDbEntity
  8
0
  6
CENTER
 62
     1
100
AcDbLine
 10
599.9954105566615
 20
-167.8241338971829
 30
0.0
 11
599.9954105570467
 21
-121.3241338971759
 31
0.0
  0
LINE
  5
3139
330
A
100
AcDbEntity
  8
0
  6
CENTER
 62
     1
100
AcDbLine
 10
0.0
 20
-167.824133897479
 30
0.0
 11
0.0
 21
-121.3241338974778
 31
0.0
  0
LINE
  5
313F
330
A
100
AcDbEntity
  8
0
  6
CENTER
 62
     1
100
AcDbLine
 10
-0.0012523447906107
 20
17.49999994938563
 30
0.0
 11
-0.0007513698360511
 21
-17.90977903090424
 31
0.0
  0
LINE
  5
3140
330
A
100
AcDbEntity
  8
0
  6
CENTER
 62
     1
100
AcDbLine
 10
599.998746119378
 20
17.54293742792448
 30
0.0
 11
599.9992470935486
 21
-17.37074706616659
 31
0.0
  0
ELLIPSE
  5
31BD
330
A
100
AcDbEntity
  8
0
  6
Continuous
 62
     7
370
     0
100
AcDbEllipse
 10
697.1577994771887
 20
-276.7357459738471
 30
0.0
 11
1.599997053517209
 21
0.0030706246894052
 31
-0.0000000000000001
210
0.0000000000000001
220
-0.0000000000000001
230
1.0
 40
0.4114387120861804
 41
6.283185307179577
 42
7.285363385924839
  0
ELLIPSE
  5
31BE
330
A
100
AcDbEntity
  8
0
  6
Continuous
 62
     7
370
     0
100
AcDbEllipse
 10
697.1572747242629
 20
-276.4623152488141
 30
0.0
 11
1.039998084786385
 21
0.0019959060482133
 31
0.0000000000000001
210
-0.0000000000000001
220
0.0
230
0.9999999999999998
 40
0.4114387120861834
 41
5.818751147855842
 42
7.285363385924825
  0
ELLIPSE
  5
31BF
330
A
100
AcDbEntity
  8
0
  6
Continuous
 62
     7
370
     0
100
AcDbEllipse
 10
697.1572747242629
 20
-276.4623152488141
 30
0.0
 11
1.039998084786385
 21
0.0019959060482133
 31
-0.0000000000000001
210
0.0000000000000001
220
0.0
230
0.9999999999999998
 40
0.4114387120861804
 41
1.002178078745247
 42
2.139414574844535
  0
ELLIPSE
  5
31C0
330
A
100
AcDbEntity
  8
0
  6
Continuous
 62
     7
370
     0
100
AcDbEllipse
 10
697.1577994771887
 20
-276.7357459738471
 30
0.0
 11
1.599997053517209
 21
0.0030706246894052
 31
0.0
210
0.0
220
0.0
230
1.0
 40
0.4114387120861812
 41
3.141592653589783
 42
5.818751147855856
  0
ELLIPSE
  5
31C1
330
A
100
AcDbEntity
  8
0
  6
Continuous
 62
     7
370
     0
100
AcDbEllipse
 10
697.1572747242629
 20
-276.4623152488141
 30
0.0
 11
1.039998084786385
 21
0.0019959060482133
 31
-0.0000000000000001
210
0.0000000000000001
220
0.0
230
0.9999999999999998
 40
0.4114387120861793
 41
2.139414574844535
 42
5.818751147855842
  0
ELLIPSE
  5
31C2
330
A
100
AcDbEntity
  8
0
  6
Continuous
 62
     7
370
     0
100
AcDbEllipse
 10
697.1577994771887
 20
-276.7357459738471
 30
0.0
 11
1.599997053517209
 21
0.0030706246894052
 31
0.0
210
0.0
220
0.0000000000000001
230
1.0
 40
0.4114387120861809
 41
5.818751147855862
 42
6.283185307179584
  0
ELLIPSE
  5
31C3
330
A
100
AcDbEntity
  8
0
  6
Continuous
 62
     7
370
     0
100
AcDbEllipse
 10
697.1577994771887
 20
-276.7357459738471
 30
0.0
 11
1.599997053517209
 21
0.0030706246894052
 31
0.0
210
0.0
220
0.0
230
1.0
 40
0.4114387120861806
 41
2.139414574844527
 42
3.141592653589792
  0
LINE
  5
31C4
330
A
100
AcDbEntity
  8
0
  6
Continuous
 62
     7
370
     0
100
AcDbLine
 10
697.6662589452513
 20
-276.7786772551131
 30
0.0
 11
696.744159660639
 21
-276.8029205642629
 31
0.0
  0
LINE
  5
31C5
330
A
100
AcDbEntity
  8
0
  6
Continuous
 62
     7
370
     0
100
AcDbLine
 10
698.0793740088752
 20
-276.438071939664
 30
0.0
 11
697.666258945252
 21
-276.7786772551119
 31
0.0
  0
LINE
  5
31C6
330
A
100
AcDbEntity
  8
0
  6
Continuous
 62
     7
370
     0
100
AcDbLine
 10
697.5703897878871
 20
-276.1217099333657
 30
0.0
 11
698.0793740088752
 21
-276.438071939664
 31
0.0
  0
LINE
  5
31C7
330
A
100
AcDbEntity
  8
0
  6
Continuous
 62
     7
370
     0
100
AcDbLine
 10
696.6482905032758
 20
-276.145953242516
 30
0.0
 11
697.5703897878871
 21
-276.1217099333657
 31
0.0
  0
LINE
  5
31C8
330
A
100
AcDbEntity
  8
0
  6
Continuous
 62
     7
370
     0
100
AcDbLine
 10
696.2351754396518
 20
-276.4865585579648
 30
0.0
 11
696.6482905032758
 21
-276.145953242516
 31
0.0
  0
LINE
  5
31C9
330
A
100
AcDbEntity
  8
0
  6
Continuous
 62
     7
370
     0
100
AcDbLine
 10
696.744159660639
 20
-276.8029205642629
 30
0.0
 11
696.2351754396518
 21
-276.4865585579648
 31
0.0
  0
LINE
  5
31CA
330
A
100
AcDbEntity
  8
0
  6
Continuous
 62
     7
370
     0
100
AcDbLine
 10
696.6482905032758
 20
-276.145953242516
 30
0.0
 11
696.6494383293579
 21
-276.7440459878649
 31
0.0
  0
LINE
  5
31CB
330
A
100
AcDbEntity
  8
0
  6
Continuous
 62
     7
370
     0
100
AcDbLine
 10
697.5703897878871
 20
-276.1217099333657
 30
0.0
 11
697.571655376174
 21
-276.7811645182628
 31
0.0
  0
ELLIPSE
  5
31CC
330
A
100
AcDbEntity
  8
0
  6
Continuous
 62
     7
370
     0
100
AcDbEllipse
 10
911.8186833478707
 20
-99.75203258854186
 30
0.0
 11
1.599997053517653
 21
0.0030706245930379
 31
0.0000000000000001
210
-0.0000000000000001
220
-0.0000000000000001
230
1.0
 40
0.4114387119971525
 41
0.0000000000000089
 42
1.002178078337649
  0
ELLIPSE
  5
31CD
330
A
100
AcDbEntity
  8
0
  6
Continuous
 62
     7
370
     0
100
AcDbEllipse
 10
911.8181585949608
 20
-99.47860186349705
 30
0.0
 11
1.039998084786385
 21
0.0019959059855967
 31
-0.0000000000000001
210
0.0000000000000001
220
0.0
230
1.0
 40
0.4114387119971548
 41
5.818751147880615
 42
7.285363385517242
  0
ELLIPSE
  5
31CE
330
A
100
AcDbEntity
  8
0
  6
Continuous
 62
     7
370
     0
100
AcDbEllipse
 10
911.8181585949608
 20
-99.47860186349705
 30
0.0
 11
1.039998084786385
 21
0.0019959059855967
 31
0.0
210
0.0
220
-0.0000000000000001
230
1.0
 40
0.4114387119971556
 41
1.002178078337659
 42
2.13941457525218
  0
ELLIPSE
  5
31CF
330
A
100
AcDbEntity
  8
0
  6
Continuous
 62
     7
370
     0
100
AcDbEllipse
 10
911.8186833478707
 20
-99.75203258854186
 30
0.0
 11
1.599997053517653
 21
0.0030706245930379
 31
0.0
210
0.0
220
0.0
230
1.0
 40
0.4114387119971532
 41
3.141592653589801
 42
5.818751147880576
  0
ELLIPSE
  5
31D0
330
A
100
AcDbEntity
  8
0
  6
Continuous
 62
     7
370
     0
100
AcDbEllipse
 10
911.8181585949608
 20
-99.47860186349705
 30
0.0
 11
1.039998084786385
 21
0.0019959059855967
 31
0.0
210
0.0
220
0.0
230
1.0
 40
0.4114387119971514
 41
2.139414575252206
 42
5.818751147880612
  0
ELLIPSE
  5
31D1
330
A
100
AcDbEntity
  8
0
  6
Continuous
 62
     7
370
     0
100
AcDbEllipse
 10
911.8186833478707
 20
-99.75203258854186
 30
0.0
 11
1.599997053517653
 21
0.0030706245930379
 31
0.0
210
0.0
220
0.0
230
1.0
 40
0.4114387119971532
 41
5.818751147880576
 42
6.283185307179602
  0
ELLIPSE
  5
31D2
330
A
100
AcDbEntity
  8
0
  6
Continuous
 62
     7
370
     0
100
AcDbEllipse
 10
911.8186833478707
 20
-99.75203258854186
 30
0.0
 11
1.599997053517653
 21
0.0030706245930379
 31
0.0
210
0.0
220
0.0
230
1.0
 40
0.4114387119971532
 41
2.13941457525214
 42
3.141592653589801
  0
LINE
  5
31D3
330
A
100
AcDbEntity
  8
0
  6
Continuous
 62
     7
370
     0
100
AcDbLine
 10
912.3271428159492
 20
-99.79496386975187
 30
0.0
 11
911.4050435313377
 21
-99.81920717885099
 31
0.0
  0
LINE
  5
31D4
330
A
100
AcDbEntity
  8
0
  6
Continuous
 62
     7
370
     0
100
AcDbLine
 10
912.7402578795722
 20
-99.45435855439793
 30
0.0
 11
912.3271428159476
 21
-99.79496386975187
 31
0.0
  0
LINE
  5
31D5
330
A
100
AcDbEntity
  8
0
  6
Continuous
 62
     7
370
     0
100
AcDbLine
 10
912.231273658585
 20
-99.13799654814285
 30
0.0
 11
912.7402578795722
 21
-99.45435855439793
 31
0.0
  0
LINE
  5
31D6
330
A
100
AcDbEntity
  8
0
  6
Continuous
 62
     7
370
     0
100
AcDbLine
 10
911.3091743739728
 20
-99.16223985724196
 30
0.0
 11
912.231273658585
 21
-99.13799654814285
 31
0.0
  0
LINE
  5
31D7
330
A
100
AcDbEntity
  8
0
  6
Continuous
 62
     7
370
     0
100
AcDbLine
 10
910.8960593103487
 20
-99.50284517259593
 30
0.0
 11
911.3091743739728
 21
-99.16223985724196
 31
0.0
  0
LINE
  5
31D8
330
A
100
AcDbEntity
  8
0
  6
Continuous
 62
     7
370
     0
100
AcDbLine
 10
911.4050435313377
 20
-99.81920717885099
 30
0.0
 11
910.8960593103498
 21
-99.50284517259593
 31
0.0
  0
LINE
  5
31D9
330
A
100
AcDbEntity
  8
0
  6
Continuous
 62
     7
370
     0
100
AcDbLine
 10
911.3091743739728
 20
-99.16223985724196
 30
0.0
 11
911.3103222000182
 21
-99.76033260243887
 31
0.0
  0
LINE
  5
31DA
330
A
100
AcDbEntity
  8
0
  6
Continuous
 62
     7
370
     0
100
AcDbLine
 10
912.231273658585
 20
-99.13799654814285
 30
0.0
 11
912.232539246831
 21
-99.79745113289778
 31
0.0
  0
ELLIPSE
  5
31DB
330
A
100
AcDbEntity
  8
0
  6
Continuous
 62
     9
370
     0
100
AcDbEllipse
 10
913.2709318869437
 20
-111.0725238629659
 30
0.0
 11
-2.399999998625279
 21
-11.75755076563978
 31
0.0000000000000008
210
0.0000000000000001
220
0.0
230
1.0
 40
0.4082482905210762
 41
3.141601201053103
 42
6.283194694503531
  0
ELLIPSE
  5
31DC
330
A
100
AcDbEntity
  8
0
  6
Continuous
 62
     9
370
     0
100
AcDbEllipse
 10
915.4175571453352
 20
-111.510701908707
 30
0.0
 11
-1.919999998900133
 21
-9.406040612511821
 31
0.0
210
0.0000000000000001
220
0.0
230
0.9999999999999998
 40
0.4082482905210768
 41
0.0
 42
6.283185307179584
  0
ELLIPSE
  5
31DD
330
A
100
AcDbEntity
  8
0
  6
Continuous
 62
     7
370
     0
100
AcDbEllipse
 10
909.3354522465613
 20
-110.269197445775
 30
0.0
 11
-2.399999998625279
 21
-11.75755076563978
 31
0.0000000000000008
210
0.0
220
0.0000000000000001
230
1.0
 40
0.4082482905210762
 41
3.141592653589792
 42
6.283185307179584
  0
ELLIPSE
  5
31DE
330
A
100
AcDbEntity
  8
0
  6
Continuous
 62
     9
370
     0
100
AcDbEllipse
 10
698.610048016335
 20
-288.0562372482539
 30
0.0
 11
-2.399999998515589
 21
-11.7575507656622
 31
0.0
210
0.0000000000000001
220
0.0
230
1.0
 40
0.4082482905164376
 41
3.141601201049296
 42
6.283194694499718
  0
ELLIPSE
  5
31DF
330
A
100
AcDbEntity
  8
0
  6
Continuous
 62
     9
370
     0
100
AcDbEllipse
 10
700.7566732747349
 20
-288.4944152939759
 30
0.0
 11
-1.919999998812649
 21
-9.406040612529807
 31
0.0
210
0.0000000000000001
220
0.0
230
1.0
 40
0.4082482905163918
 41
0.0
 42
6.283185307179584
  0
ELLIPSE
  5
31E0
330
A
100
AcDbEntity
  8
0
  6
Continuous
 62
     7
370
     0
100
AcDbEllipse
 10
694.6745683759358
 20
-287.2529108310969
 30
0.0
 11
-2.399999998515589
 21
-11.7575507656622
 31
0.0
210
0.0000000000000001
220
0.0
230
1.0
 40
0.4082482905164376
 41
3.141592653585984
 42
6.283185307175776
  0
ELLIPSE
  5
31E1
330
A
100
AcDbEntity
  8
0
  6
Continuous
 62
     7
370
     0
100
AcDbEllipse
 10
904.6844308534527
 20
-109.3198116802639
 30
0.0
 11
-1.119999999140474
 21
-5.486857024009639
 31
0.0
210
0.0
220
0.0
230
1.0
 40
0.4082482905684667
 41
3.141592653589801
 42
6.28318530717958
  0
ELLIPSE
  5
31E2
330
A
100
AcDbEntity
  8
0
  6
Continuous
 62
     7
370
     0
100
AcDbEllipse
 10
690.0235469828388
 20
-286.3035250654259
 30
0.0
 11
1.119999999140919
 21
5.486857024009639
 31
0.0
210
0.0
220
0.0
230
1.0
 40
0.4082482905685904
 41
0.0
 42
3.141592653589778
  0
ELLIPSE
  5
31E3
330
A
100
AcDbEntity
  8
0
  6
Continuous
 62
     7
370
     0
100
AcDbEllipse
 10
678.9155078867669
 20
-275.1075348105239
 30
0.0
 11
1.599997053517653
 21
0.0030706244737999
 31
-0.0000000000000001
210
0.0000000000000001
220
-0.0000000000000001
230
0.9999999999999998
 40
0.4114387118627814
 41
4.980589611108421
 42
7.409502594867967
  0
ELLIPSE
  5
31E4
330
A
100
AcDbEntity
  8
0
  6
Continuous
 62
     7
370
     0
100
AcDbEllipse
 10
678.9155078867669
 20
-275.1075348105239
 30
0.0
 11
1.599997053517653
 21
0.0030706244737999
 31
-0.0000000000000001
210
0.0000000000000001
220
0.0
230
0.9999999999999998
 40
0.4114387118627799
 41
1.126317287688382
 42
2.015275365901394
  0
ELLIPSE
  5
31E5
330
A
100
AcDbEntity
  8
0
  6
Continuous
 62
     7
370
     0
100
AcDbEllipse
 10
678.9155078867669
 20
-275.1075348105239
 30
0.0
 11
1.599997053517653
 21
0.0030706244737999
 31
0.0
210
0.0
220
-0.0000000000000001
230
0.9999999999999998
 40
0.411438711862774
 41
2.01527536590141
 42
4.980589611108428
  0
LINE
  5
31E6
330
A
100
AcDbEntity
  8
0
  6
Continuous
 62
     7
370
     0
100
AcDbLine
 10
678.5665118459069
 20
-275.6598191471569
 30
0.0
 11
677.5796972827706
 21
-275.2611750356159
 31
0.0
  0
LINE
  5
31E7
330
A
100
AcDbEntity
  8
0
  6
Continuous
 62
     7
370
     0
100
AcDbLine
 10
679.9023224499027
 20
-275.5061789220661
 30
0.0
 11
678.5665118459069
 21
-275.6598191471569
 31
0.0
  0
LINE
  5
31E8
330
A
100
AcDbEntity
  8
0
  6
Continuous
 62
     7
370
     0
100
AcDbLine
 10
680.2513184907621
 20
-274.9538945854331
 30
0.0
 11
679.9023224499027
 21
-275.5061789220661
 31
0.0
  0
LINE
  5
31E9
330
A
100
AcDbEntity
  8
0
  6
Continuous
 62
     7
370
     0
100
AcDbLine
 10
679.2645039276257
 20
-274.5552504738921
 30
0.0
 11
680.2513184907621
 21
-274.9538945854331
 31
0.0
  0
LINE
  5
31EA
330
A
100
AcDbEntity
  8
0
  6
Continuous
 62
     7
370
     0
100
AcDbLine
 10
677.9286933236307
 20
-274.708890698983
 30
0.0
 11
679.2645039276266
 21
-274.5552504738921
 31
0.0
  0
LINE
  5
31EB
330
A
100
AcDbEntity
  8
0
  6
Continuous
 62
     7
370
     0
100
AcDbLine
 10
677.5796972827706
 20
-275.2611750356159
 30
0.0
 11
677.9286933236307
 21
-274.708890698983
 31
0.0
  0
LINE
  5
31EC
330
A
100
AcDbEntity
  8
0
  6
Continuous
 62
     7
370
     0
100
AcDbLine
 10
677.9286933236307
 20
-274.708890698983
 30
0.0
 11
677.9300248378707
 21
-275.4026970825819
 31
0.0
  0
LINE
  5
31ED
330
A
100
AcDbEntity
  8
0
  6
Continuous
 62
     7
370
     0
100
AcDbLine
 10
679.2645039276257
 20
-274.5552504738921
 30
0.0
 11
679.2664692499737
 21
-275.57931251486
 31
0.0
  0
ELLIPSE
  5
31EE
330
A
100
AcDbEntity
  8
0
  6
Continuous
 62
     7
370
     0
100
AcDbEllipse
 10
893.5763917572948
 20
-98.12382142507091
 30
0.0
 11
1.599997053517653
 21
0.0030706244737999
 31
0.0000000000000001
210
-0.0000000000000001
220
0.0
230
0.9999999999999998
 40
0.4114387118627715
 41
5.773838001500037
 42
7.40950259486798
  0
ELLIPSE
  5
31EF
330
A
100
AcDbEntity
  8
0
  6
Continuous
 62
     7
370
     0
100
AcDbEllipse
 10
893.5763917572948
 20
-98.12382142507091
 30
0.0
 11
1.599997053517653
 21
0.0030706244737999
 31
0.0
210
0.0
220
0.0
230
0.9999999999999998
 40
0.4114387118627695
 41
1.126317287688395
 42
2.015275365901473
  0
ELLIPSE
  5
31F0
330
A
100
AcDbEntity
  8
0
  6
Continuous
 62
     7
370
     0
100
AcDbEllipse
 10
893.5763917572948
 20
-98.12382142507091
 30
0.0
 11
1.599997053517653
 21
0.0030706244737999
 31
0.0
210
0.0
220
0.0
230
0.9999999999999998
 40
0.4114387118627749
 41
2.015275365901473
 42
5.773838001500037
  0
LINE
  5
31F1
330
A
100
AcDbEntity
  8
0
  6
Continuous
 62
     7
370
     0
100
AcDbLine
 10
894.2871812398719
 20
-98.61207224736586
 30
0.0
 11
892.9016994499587
 21
-98.62285577752393
 31
0.0
  0
LINE
  5
31F2
330
A
100
AcDbEntity
  8
0
  6
Continuous
 62
     7
370
     0
100
AcDbLine
 10
894.9618735472082
 20
-98.113037894914
 30
0.0
 11
894.2871812398719
 21
-98.61207224736586
 31
0.0
  0
LINE
  5
31F3
330
A
100
AcDbEntity
  8
0
  6
Continuous
 62
     7
370
     0
100
AcDbLine
 10
894.2510840646317
 20
-97.62478707261792
 30
0.0
 11
894.9618735472082
 21
-98.11303789491285
 31
0.0
  0
LINE
  5
31F4
330
A
100
AcDbEntity
  8
0
  6
Continuous
 62
     7
370
     0
100
AcDbLine
 10
892.8656022747187
 20
-97.63557060277594
 30
0.0
 11
894.2510840646317
 21
-97.62478707261792
 31
0.0
  0
LINE
  5
31F5
330
A
100
AcDbEntity
  8
0
  6
Continuous
 62
     7
370
     0
100
AcDbLine
 10
892.1909099673818
 20
-98.13460495522782
 30
0.0
 11
892.8656022747176
 21
-97.63557060277594
 31
0.0
  0
LINE
  5
31F6
330
A
100
AcDbEntity
  8
0
  6
Continuous
 62
     7
370
     0
100
AcDbLine
 10
892.9016994499587
 20
-98.62285577752393
 30
0.0
 11
892.1909099673818
 21
-98.13460495522782
 31
0.0
  0
LINE
  5
31F7
330
A
100
AcDbEntity
  8
0
  6
Continuous
 62
     7
370
     0
100
AcDbLine
 10
892.8656022747187
 20
-97.63557060277594
 30
0.0
 11
892.8674518688769
 21
-98.599330655059
 31
0.0
  0
LINE
  5
31F8
330
A
100
AcDbEntity
  8
0
  6
Continuous
 62
     7
370
     0
100
AcDbLine
 10
894.2510840646317
 20
-97.62478707261792
 30
0.0
 11
894.2529793177618
 21
-98.61233844895901
 31
0.0
  0
ELLIPSE
  5
31F9
330
A
100
AcDbEntity
  8
0
  6
Continuous
 62
     9
370
     0
100
AcDbEllipse
 10
668.199523522477
 20
-281.848714933984
 30
0.0
 11
1.99999999876299
 21
9.797958971385243
 31
0.0
210
0.0
220
0.0
230
0.9999999999999996
 40
0.4082482905164588
 41
0.0000000000000125
 42
2.038355222563326
  0
ELLIPSE
  5
31FA
330
A
100
AcDbEntity
  8
0
  6
Continuous
 62
     9
370
     0
100
AcDbEllipse
 10
668.199523522477
 20
-281.848714933984
 30
0.0
 11
1.99999999876299
 21
9.797958971385243
 31
0.0000000000000007
210
0.0
220
-0.0000000000000001
230
0.9999999999999996
 40
0.4082482905164583
 41
2.038355222563327
 42
3.141592653589792
  0
ELLIPSE
  5
3205
330
A
100
AcDbEntity
  8
0
  6
Continuous
 62
     9
370
     0
100
AcDbEllipse
 10
658.3607491645446
 20
-269.7203293180339
 30
0.0
 11
6.361444245674083
 21
-7.715700040124671
 31
0.0
210
0.0
220
0.0
230
0.9999999999999998
 40
0.8148935634001908
 41
0.8097724827756527
 42
3.141592293745051
  0
LINE
  5
3206
330
A
100
AcDbEntity
  8
0
  6
Continuous
 62
     7
370
     0
100
AcDbLine
 10
680.915224691031
 20
-274.958052098724
 30
0.0
 11
680.7040124335131
 21
-275.2903960319129
 31
0.0
  0
ELLIPSE
  5
3215
330
A
100
AcDbEntity
  8
0
  6
Continuous
 62
     9
370
     0
100
AcDbEllipse
 10
853.3443853469396
 20
-108.9601229929201
 30
0.0
 11
6.361444245674083
 21
-7.715700040124671
 31
-0.0000000000000007
210
0.0
220
-0.0000000000000001
230
0.9999999999999998
 40
0.8148935634001917
 41
6.283185307179577
 42
9.424777960769381
  0
ELLIPSE
  5
3216
330
A
100
AcDbEntity
  8
0
  6
Continuous
 62
     9
370
     0
100
AcDbEllipse
 10
882.8604073930028
 20
-104.8650015485368
 30
0.0
 11
-1.99999999876299
 21
-9.797958971385243
 31
-0.0000000000000007
210
0.0000000000000001
220
-0.0000000000000001
230
0.9999999999999996
 40
0.4082482905164588
 41
3.141592027846313
 42
6.283554531631517
  0
LINE
  5
3221
330
A
100
AcDbEntity
  8
0
  6
Continuous
 62
     7
370
     0
100
AcDbLine
 10
895.5761085615581
 20
-97.97433871328394
 30
0.0
 11
895.3648963040301
 21
-98.30668264647398
 31
0.0
  0
ELLIPSE
  5
3230
330
A
100
AcDbEntity
  8
0
  6
Continuous
 62
     7
370
     0
100
AcDbEllipse
 10
688.234692600874
 20
-285.9383766940549
 30
0.0
 11
-2.399999998515589
 21
-11.7575507656622
 31
0.0
210
0.0
220
0.0
230
1.0
 40
0.4082482905164608
 41
3.141592653589788
 42
5.350569514533392
  0
ELLIPSE
  5
3231
330
A
100
AcDbEntity
  8
0
  6
Continuous
 62
     7
370
     0
100
AcDbEllipse
 10
688.234692600874
 20
-285.9383766940549
 30
0.0
 11
-2.399999998515589
 21
-11.7575507656622
 31
0.0
210
0.0000000000000001
220
0.0
230
1.0
 40
0.4082482905164598
 41
5.350569514533392
 42
6.28318530717958
  0
ELLIPSE
  5
3232
330
A
100
AcDbEntity
  8
0
  6
Continuous
 62
     7
370
     0
100
AcDbEllipse
 10
688.234692600874
 20
-285.9383766940549
 30
0.0
 11
-2.399999998515589
 21
-11.7575507656622
 31
0.0
210
0.0
220
0.0
230
1.0
 40
0.4082482905164601
 41
2.842748677222711
 42
3.141592653589788
  0
ELLIPSE
  5
3233
330
A
100
AcDbEntity
  8
0
  6
Continuous
 62
     7
370
     0
100
AcDbEllipse
 10
688.234692600874
 20
-285.9383766940549
 30
0.0
 11
-2.399999998515589
 21
-11.7575507656622
 31
0.0000000000000008
210
0.0000000000000001
220
0.0
230
1.0
 40
0.4082482905164601
 41
0.000000000000004
 42
0.2988439755114588
  0
ELLIPSE
  5
3234
330
A
100
AcDbEntity
  8
0
  6
Continuous
 62
     9
370
     0
100
AcDbEllipse
 10
687.5191508480748
 20
-285.7923173454808
 30
0.0
 11
2.399999998515589
 21
11.7575507656622
 31
0.0
210
0.0
220
0.0
230
1.0
 40
0.40824829051646
 41
0.0000000000000025
 42
2.208976860943598
  0
ELLIPSE
  5
3235
330
A
100
AcDbEntity
  8
0
  6
Continuous
 62
     9
370
     0
100
AcDbEllipse
 10
687.5191508480748
 20
-285.7923173454808
 30
0.0
 11
2.399999998515589
 21
11.7575507656622
 31
0.0
210
0.0
220
0.0
230
1.0
 40
0.4082482905164609
 41
2.208976860943595
 42
3.141592653589786
  0
ELLIPSE
  5
3236
330
A
100
AcDbEntity
  8
0
  6
Continuous
 62
     7
370
     0
100
AcDbEllipse
 10
902.8955764714027
 20
-108.9546633087509
 30
0.0
 11
-2.399999999267431
 21
-11.75755076550877
 31
0.0
210
0.0000000000000001
220
0.0
230
0.9999999999999998
 40
0.4082482904898195
 41
2.842748678895921
 42
3.14159265358979
  0
ELLIPSE
  5
3237
330
A
100
AcDbEntity
  8
0
  6
Continuous
 62
     7
370
     0
100
AcDbEllipse
 10
902.8955764714027
 20
-108.9546633087509
 30
0.0
 11
-2.399999999267431
 21
-11.75755076550877
 31
0.0
210
0.0
220
0.0
230
0.9999999999999998
 40
0.4082482904898195
 41
3.14159265358979
 42
6.283185307179584
  0
ELLIPSE
  5
3238
330
A
100
AcDbEntity
  8
0
  6
Continuous
 62
     9
370
     0
100
AcDbEllipse
 10
902.1800347186026
 20
-108.8086039601289
 30
0.0
 11
2.399999999267431
 21
11.75755076550877
 31
0.0
210
0.0000000000000001
220
0.0
230
0.9999999999999998
 40
0.4082482904898195
 41
0.0000000000000002
 42
3.14159265358979
  0
ELLIPSE
  5
3239
330
A
100
AcDbEntity
  8
0
  6
Continuous
 62
     7
370
     0
100
AcDbEllipse
 10
902.8955764714027
 20
-108.9546633087509
 30
0.0
 11
-2.399999999267431
 21
-11.75755076550877
 31
0.0
210
0.0000000000000001
220
0.0
230
0.9999999999999998
 40
0.4082482904898195
 41
6.283185307179584
 42
6.582029281962852
  0
ELLIPSE
  5
323A
330
A
100
AcDbEntity
  8
0
  6
Continuous
 62
     7
370
     0
100
AcDbEllipse
 10
688.9502343536596
 20
-286.084436042604
 30
0.0
 11
0.6399999995090333
 21
3.135346870862586
 31
0.0000000000000002
210
0.0000000000000001
220
-0.0000000000000001
230
1.0
 40
0.4082482905684551
 41
1.117904886903664
 42
2.196459974623882
  0
ELLIPSE
  5
323B
330
A
100
AcDbEntity
  8
0
  6
Continuous
 62
     7
370
     0
100
AcDbEllipse
 10
688.9502343536596
 20
-286.084436042604
 30
0.0
 11
2.319999998220188
 21
11.36563240687715
 31
-0.0000000000000008
210
0.0
220
0.0000000000000001
230
1.0
 40
0.4082482905684569
 41
1.117904886903676
 42
3.141592653589794
  0
ELLIPSE
  5
323C
330
A
100
AcDbEntity
  8
0
  6
Continuous
 62
     7
370
     0
100
AcDbEllipse
 10
688.234692600874
 20
-285.9383766940549
 30
0.0
 11
2.319999998220188
 21
11.36563240687715
 31
0.0
210
0.0
220
0.0
230
1.0
 40
0.4082482905684575
 41
0.0000000000000037
 42
1.117904886903676
  0
ELLIPSE
  5
323D
330
A
100
AcDbEntity
  8
0
  6
Continuous
 62
     7
370
     0
100
AcDbEllipse
 10
688.9502343536596
 20
-286.084436042604
 30
0.0
 11
2.319999998220188
 21
11.36563240687715
 31
0.0
210
0.0
220
0.0
230
1.0
 40
0.4082482905684575
 41
0.0000000000000028
 42
1.117904886903676
  0
ELLIPSE
  5
323E
330
A
100
AcDbEntity
  8
0
  6
Continuous
 62
     7
370
     0
100
AcDbEllipse
 10
688.9502343536596
 20
-286.084436042604
 30
0.0
 11
2.319999998220188
 21
11.36563240687715
 31
0.0000000000000008
210
0.0
220
-0.0000000000000001
230
1.0
 40
0.4082482905684575
 41
3.141592653589796
 42
3.770688056315294
  0
ELLIPSE
  5
323F
330
A
100
AcDbEntity
  8
0
  6
Continuous
 62
     7
370
     0
100
AcDbEllipse
 10
688.9502343536596
 20
-286.084436042604
 30
0.0
 11
2.319999998220188
 21
11.36563240687715
 31
0.0
210
0.0
220
0.0
230
1.0
 40
0.4082482905684575
 41
5.654089904374258
 42
6.283185307179588
  0
ELLIPSE
  5
3240
330
A
100
AcDbEntity
  8
0
  6
Continuous
 62
     7
370
     0
100
AcDbEllipse
 10
688.234692600874
 20
-285.9383766940549
 30
0.0
 11
2.319999998220188
 21
11.36563240687715
 31
-0.0000000000000008
210
0.0
220
0.0000000000000001
230
1.0
 40
0.4082482905684569
 41
1.117904886903674
 42
3.141592653589783
  0
ELLIPSE
  5
3241
330
A
100
AcDbEntity
  8
0
  6
Continuous
 62
     7
370
     0
100
AcDbEllipse
 10
688.9502343536596
 20
-286.084436042604
 30
0.0
 11
0.6399999995090333
 21
3.135346870862586
 31
0.0
210
0.0000000000000001
220
0.0
230
1.0
 40
0.408248290568459
 41
0.9451326790087842
 42
1.117904886903676
  0
ELLIPSE
  5
3242
330
A
100
AcDbEntity
  8
0
  6
Continuous
 62
     7
370
     0
100
AcDbEllipse
 10
903.6111182242219
 20
-109.1007226573558
 30
0.0
 11
2.3199999989858
 21
11.36563240672106
 31
0.0000000000000008
210
0.0
220
-0.0000000000000001
230
0.9999999999999998
 40
0.4082482904443421
 41
3.596183553886453
 42
3.770688056526616
  0
ELLIPSE
  5
3243
330
A
100
AcDbEntity
  8
0
  6
Continuous
 62
     7
370
     0
100
AcDbEllipse
 10
903.6111182242219
 20
-109.1007226573558
 30
0.0
 11
2.3199999989858
 21
11.36563240672106
 31
0.0
210
0.0
220
0.0
230
0.9999999999999998
 40
0.4082482904443421
 41
5.654089904354457
 42
6.283185307179584
  0
ELLIPSE
  5
3244
330
A
100
AcDbEntity
  8
0
  6
Continuous
 62
     7
370
     0
100
AcDbEllipse
 10
902.8955764714027
 20
-108.95466330875
 30
0.0
 11
2.3199999989858
 21
11.36563240672106
 31
0.0
210
0.0000000000000001
220
0.0
230
0.9999999999999998
 40
0.4082482904443414
 41
0.0000000000000002
 42
3.141592653589788
  0
ELLIPSE
  5
3245
330
A
100
AcDbEntity
  8
0
  6
Continuous
 62
     7
370
     0
100
AcDbEllipse
 10
903.6111182242219
 20
-109.1007226573558
 30
0.0
 11
2.3199999989858
 21
11.36563240672106
 31
0.0
210
0.0000000000000001
220
0.0
230
0.9999999999999998
 40
0.4082482904443418
 41
3.141592653589788
 42
3.596183553886453
  0
ELLIPSE
  5
3246
330
A
100
AcDbEntity
  8
0
  6
Continuous
 62
     7
370
     0
100
AcDbEllipse
 10
903.6111182242219
 20
-109.1007226573558
 30
0.0
 11
2.3199999989858
 21
11.36563240672106
 31
0.0
210
0.0000000000000001
220
0.0
230
0.9999999999999998
 40
0.4082482904443414
 41
0.0000000000000031
 42
3.141592653589788
  0
ELLIPSE
  5
3247
330
A
100
AcDbEntity
  8
0
  6
Continuous
 62
     7
370
     0
100
AcDbEllipse
 10
903.6111182242219
 20
-109.1007226573558
 30
0.0
 11
0.6399999997199757
 21
3.135346870819509
 31
0.0000000000000002
210
0.0
220
-0.0000000000000001
230
0.9999999999999998
 40
0.4082482904443421
 41
0.9451326786494448
 42
2.196459975439799
  0
LINE
  5
3248
330
A
100
AcDbEntity
  8
0
  6
Continuous
 62
     7
370
     0
100
AcDbLine
 10
698.0182824909419
 20
-276.1793781913741
 30
0.0
 11
697.7165886832031
 21
-276.1006761902058
 31
0.0
  0
LINE
  5
3249
330
A
100
AcDbEntity
  8
0
  6
Continuous
 62
     7
370
     0
100
AcDbLine
 10
696.5965768156212
 20
-276.1028256542229
 30
0.0
 11
696.2951873100477
 21
-276.1826850590919
 31
0.0
  0
LINE
  5
324A
330
A
100
AcDbEntity
  8
0
  6
Continuous
 62
     7
370
     0
100
AcDbLine
 10
912.679166362207
 20
-99.19566480638399
 30
0.0
 11
912.3774725542798
 21
-99.11696280509389
 31
0.0
  0
LINE
  5
324B
330
A
100
AcDbEntity
  8
0
  6
Continuous
 62
     7
370
     0
100
AcDbLine
 10
911.257460685983
 20
-99.11911226904408
 30
0.0
 11
910.9560711802126
 21
-99.19897167399994
 31
0.0
  0
ARC
  5
324C
330
A
100
AcDbEntity
  8
0
  6
Continuous
 62
     7
370
     0
100
AcDbCircle
 10
911.671649369337
 20
-118.2571958834969
 30
0.0
 40
4.642455027671656
100
AcDbArc
 50
260.0690747147689
 51
312.6076288503452
  0
LINE
  5
3253
330
A
100
AcDbEntity
  8
0
  6
Continuous
 62
     7
370
     0
100
AcDbLine
 10
906.9354522479359
 20
-122.0267482114147
 30
0.0
 11
910.8709318883187
 21
-122.8300746286058
 31
0.0
  0
LINE
  5
3254
330
A
100
AcDbEntity
  8
0
  6
Continuous
 62
     7
370
     0
100
AcDbLine
 10
915.6709318855693
 20
-99.31497309732597
 30
0.0
 11
911.735452245186
 21
-98.51164668013508
 31
0.0
  0
ARC
  5
3255
330
A
100
AcDbEntity
  8
0
  6
Continuous
 62
     7
370
     0
100
AcDbCircle
 10
697.0107654987899
 20
-295.2409092688498
 30
0.0
 40
4.642455027620453
100
AcDbArc
 50
260.0690747150344
 51
312.6076288508893
  0
LINE
  5
325C
330
A
100
AcDbEntity
  8
0
  6
Continuous
 62
     7
370
     0
100
AcDbLine
 10
692.2745683774019
 20
-299.0104615967548
 30
0.0
 11
696.2100480178008
 21
-299.8137880139119
 31
0.0
  0
LINE
  5
325D
330
A
100
AcDbEntity
  8
0
  6
Continuous
 62
     7
370
     0
100
AcDbLine
 10
701.010048014869
 20
-276.2986864825959
 30
0.0
 11
697.0745683744699
 21
-275.4953600654389
 31
0.0
  0
LINE
  5
325E
330
A
100
AcDbEntity
  8
0
  6
Continuous
 62
     7
370
     0
100
AcDbLine
 10
903.5644308543121
 20
-114.806668704274
 30
0.0
 11
903.9701725148539
 21
-114.889490373851
 31
0.0
  0
LINE
  5
325F
330
A
100
AcDbEntity
  8
0
  6
Continuous
 62
     7
370
     0
100
AcDbLine
 10
906.2101725134755
 20
-103.9157763259008
 30
0.0
 11
905.8044308525927
 21
-103.8329546562549
 31
0.0
  0
LINE
  5
3260
330
A
100
AcDbEntity
  8
0
  6
Continuous
 62
     7
370
     0
100
AcDbLine
 10
691.5492886429229
 20
-280.8994897110749
 30
0.0
 11
691.1435469819799
 21
-280.816668041416
 31
0.0
  0
LINE
  5
3261
330
A
100
AcDbEntity
  8
0
  6
Continuous
 62
     7
370
     0
100
AcDbLine
 10
688.9035469836967
 20
-291.7903820894371
 30
0.0
 11
689.3092886443191
 21
-291.87320375903
 31
0.0
  0
LINE
  5
3262
330
A
100
AcDbEntity
  8
0
  6
Continuous
 62
     7
370
     0
100
AcDbLine
 10
679.9464649630707
 20
-274.5786234128868
 30
0.0
 11
679.6023461572898
 21
-274.5118776787099
 31
0.0
  0
LINE
  5
3263
330
A
100
AcDbEntity
  8
0
  6
Continuous
 62
     7
370
     0
100
AcDbLine
 10
678.2263883806307
 20
-274.514518339588
 30
0.0
 11
677.8825282980829
 21
-274.5825844042037
 31
0.0
  0
LINE
  5
3264
330
A
100
AcDbEntity
  8
0
  6
Continuous
 62
     7
370
     0
100
AcDbLine
 10
894.6073488336002
 20
-97.59491002743402
 30
0.0
 11
894.2632300278187
 21
-97.52816429325683
 31
0.0
  0
LINE
  5
3265
330
A
100
AcDbEntity
  8
0
  6
Continuous
 62
     7
370
     0
100
AcDbLine
 10
892.8872722511599
 20
-97.53080495413406
 30
0.0
 11
892.5434121686112
 21
-97.59887101874985
 31
0.0
  0
LINE
  5
3266
330
A
100
AcDbEntity
  8
0
  6
Continuous
 62
     7
370
     0
100
AcDbLine
 10
666.199523523714
 20
-291.646673905369
 30
0.0
 11
682.2118734249301
 21
-294.9151811400028
 31
0.0
  0
LINE
  5
3267
330
A
100
AcDbEntity
  8
0
  6
Continuous
 62
     7
370
     0
100
AcDbLine
 10
686.2101099317627
 20
-275.3189032262039
 30
0.0
 11
670.1995235212398
 21
-272.050755962599
 31
0.0
  0
ARC
  5
3268
330
A
100
AcDbEntity
  8
0
  6
Continuous
 62
     7
370
     0
100
AcDbCircle
 10
672.3129821749197
 20
-257.471486212246
 30
0.0
 40
14.73166025722728
100
AcDbArc
 50
238.9084717013926
 51
261.7516737800618
  0
LINE
  5
3271
330
A
100
AcDbEntity
  8
0
  6
Continuous
 62
     7
370
     0
100
AcDbLine
 10
846.9829411012662
 20
-101.2444229527959
 30
0.0
 11
651.9993049188698
 21
-262.0046292779089
 31
0.0
  0
LINE
  5
3272
330
A
100
AcDbEntity
  8
0
  6
Continuous
 62
     7
370
     0
100
AcDbLine
 10
671.0446699200462
 20
-272.2232707487401
 30
0.0
 11
859.7058295926141
 21
-116.6758230330449
 31
0.0
  0
LINE
  5
327D
330
A
100
AcDbEntity
  8
0
  6
Continuous
 62
     7
370
     0
100
AcDbLine
 10
847.1305023746067
 20
-101.123909498835
 30
0.0
 11
846.9829411012662
 21
-101.2444229527959
 31
0.0
  0
LINE
  5
327E
330
A
100
AcDbEntity
  8
0
  6
Continuous
 62
     7
370
     0
100
AcDbLine
 10
900.8723544687992
 20
-98.33546758564487
 30
0.0
 11
884.8604073917668
 21
-95.06704257715297
 31
0.0
  0
LINE
  5
327F
330
A
100
AcDbEntity
  8
0
  6
Continuous
 62
     7
370
     0
100
AcDbLine
 10
880.860407394241
 20
-114.662960519923
 30
0.0
 11
896.8714204038937
 21
-117.9311948627098
 31
0.0
  0
LINE
  5
3280
330
A
100
AcDbEntity
  8
0
  6
Continuous
 62
     7
370
     0
100
AcDbLine
 10
685.119150849558
 20
-297.549868111144
 30
0.0
 11
685.8346926023585
 21
-297.6959274597177
 31
0.0
  0
LINE
  5
3281
330
A
100
AcDbEntity
  8
0
  6
Continuous
 62
     7
370
     0
100
AcDbLine
 10
690.6346925993898
 20
-274.1808259283928
 30
0.0
 11
689.9191508465897
 21
-274.034766579819
 31
0.0
  0
LINE
  5
3282
330
A
100
AcDbEntity
  8
0
  6
Continuous
 62
     7
370
     0
100
AcDbLine
 10
689.9191717072708
 20
-274.0347708380568
 30
0.0
 11
689.8582307070986
 21
-274.022920937045
 31
0.0
  0
LINE
  5
328D
330
A
100
AcDbEntity
  8
0
  6
Continuous
 62
     7
370
     0
100
AcDbLine
 10
899.7800347193347
 20
-120.5661547256379
 30
0.0
 11
900.4955764721348
 21
-120.712214074259
 31
0.0
  0
LINE
  5
328E
330
A
100
AcDbEntity
  8
0
  6
Continuous
 62
     7
370
     0
100
AcDbLine
 10
905.2955764706707
 20
-97.19711254324192
 30
0.0
 11
904.580034717871
 21
-97.05105319461997
 31
0.0
  0
LINE
  5
328F
330
A
100
AcDbEntity
  8
0
  6
Continuous
 62
     7
370
     0
100
AcDbLine
 10
904.5800024714347
 20
-97.05104661250992
 30
0.0
 11
904.508667564613
 21
-97.03729412081996
 31
0.0
  0
LINE
  5
3296
330
A
100
AcDbEntity
  8
0
  6
Continuous
 62
     7
370
     0
100
AcDbLine
 10
685.9146926026542
 20
-297.3040091009329
 30
0.0
 11
686.6302343554407
 21
-297.450068449481
 31
0.0
  0
LINE
  5
3297
330
A
100
AcDbEntity
  8
0
  6
Continuous
 62
     7
370
     0
100
AcDbLine
 10
691.2702343518808
 20
-274.718803635727
 30
0.0
 11
690.554692599094
 21
-274.572744287178
 31
0.0
  0
LINE
  5
3298
330
A
100
AcDbEntity
  8
0
  6
Continuous
 62
     7
370
     0
100
AcDbLine
 10
900.5755764724167
 20
-120.320295715471
 30
0.0
 11
901.2911182252368
 21
-120.4663550640769
 31
0.0
  0
LINE
  5
3299
330
A
100
AcDbEntity
  8
0
  6
Continuous
 62
     7
370
     0
100
AcDbLine
 10
905.9311182232086
 20
-97.73509025063505
 30
0.0
 11
905.2155764703888
 21
-97.58903090202899
 31
0.0
  0
LINE
  5
33AF
330
A
100
AcDbEntity
  8
0
  6
Continuous
 62
     7
370
     0
100
AcDbLine
 10
761.7477052774898
 20
-9.653233893340939
 30
0.0
 11
761.7477052774939
 21
-4.000000001095031
 31
0.0
  0
LINE
  5
33B0
330
A
100
AcDbEntity
  8
0
  6
Continuous
 62
     7
370
     0
100
AcDbLine
 10
761.7477052774987
 20
3.999999998904968
 30
0.0
 11
761.7477052775051
 21
11.99999999903321
 31
0.0
  0
LINE
  5
33B1
330
A
100
AcDbEntity
  8
0
  6
Continuous
 62
     7
370
     0
100
AcDbLine
 10
761.7477052775051
 20
11.99999999903321
 30
0.0
 11
761.7477052775061
 21
13.01701885553621
 31
0.0
  0
LINE
  5
33B2
330
A
100
AcDbEntity
  8
0
  6
Continuous
 62
     7
370
     0
100
AcDbLine
 10
761.7477052775051
 20
13.01701885553621
 30
0.0
 11
761.7477052775061
 21
13.37459561136711
 31
0.0
  0
LINE
  5
33B3
330
A
100
AcDbEntity
  8
0
  6
Continuous
 62
     7
370
     0
100
AcDbLine
 10
761.7477052775061
 20
13.37459561136711
 30
0.0
 11
761.7477052775061
 21
14.34676610665906
 31
0.0
  0
ELLIPSE
  5
33B4
330
A
100
AcDbEntity
  8
0
  6
Continuous
 62
     7
370
     0
100
AcDbEllipse
 10
765.2477052758049
 20
15.49988143872315
 30
0.0
 11
1.300000000000077
 21
0.0000000001674216
 31
0.0
210
0.0
220
0.0
230
1.0
 40
0.003911277120734
 41
6.283185307167285
 42
9.417476789413726
  0
ELLIPSE
  5
33B5
330
A
100
AcDbEntity
  8
0
  6
Continuous
 62
     7
370
     0
100
AcDbEllipse
 10
765.247705275854
 20
15.12488430712596
 30
0.0
 11
1.999999999999779
 21
0.0000000002575717
 31
0.0
210
0.0
220
0.0
230
1.0
 40
0.003911277120734
 41
3.134291482264396
 42
6.283185307166927
  0
ELLIPSE
  5
33B6
330
A
100
AcDbEntity
  8
0
  6
Continuous
 62
     7
370
     0
100
AcDbEllipse
 10
765.2477052758049
 20
15.49988143872315
 30
0.0
 11
1.300000000000077
 21
0.0000000001674216
 31
0.0
210
0.0
220
0.0
230
1.0
 40
0.003911277120734
 41
3.134291482276328
 42
6.283185307165751
  0
LINE
  5
33B7
330
A
100
AcDbEntity
  8
0
  6
Continuous
 62
     7
370
     0
100
AcDbLine
 10
766.2477052758049
 20
15.497623261954
 30
0.0
 11
765.2477052758049
 21
15.4953650849261
 31
0.0
  0
LINE
  5
33B8
330
A
100
AcDbEntity
  8
0
  6
Continuous
 62
     7
370
     0
100
AcDbLine
 10
766.2477052758049
 20
15.50213961575014
 30
0.0
 11
766.2477052758049
 21
15.497623261954
 31
0.0
  0
LINE
  5
33B9
330
A
100
AcDbEntity
  8
0
  6
Continuous
 62
     7
370
     0
100
AcDbLine
 10
765.2477052758049
 20
15.50439779251997
 30
0.0
 11
766.2477052758049
 21
15.50213961575014
 31
0.0
  0
LINE
  5
33BA
330
A
100
AcDbEntity
  8
0
  6
Continuous
 62
     7
370
     0
100
AcDbLine
 10
764.2477052758049
 20
15.50213961549298
 30
0.0
 11
765.2477052758049
 21
15.50439779251997
 31
0.0
  0
LINE
  5
33BB
330
A
100
AcDbEntity
  8
0
  6
Continuous
 62
     7
370
     0
100
AcDbLine
 10
764.2477052758049
 20
15.49762326169616
 30
0.0
 11
764.2477052758049
 21
15.50213961549298
 31
0.0
  0
LINE
  5
33BC
330
A
100
AcDbEntity
  8
0
  6
Continuous
 62
     7
370
     0
100
AcDbLine
 10
765.2477052758049
 20
15.4953650849261
 30
0.0
 11
764.2477052758049
 21
15.49762326169616
 31
0.0
  0
LINE
  5
33BD
330
A
100
AcDbEntity
  8
0
  6
Continuous
 62
     7
370
     0
100
AcDbLine
 10
765.2477052758049
 20
15.50439779251997
 30
0.0
 11
765.2477052758058
 21
15.4953650849261
 31
0.0
  0
LINE
  5
33CC
330
A
100
AcDbEntity
  8
0
  6
Continuous
 62
     9
370
     0
100
AcDbLine
 10
767.2477052797338
 20
-15.00000000038517
 30
0.0
 11
767.2477052758678
 21
14.99988526352012
 31
0.0
  0
LINE
  5
33CD
330
A
100
AcDbEntity
  8
0
  6
Continuous
 62
     9
370
     0
100
AcDbLine
 10
767.2477052758678
 20
14.99988526352012
 30
0.0
 11
767.2477052758678
 21
14.9999999996121
 31
0.0
  0
LINE
  5
33CE
330
A
100
AcDbEntity
  8
0
  6
Continuous
 62
     7
370
     0
100
AcDbLine
 10
770.247705279347
 20
-11.99999999999909
 30
0.0
 11
770.2477052762551
 21
11.99999999999909
 31
0.0
  0
LINE
  5
33CF
330
A
100
AcDbEntity
  8
0
  6
Continuous
 62
     7
370
     0
100
AcDbLine
 10
761.7477052797338
 20
-15.00000000109389
 30
0.0
 11
761.7477052758689
 21
14.99999999890315
 31
0.0
  0
LINE
  5
33D0
330
A
100
AcDbEntity
  8
0
  6
Continuous
 62
     7
370
     0
100
AcDbLine
 10
755.2477052787521
 20
-4.653233894666981
 30
0.0
 11
755.2477052786348
 21
-4.000000001932903
 31
0.0
  0
LINE
  5
33D1
330
A
100
AcDbEntity
  8
0
  6
Continuous
 62
     7
370
     0
100
AcDbLine
 10
755.2477052772018
 20
3.999999998067096
 30
0.0
 11
755.2477052766647
 21
6.999999997870189
 31
0.0
  0
LINE
  5
33D4
330
A
100
AcDbEntity
  8
0
  6
Continuous
 62
     7
370
     0
100
AcDbLine
 10
760.2477052765475
 20
6.999999998770134
 30
0.0
 11
760.2477052790559
 21
-6.999712919300917
 31
0.0
  0
LINE
  5
33D5
330
A
100
AcDbEntity
  8
0
  6
Continuous
 62
     7
370
     0
100
AcDbLine
 10
755.2477052765457
 20
6.999999997874056
 30
0.0
 11
755.2477052790536
 21
-6.999712920196087
 31
0.0
  0
LINE
  5
33D6
330
A
100
AcDbEntity
  8
0
  6
Continuous
 62
     7
370
     0
100
AcDbLine
 10
755.2477052790536
 20
-6.999712920196087
 30
0.0
 11
755.2477052790536
 21
-7.000000002135037
 31
0.0
  0
LINE
  5
33D7
330
A
100
AcDbEntity
  8
0
  6
Continuous
 62
     7
370
     0
100
AcDbLine
 10
760.2477052790559
 20
-6.999712919300917
 30
0.0
 11
760.2477052790559
 21
-7.000000001238959
 31
0.0
  0
LINE
  5
33D8
330
A
100
AcDbEntity
  8
0
  6
Continuous
 62
     7
370
     0
100
AcDbLine
 10
740.1071352557087
 20
12.24327923638702
 30
0.0
 11
739.3500956485858
 21
12.24424264179811
 31
0.0
  0
LINE
  5
33D9
330
A
100
AcDbEntity
  8
0
  6
Continuous
 62
     7
370
     0
100
AcDbLine
 10
739.3882752967384
 20
12.25653335283005
 30
0.0
 11
740.3980867188174
 21
12.25524827107301
 31
0.0
  0
LINE
  5
33DA
330
A
100
AcDbEntity
  8
0
  6
Continuous
 62
     7
370
     0
100
AcDbLine
 10
739.0922427032618
 20
12.25549165173015
 30
0.0
 11
739.3882752967384
 21
12.25653335283005
 31
0.0
  0
LINE
  5
33DB
330
A
100
AcDbEntity
  8
0
  6
Continuous
 62
     7
370
     0
100
AcDbLine
 10
739.3882752967384
 20
12.25653335283005
 30
0.0
 11
739.38827529674
 21
12.24419405453909
 31
0.0
  0
LINE
  5
33E1
330
A
100
AcDbEntity
  8
0
  6
Continuous
 62
     9
370
     0
100
AcDbLine
 10
724.7477052761909
 20
12.49999999381407
 30
0.0
 11
724.747705277809
 21
-0.0488909667678854
 31
0.0
  0
ARC
  5
33E2
330
A
100
AcDbEntity
  8
0
  6
Continuous
 62
     7
370
     0
100
AcDbCircle
 10
739.8160909286139
 20
25.91360546628517
 30
0.0
 40
13.65719444766768
100
AcDbArc
 50
259.1623948295286
 51
269.2102018260667
  0
LINE
  5
33E3
330
A
100
AcDbEntity
  8
0
  6
Continuous
 62
     7
370
     0
100
AcDbLine
 10
739.8254839996898
 20
12.25737545338393
 30
0.0
 11
740.1264308207267
 21
12.262874553041
 31
0.0
  0
LINE
  5
33E4
330
A
100
AcDbEntity
  8
0
  6
Continuous
 62
     7
370
     0
100
AcDbLine
 10
740.1264308207267
 20
12.262874553041
 30
0.0
 11
742.2477052761909
 21
12.49990438266218
 31
0.0
  0
LINE
  5
33E5
330
A
100
AcDbEntity
  8
0
  6
Continuous
 62
     9
370
     0
100
AcDbLine
 10
724.7477052778081
 20
-0.0488909667678854
 30
0.0
 11
724.7477052794119
 21
-12.50000000618593
 31
0.0
  0
ARC
  5
33E6
330
A
100
AcDbEntity
  8
0
  6
Continuous
 62
     7
370
     0
100
AcDbCircle
 10
739.7481696339658
 20
24.2773428580672
 30
0.0
 40
12.03975645387816
100
AcDbArc
 50
258.015665524568
 51
281.9821429827542
  0
ELLIPSE
  5
33E7
330
A
100
AcDbEntity
  8
0
  6
Continuous
 62
     7
370
     0
100
AcDbEllipse
 10
697.2477052777873
 20
0.1075601035520322
 30
0.0
 11
12.50000000000017
 21
0.0000000016167068
 31
0.0
210
0.0
220
0.0
230
1.0
 40
0.9999923509274605
 41
1.51336696621686
 42
3.141592653589295
  0
ELLIPSE
  5
33E8
330
A
100
AcDbEntity
  8
0
  6
Continuous
 62
     7
370
     0
100
AcDbEllipse
 10
697.2477052777873
 20
0.1075601035520322
 30
0.0
 11
12.50000000000017
 21
0.0000000016100454
 31
0.0
210
0.0
220
0.0
230
1.0
 40
0.9999923509274605
 41
3.141592653589828
 42
3.735382046167728
  0
LINE
  5
33F0
330
A
100
AcDbEntity
  8
0
  6
Continuous
 62
     9
370
     0
100
AcDbLine
 10
751.7477052758692
 20
14.99999999729289
 30
0.0
 11
751.7477052781369
 21
-2.604722667711029
 31
0.0
  0
LINE
  5
33F1
330
A
100
AcDbEntity
  8
0
  6
Continuous
 62
     7
370
     0
100
AcDbLine
 10
749.7477052794761
 20
-13.00000000296495
 30
0.0
 11
749.7477052780928
 21
-2.257426312635061
 31
0.0
  0
LINE
  5
33F2
330
A
100
AcDbEntity
  8
0
  6
Continuous
 62
     7
370
     0
100
AcDbLine
 10
749.7477052780928
 20
-2.257426312635061
 30
0.0
 11
749.7477052761269
 21
12.99999999703504
 31
0.0
  0
LINE
  5
33F3
330
A
100
AcDbEntity
  8
0
  6
Continuous
 62
     9
370
     0
100
AcDbLine
 10
751.7477052781377
 20
-2.604722667711029
 30
0.0
 11
751.7477052797347
 21
-15.00000000270711
 31
0.0
  0
LINE
  5
33F4
330
A
100
AcDbEntity
  8
0
  6
Continuous
 62
     7
370
     0
100
AcDbLine
 10
752.747705279734
 20
-15.00000000257796
 30
0.0
 11
752.7477052781367
 21
-2.604722667581881
 31
0.0
  0
LINE
  5
33F5
330
A
100
AcDbEntity
  8
0
  6
Continuous
 62
     7
370
     0
100
AcDbLine
 10
752.7477052781367
 20
-2.604722667581881
 30
0.0
 11
752.747705275869
 21
14.99999999742203
 31
0.0
  0
LINE
  5
33F7
330
A
100
AcDbEntity
  8
0
  6
Continuous
 62
     7
370
     0
100
AcDbLine
 10
749.7477052783247
 20
-10.653233895016
 30
0.0
 11
749.7477052780292
 21
-6.000000003489956
 31
0.0
  0
LINE
  5
33F8
330
A
100
AcDbEntity
  8
0
  6
Continuous
 62
     7
370
     0
100
AcDbLine
 10
749.7477052772645
 20
5.999999996777205
 30
0.0
 11
749.7477052768517
 21
12.49999999703504
 31
0.0
  0
LINE
  5
33F9
330
A
100
AcDbEntity
  8
0
  6
Continuous
 62
     7
370
     0
100
AcDbLine
 10
749.7477052768517
 20
12.49999999703504
 30
0.0
 11
749.7477052768206
 21
12.99999999716601
 31
0.0
  0
LINE
  5
33FC
330
A
100
AcDbEntity
  8
0
  6
Continuous
 62
     7
370
     0
100
AcDbLine
 10
753.7477052752043
 20
14.49999999760098
 30
0.0
 11
753.7477052757408
 21
11.50575210466718
 31
0.0
  0
LINE
  5
33FD
330
A
100
AcDbEntity
  8
0
  6
Continuous
 62
     7
370
     0
100
AcDbLine
 10
753.7477052757408
 20
11.50575210466718
 30
0.0
 11
753.7477052803978
 21
-14.50000000239902
 31
0.0
  0
LINE
  5
33FF
330
A
100
AcDbEntity
  8
0
  6
Continuous
 62
     7
370
     0
100
AcDbLine
 10
753.7477052767298
 20
14.48956963436922
 30
0.0
 11
753.7477052768123
 21
13.18956672280592
 31
0.0
  0
LINE
  5
3400
330
A
100
AcDbEntity
  8
0
  6
Continuous
 62
     7
370
     0
100
AcDbLine
 10
753.7477052769141
 20
11.57359271869291
 30
0.0
 11
753.7477052769327
 21
11.27762844462199
 31
0.0
  0
LINE
  5
3401
330
A
100
AcDbEntity
  8
0
  6
Continuous
 62
     7
370
     0
100
AcDbLine
 10
753.7477052769327
 20
11.27762844462199
 30
0.0
 11
753.7477052773001
 21
5.489812568842125
 31
0.0
  0
LINE
  5
3402
330
A
100
AcDbEntity
  8
0
  6
Continuous
 62
     7
370
     0
100
AcDbLine
 10
753.7477052772987
 20
5.489812568842125
 30
0.0
 11
753.7477052773938
 21
3.999999997874056
 31
0.0
  0
LINE
  5
3403
330
A
100
AcDbEntity
  8
0
  6
Continuous
 62
     7
370
     0
100
AcDbLine
 10
753.7477052778999
 20
-4.000000002125942
 30
0.0
 11
753.7477052781369
 21
-7.740980341227896
 31
0.0
  0
LINE
  5
3404
330
A
100
AcDbEntity
  8
0
  6
Continuous
 62
     7
370
     0
100
AcDbLine
 10
753.7477052781358
 20
-7.740980341227896
 30
0.0
 11
753.7477052784161
 21
-12.15263922503004
 31
0.0
  0
LINE
  5
3405
330
A
100
AcDbEntity
  8
0
  6
Continuous
 62
     7
370
     0
100
AcDbLine
 10
753.7477052784161
 20
-12.15263922503095
 30
0.0
 11
753.7477052784161
 21
-12.1532338947618
 31
0.0
  0
LINE
  5
3408
330
A
100
AcDbEntity
  8
0
  6
Continuous
 62
     9
370
     0
100
AcDbLine
 10
753.7477052786011
 20
-3.375000002125943
 30
0.0
 11
755.2477052781688
 21
-3.375000001932903
 31
0.0
  0
LINE
  5
3409
330
A
100
AcDbEntity
  8
0
  6
Continuous
 62
     9
370
     0
100
AcDbLine
 10
760.2477052781702
 20
-3.375000001287843
 30
0.0
 11
761.7477052782368
 21
-3.375000001095031
 31
0.0
  0
LINE
  5
340A
330
A
100
AcDbEntity
  8
0
  6
Continuous
 62
     9
370
     0
100
AcDbLine
 10
761.7477052773669
 20
3.374999998904968
 30
0.0
 11
760.2477052769609
 21
3.374999998712154
 31
0.0
  0
LINE
  5
340B
330
A
100
AcDbEntity
  8
0
  6
Continuous
 62
     9
370
     0
100
AcDbLine
 10
755.2477052769586
 20
3.374999998068004
 30
0.0
 11
753.7477052782368
 21
3.374999997874056
 31
0.0
  0
LINE
  5
340C
330
A
100
AcDbEntity
  8
0
  6
Continuous
 62
     7
370
     0
100
AcDbLine
 10
767.247651968988
 20
15.12494142068499
 30
0.0
 11
766.5476706263421
 21
15.499918562537
 31
0.0
  0
LINE
  5
340D
330
A
100
AcDbEntity
  8
0
  6
Continuous
 62
     7
370
     0
100
AcDbLine
 10
763.9477399252678
 20
15.49991856220208
 30
0.0
 11
763.2477585827191
 21
15.12494142016999
 31
0.0
  0
LINE
  5
340E
330
A
100
AcDbEntity
  8
0
  6
Continuous
 62
     7
370
     0
100
AcDbLine
 10
767.2477052758678
 20
14.99988526352217
 30
0.0
 11
767.2477052758527
 21
15.12488430738403
 31
0.0
  0
LINE
  5
3415
330
A
100
AcDbEntity
  8
0
  6
Continuous
 62
     7
370
     0
100
AcDbLine
 10
753.7477052786315
 20
-4.000000002125942
 30
0.0
 11
755.2477052783042
 21
-4.000000001932903
 31
0.0
  0
LINE
  5
3416
330
A
100
AcDbEntity
  8
0
  6
Continuous
 62
     7
370
     0
100
AcDbLine
 10
760.2477052783077
 20
-4.000000001287843
 30
0.0
 11
761.7477052783293
 21
-4.000000001095031
 31
0.0
  0
LINE
  5
3417
330
A
100
AcDbEntity
  8
0
  6
Continuous
 62
     7
370
     0
100
AcDbLine
 10
761.7477052772978
 20
3.999999998904968
 30
0.0
 11
760.2477052768748
 21
3.999999998712154
 31
0.0
  0
LINE
  5
3418
330
A
100
AcDbEntity
  8
0
  6
Continuous
 62
     7
370
     0
100
AcDbLine
 10
755.2477052768709
 20
3.999999998067096
 30
0.0
 11
753.7477052782008
 21
3.999999997874056
 31
0.0
  0
ARC
  5
341B
330
A
100
AcDbEntity
  8
0
  6
Continuous
 62
     7
370
     0
100
AcDbCircle
 10
767.2477052793469
 20
-12.00000000038608
 30
0.0
 40
3.000000000000113
100
AcDbArc
 50
270.0000000073735
 51
0.0000000073735944
  0
ARC
  5
341C
330
A
100
AcDbEntity
  8
0
  6
Continuous
 62
     7
370
     0
100
AcDbCircle
 10
767.2477052762559
 20
11.99999999961301
 30
0.0
 40
3.000000000000113
100
AcDbArc
 50
0.000000007386622
 51
90.00000000738664
  0
LINE
  5
341D
330
A
100
AcDbEntity
  8
0
  6
Continuous
 62
     7
370
     0
100
AcDbLine
 10
761.7477052797338
 20
-15.00000000109503
 30
0.0
 11
767.2477052797338
 21
-15.00000000038608
 31
0.0
  0
LINE
  5
341E
330
A
100
AcDbEntity
  8
0
  6
Continuous
 62
     7
370
     0
100
AcDbLine
 10
763.247705275935
 20
14.99999999909801
 30
0.0
 11
761.7477052758689
 21
14.99999999890406
 31
0.0
  0
LINE
  5
3420
330
A
100
AcDbEntity
  8
0
  6
Continuous
 62
     7
370
     0
100
AcDbLine
 10
760.2477052765475
 20
6.999999998766043
 30
0.0
 11
755.2477052765457
 21
6.999999997870189
 31
0.0
  0
LINE
  5
3421
330
A
100
AcDbEntity
  8
0
  6
Continuous
 62
     7
370
     0
100
AcDbLine
 10
755.2477052790536
 20
-7.000000002130946
 30
0.0
 11
760.2477052790559
 21
-7.000000001235092
 31
0.0
  0
LINE
  5
3422
330
A
100
AcDbEntity
  8
0
  6
Continuous
 62
     7
370
     0
100
AcDbLine
 10
724.7477052794119
 20
-12.50000000618502
 30
0.0
 11
749.7477052794119
 21
-12.50000000296495
 31
0.0
  0
LINE
  5
3423
330
A
100
AcDbEntity
  8
0
  6
Continuous
 62
     7
370
     0
100
AcDbLine
 10
737.2485284550098
 20
12.49999999542524
 30
0.0
 11
724.7477052761909
 21
12.49999999381407
 31
0.0
  0
LINE
  5
3424
330
A
100
AcDbEntity
  8
0
  6
Continuous
 62
     7
370
     0
100
AcDbLine
 10
749.7477052761909
 20
12.49999999703504
 30
0.0
 11
742.2469239332431
 21
12.49999999606802
 31
0.0
  0
LINE
  5
3425
330
A
100
AcDbEntity
  8
0
  6
Continuous
 62
     7
370
     0
100
AcDbLine
 10
724.7477052761909
 20
12.49999999381407
 30
0.0
 11
697.8506434555669
 21
12.58811541699015
 31
0.0
  0
ARC
  5
3435
330
A
100
AcDbEntity
  8
0
  6
Continuous
 62
     7
370
     0
100
AcDbCircle
 10
751.7477052794768
 20
-13.00000000270711
 30
0.0
 40
2.000000000000223
100
AcDbArc
 50
180.0000000073736
 51
270.0000000073735
  0
ARC
  5
3436
330
A
100
AcDbEntity
  8
0
  6
Continuous
 62
     7
370
     0
100
AcDbCircle
 10
751.7477052761259
 20
12.99999999729289
 30
0.0
 40
2.0
100
AcDbArc
 50
90.0000000073736
 51
180.0000000073736
  0
LINE
  5
3437
330
A
100
AcDbEntity
  8
0
  6
Continuous
 62
     7
370
     0
100
AcDbLine
 10
751.7477052797347
 20
-15.00000000270711
 30
0.0
 11
752.747705279734
 21
-15.00000000257796
 31
0.0
  0
LINE
  5
3438
330
A
100
AcDbEntity
  8
0
  6
Continuous
 62
     7
370
     0
100
AcDbLine
 10
752.747705275869
 20
14.99999999742203
 30
0.0
 11
751.74770527587
 21
14.99999999729289
 31
0.0
  0
LINE
  5
343B
330
A
100
AcDbEntity
  8
0
  6
Continuous
 62
     7
370
     0
100
AcDbLine
 10
752.7477052803979
 20
-14.50000000257796
 30
0.0
 11
753.7477052803978
 21
-14.50000000239902
 31
0.0
  0
LINE
  5
343C
330
A
100
AcDbEntity
  8
0
  6
Continuous
 62
     7
370
     0
100
AcDbLine
 10
753.7477052752043
 20
14.49999999760098
 30
0.0
 11
752.7477052752043
 21
14.49999999742203
 31
0.0
  0
LINE
  5
34DE
330
A
100
AcDbEntity
  8
0
  6
Continuous
 62
     9
370
     0
100
AcDbLine
 10
601.9989295961506
 20
14.90914998057562
 30
0.0
 11
601.5684342754898
 21
14.96071241101866
 31
0.0
  0
LINE
  5
34DF
330
A
100
AcDbEntity
  8
0
  6
Continuous
 62
     9
370
     0
100
AcDbLine
 10
601.5684342754898
 20
14.96071241101866
 30
0.0
 11
600.0087919903752
 21
15.04293489544378
 31
0.0
  0
LINE
  5
34E0
330
A
100
AcDbEntity
  8
0
  6
Continuous
 62
     9
370
     0
100
AcDbLine
 10
600.0087919903744
 20
15.04293489544378
 30
0.0
 11
598.4299847617729
 21
14.96054642926229
 31
0.0
  0
LINE
  5
34E1
330
A
100
AcDbEntity
  8
0
  6
Continuous
 62
     9
370
     0
100
AcDbLine
 10
598.4299847617729
 20
14.96054642926229
 30
0.0
 11
597.9989396264045
 21
14.90886373143321
 31
0.0
  0
LINE
  5
34E2
330
A
100
AcDbEntity
  8
0
  6
Continuous
 62
     9
370
     0
100
AcDbLine
 10
1.998931132297169
 20
14.86621250203987
 30
0.0
 11
1.56802709987971
 21
14.91781789826194
 31
0.0
  0
LINE
  5
34E3
330
A
100
AcDbEntity
  8
0
  6
Continuous
 62
     9
370
     0
100
AcDbLine
 10
1.56802709987971
 20
14.91781789826194
 30
0.0
 11
0.3112803294441944
 21
14.99676787339823
 31
0.0
  0
LINE
  5
34E4
330
A
100
AcDbEntity
  8
0
  6
Continuous
 62
     9
370
     0
100
AcDbLine
 10
0.311281586762238
 20
14.99676977243339
 30
0.0
 11
-0.006487967513893
 21
14.99999859133282
 31
0.0
  0
LINE
  5
34E5
330
A
100
AcDbEntity
  8
0
  6
Continuous
 62
     9
370
     0
100
AcDbLine
 10
-0.006487967513893
 20
14.99999859133282
 30
0.0
 11
-1.56984020424789
 21
14.91762720960953
 31
0.0
  0
LINE
  5
34E6
330
A
100
AcDbEntity
  8
0
  6
Continuous
 62
     9
370
     0
100
AcDbLine
 10
-1.56984020424789
 20
14.91762720960953
 30
0.0
 11
-2.00105883745801
 21
14.86592625289841
 31
0.0
  0
LINE
  5
34E7
330
A
100
AcDbEntity
  8
0
  6
Continuous
 62
     7
370
     0
100
AcDbLine
 10
1.998917611593386
 20
15.12514308094443
 30
0.0
 11
-0.0010823832847084
 21
15.12499995546706
 31
0.0
  0
LINE
  5
34E8
330
A
100
AcDbEntity
  8
0
  6
Continuous
 62
     7
370
     0
100
AcDbLine
 10
-0.0010823832847084
 20
15.12499995546706
 30
0.0
 11
-2.001082378163715
 21
15.12485682998902
 31
0.0
  0
LINE
  5
34E9
330
A
100
AcDbEntity
  8
0
  6
Continuous
 62
     7
370
     0
100
AcDbLine
 10
1.298890777359263
 20
15.50009298606709
 30
0.0
 11
-0.0011092193114304
 21
15.49999995450662
 31
0.0
  0
LINE
  5
34EA
330
A
100
AcDbEntity
  8
0
  6
Continuous
 62
     7
370
     0
100
AcDbLine
 10
-0.0011092193114304
 20
15.49999995450662
 30
0.0
 11
-1.301109215983262
 21
15.49990692294592
 31
0.0
  0
LINE
  5
34EB
330
A
100
AcDbEntity
  8
0
  6
Continuous
 62
     7
370
     0
100
AcDbLine
 10
601.9989160754963
 20
15.1680805592592
 30
0.0
 11
599.9989160806182
 21
15.16793743400603
 31
0.0
  0
LINE
  5
34EC
330
A
100
AcDbEntity
  8
0
  6
Continuous
 62
     7
370
     0
100
AcDbLine
 10
599.9989160806169
 20
15.16793743400603
 30
0.0
 11
597.9989160857392
 21
15.16779430875173
 31
0.0
  0
LINE
  5
34ED
330
A
100
AcDbEntity
  8
0
  6
Continuous
 62
     7
370
     0
100
AcDbLine
 10
601.2988892413035
 20
15.54303046445992
 30
0.0
 11
599.998889244633
 21
15.5429374330452
 31
0.0
  0
LINE
  5
34EE
330
A
100
AcDbEntity
  8
0
  6
Continuous
 62
     7
370
     0
100
AcDbLine
 10
599.998889244633
 20
15.5429374330452
 30
0.0
 11
598.6988892479618
 21
15.54284440163071
 31
0.0
  0
ARC
  5
34EF
330
A
100
AcDbEntity
  8
0
  6
Continuous
 62
     7
370
     0
100
AcDbCircle
 10
599.9999984638333
 20
0.0429374729812848
 30
0.0
 40
15.00000000000003
100
AcDbArc
 50
84.00006045465637
 51
90.00410022720201
  0
ARC
  5
34F0
330
A
100
AcDbEntity
  8
0
  6
Continuous
 62
     7
370
     0
100
AcDbCircle
 10
599.9999984638333
 20
0.0429374729812848
 30
0.0
 40
15.00000000000015
100
AcDbArc
 50
270.004100227202
 51
84.00006045465637
  0
ARC
  5
34F1
330
A
100
AcDbEntity
  8
0
  6
Continuous
 62
     7
370
     0
100
AcDbCircle
 10
599.9999984638333
 20
0.0429374729812848
 30
0.0
 40
15.00000000000003
100
AcDbArc
 50
96.00684520030062
 51
270.004100227202
  0
ARC
  5
34F2
330
A
100
AcDbEntity
  8
0
  6
Continuous
 62
     7
370
     0
100
AcDbCircle
 10
599.9999984638333
 20
0.0429374729812848
 30
0.0
 40
14.99999999999995
100
AcDbArc
 50
90.00410022720201
 51
96.00684520030062
  0
CIRCLE
  5
34F3
330
A
100
AcDbEntity
  8
0
  6
Continuous
 62
     9
370
     0
100
AcDbCircle
 10
599.9999984638106
 20
0.0429374733513133
 30
0.0
 40
12.00000000000001
  0
ARC
  5
34F4
330
A
100
AcDbEntity
  8
0
  6
Continuous
 62
     7
370
     0
100
AcDbCircle
 10
-0.0000000000113811
 20
-0.000000005541984
 30
0.0
 40
14.99999999999981
100
AcDbArc
 50
88.76853479636904
 51
90.00410022720201
  0
ARC
  5
34F5
330
A
100
AcDbEntity
  8
0
  6
Continuous
 62
     7
370
     0
100
AcDbCircle
 10
-0.0000000000113811
 20
-0.000000005541984
 30
0.0
 40
14.99999999999982
100
AcDbArc
 50
84.00087647101081
 51
88.76853479636904
  0
ARC
  5
34F6
330
A
100
AcDbEntity
  8
0
  6
Continuous
 62
     7
370
     0
100
AcDbCircle
 10
-0.0000000000113811
 20
-0.000000005541984
 30
0.0
 40
14.99999999999982
100
AcDbArc
 50
270.004100227202
 51
84.00087647101081
  0
ARC
  5
34F7
330
A
100
AcDbEntity
  8
0
  6
Continuous
 62
     7
370
     0
100
AcDbCircle
 10
-0.0000000000113811
 20
-0.000000005541984
 30
0.0
 40
15.00000000000003
100
AcDbArc
 50
96.00640834373937
 51
270.004100227202
  0
ARC
  5
34F8
330
A
100
AcDbEntity
  8
0
  6
Continuous
 62
     7
370
     0
100
AcDbCircle
 10
-0.0000000000113811
 20
-0.000000005541984
 30
0.0
 40
14.99999999999992
100
AcDbArc
 50
90.00410022720201
 51
96.00640834373937
  0
CIRCLE
  5
34F9
330
A
100
AcDbEntity
  8
0
  6
Continuous
 62
     9
370
     0
100
AcDbCircle
 10
-0.0000000000098986
 20
-0.0000000051559064
 30
0.0
 40
11.99999999999734
  0
LINE
  5
34FA
330
A
100
AcDbEntity
  8
0
  6
Continuous
 62
     9
370
     0
100
AcDbLine
 10
27.50089446073263
 20
-12.49803201509798
 30
0.0
 11
27.49910539911552
 21
12.50196792088557
 31
0.0
  0
LINE
  5
34FB
330
A
100
AcDbEntity
  8
0
  6
Continuous
 62
     9
370
     0
100
AcDbLine
 10
572.5008930651977
 20
-12.45903047183236
 30
0.0
 11
572.4991040035805
 21
12.54096946415233
 31
0.0
  0
ARC
  5
34FC
330
A
100
AcDbEntity
  8
0
  6
Continuous
 62
     7
370
     0
100
AcDbCircle
 10
0.0000000003651435
 20
-0.0000000077353282
 30
0.0
 40
14.99999999999992
100
AcDbArc
 50
97.66635589298788
 51
189.7800000000038
  0
ARC
  5
34FD
330
A
100
AcDbEntity
  8
0
  6
Continuous
 62
     7
370
     0
100
AcDbCircle
 10
0.0000000003651435
 20
-0.0000000077353282
 30
0.0
 40
14.99999999999989
100
AcDbArc
 50
189.7800000000038
 51
270.0041002257688
  0
ARC
  5
34FE
330
A
100
AcDbEntity
  8
0
  6
Continuous
 62
     7
370
     0
100
AcDbCircle
 10
599.9999984640012
 20
0.0429374708935611
 30
0.0
 40
14.99999999999992
100
AcDbArc
 50
270.0041002265636
 51
9.780000000003855
  0
ARC
  5
34FF
330
A
100
AcDbEntity
  8
0
  6
Continuous
 62
     7
370
     0
100
AcDbCircle
 10
599.9999984640012
 20
0.0429374708935611
 30
0.0
 40
15.00000000000012
100
AcDbArc
 50
9.780000000003855
 51
82.34184457052892
  0
LINE
  5
3500
330
A
100
AcDbEntity
  8
0
  6
Continuous
 62
     9
370
     0
100
AcDbLine
 10
1.648933071915896
 20
14.90909184004507
 30
0.0
 11
1.648904194476554
 21
15.31261803350621
 31
0.0
  0
LINE
  5
3501
330
A
100
AcDbEntity
  8
0
  6
Continuous
 62
     9
370
     0
100
AcDbLine
 10
-1.651095797073602
 20
15.31238187646747
 30
0.0
 11
-1.65106691963463
 21
14.90885568362025
 31
0.0
  0
LINE
  5
3502
330
A
100
AcDbEntity
  8
0
  6
Continuous
 62
     9
370
     0
100
AcDbLine
 10
601.6489315357948
 20
14.95202931864779
 30
0.0
 11
601.6489026584003
 21
15.35555551186001
 31
0.0
  0
LINE
  5
3503
330
A
100
AcDbEntity
  8
0
  6
Continuous
 62
     9
370
     0
100
AcDbLine
 10
598.3489026668498
 20
15.35531935519122
 30
0.0
 11
598.3489315442446
 21
14.95179316227708
 31
0.0
  0
LINE
  5
3504
330
A
100
AcDbEntity
  8
0
  6
Continuous
 62
     9
370
     0
100
AcDbLine
 10
601.9989295961598
 20
14.90914997875567
 30
0.0
 11
601.9989295882724
 21
14.9092602019467
 31
0.0
  0
LINE
  5
3505
330
A
100
AcDbEntity
  8
0
  6
Continuous
 62
     7
370
     0
100
AcDbLine
 10
1.998936141423695
 20
14.86621182662108
 30
0.0
 11
1.998936115168433
 21
14.86657870310452
 31
0.0
  0
LINE
  5
3506
330
A
100
AcDbEntity
  8
0
  6
Continuous
 62
     7
370
     0
100
AcDbLine
 10
1.9989361087238
 20
14.86666875594808
 30
0.0
 11
1.998917611593386
 21
15.12514308094443
 31
0.0
  0
LINE
  5
3507
330
A
100
AcDbEntity
  8
0
  6
Continuous
 62
     7
370
     0
100
AcDbLine
 10
-2.001082378163715
 20
15.12485682998902
 30
0.0
 11
-2.001063869153299
 21
14.86621650458143
 31
0.0
  0
LINE
  5
3508
330
A
100
AcDbEntity
  8
0
  6
Continuous
 62
     7
370
     0
100
AcDbLine
 10
-2.001063869153299
 20
14.86621650458143
 30
0.0
 11
-2.001063853445404
 21
14.86599699681075
 31
0.0
  0
LINE
  5
3509
330
A
100
AcDbEntity
  8
0
  6
Continuous
 62
     7
370
     0
100
AcDbLine
 10
1.998917611593386
 20
15.12514308094443
 30
0.0
 11
1.648904194476554
 21
15.31261803350621
 31
0.0
  0
LINE
  5
350A
330
A
100
AcDbEntity
  8
0
  6
Continuous
 62
     7
370
     0
100
AcDbLine
 10
1.648904194476554
 20
15.31261803350621
 30
0.0
 11
1.298890777359263
 21
15.50009298606709
 31
0.0
  0
LINE
  5
350B
330
A
100
AcDbEntity
  8
0
  6
Continuous
 62
     7
370
     0
100
AcDbLine
 10
-1.301109215983262
 20
15.49990692294592
 30
0.0
 11
-1.651095797073602
 21
15.31238187646747
 31
0.0
  0
LINE
  5
350C
330
A
100
AcDbEntity
  8
0
  6
Continuous
 62
     7
370
     0
100
AcDbLine
 10
-1.651095797073602
 20
15.31238187646747
 30
0.0
 11
-2.001082378163715
 21
15.12485682998902
 31
0.0
  0
LINE
  5
350D
330
A
100
AcDbEntity
  8
0
  6
Continuous
 62
     7
370
     0
100
AcDbLine
 10
601.9989346052962
 20
14.90914930521928
 30
0.0
 11
601.9989345718625
 21
14.90961650176655
 31
0.0
  0
LINE
  5
350E
330
A
100
AcDbEntity
  8
0
  6
Continuous
 62
     7
370
     0
100
AcDbLine
 10
601.9989345718625
 20
14.90961650176655
 30
0.0
 11
601.9989345616312
 21
14.90975948776499
 31
0.0
  0
LINE
  5
350F
330
A
100
AcDbEntity
  8
0
  6
Continuous
 62
     7
370
     0
100
AcDbLine
 10
601.9989345616302
 20
14.90975948776499
 30
0.0
 11
601.9989160754963
 21
15.1680805592592
 31
0.0
  0
LINE
  5
3510
330
A
100
AcDbEntity
  8
0
  6
Continuous
 62
     7
370
     0
100
AcDbLine
 10
597.9989160857392
 20
15.16779430875173
 30
0.0
 11
597.9989345933272
 21
14.90917343772404
 31
0.0
  0
LINE
  5
3511
330
A
100
AcDbEntity
  8
0
  6
Continuous
 62
     7
370
     0
100
AcDbLine
 10
597.9989345933272
 20
14.90917343772404
 30
0.0
 11
597.9989346095911
 21
14.90894616248499
 31
0.0
  0
LINE
  5
3512
330
A
100
AcDbEntity
  8
0
  6
Continuous
 62
     7
370
     0
100
AcDbLine
 10
601.9989160754963
 20
15.1680805592592
 30
0.0
 11
601.6489026584003
 21
15.35555551186001
 31
0.0
  0
LINE
  5
3513
330
A
100
AcDbEntity
  8
0
  6
Continuous
 62
     7
370
     0
100
AcDbLine
 10
601.6489026584003
 20
15.35555551186001
 30
0.0
 11
601.2988892413035
 21
15.54303046445992
 31
0.0
  0
LINE
  5
3514
330
A
100
AcDbEntity
  8
0
  6
Continuous
 62
     7
370
     0
100
AcDbLine
 10
598.6988892479608
 20
15.54284440163071
 30
0.0
 11
598.3489026668498
 21
15.35531935519122
 31
0.0
  0
LINE
  5
3515
330
A
100
AcDbEntity
  8
0
  6
Continuous
 62
     7
370
     0
100
AcDbLine
 10
598.3489026668498
 20
15.35531935519122
 30
0.0
 11
597.9989160857392
 21
15.16779430875173
 31
0.0
  0
LINE
  5
3516
330
A
100
AcDbEntity
  8
0
  6
Continuous
 62
     7
370
     0
100
AcDbLine
 10
8.29066743347661
 20
12.50059332126147
 30
0.0
 11
27.49910539911502
 21
12.50196792442876
 31
0.0
  0
LINE
  5
3517
330
A
100
AcDbEntity
  8
0
  6
Continuous
 62
     7
370
     0
100
AcDbLine
 10
27.50089446073259
 20
-12.49803201155592
 30
0.0
 11
8.292456476572407
 21
-12.49940661472508
 31
0.0
  0
LINE
  5
3518
330
A
100
AcDbEntity
  8
0
  6
Continuous
 62
     7
370
     0
100
AcDbLine
 10
572.4991040035801
 20
12.54096946769551
 30
0.0
 11
591.7075419695703
 21
12.54234407086328
 31
0.0
  0
LINE
  5
3519
330
A
100
AcDbEntity
  8
0
  6
Continuous
 62
     7
370
     0
100
AcDbLine
 10
591.7093310491201
 20
-12.45765586512023
 30
0.0
 11
572.5008930651979
 21
-12.45903046828917
 31
0.0
  0
LINE
  5
351A
330
A
100
AcDbEntity
  8
0
  6
Continuous
 62
     7
370
     0
100
AcDbLine
 10
572.4991040035805
 20
12.54096946415233
 30
0.0
 11
27.49910539911552
 21
12.50196792088557
 31
0.0
  0
LINE
  5
351B
330
A
100
AcDbEntity
  8
0
  6
Continuous
 62
     7
370
     0
100
AcDbLine
 10
27.50089446073263
 20
-12.49803201509911
 30
0.0
 11
572.5008930651977
 21
-12.45903047183236
 31
0.0
  0
LINE
  5
351C
330
A
100
AcDbEntity
  8
0
  6
Continuous
 62
     7
370
     0
100
AcDbLine
 10
587.9954105566508
 20
-160.3241338978419
 30
0.0
 11
593.1322723492558
 21
-160.3241338975569
 31
0.0
  0
LINE
  5
351D
330
A
100
AcDbEntity
  8
0
  6
Continuous
 62
     7
370
     0
100
AcDbLine
 10
593.1322723492549
 20
-160.3241338975569
 30
0.0
 11
611.9954105566507
 21
-160.3241338965078
 31
0.0
  0
ELLIPSE
  5
351E
330
A
100
AcDbEntity
  8
0
  6
Continuous
 62
     7
370
     0
100
AcDbEllipse
 10
-0.0591580632981277
 20
-163.8241338955308
 30
0.0
 11
0.0000000658784138
 21
2.0
 31
0.0
210
0.0
220
0.0
230
1.0
 40
0.9999923509263883
 41
6.283185307179335
 42
9.424777993708586
  0
ELLIPSE
  5
351F
330
A
100
AcDbEntity
  8
0
  6
Continuous
 62
     7
370
     0
100
AcDbEllipse
 10
-0.0606247922189596
 20
-163.8241338954828
 30
0.0
 11
0.0000000428213021
 21
1.300000000000077
 31
0.0
210
0.0
220
0.0
230
1.0
 40
0.9999923509263883
 41
0.0
 42
6.283185307179584
  0
LINE
  5
3520
330
A
100
AcDbEntity
  8
0
  6
Continuous
 62
     7
370
     0
100
AcDbLine
 10
-0.6379706452139545
 20
-164.8241338954828
 30
0.0
 11
-1.215316498208949
 21
-163.8241338954828
 31
0.0
  0
LINE
  5
3521
330
A
100
AcDbEntity
  8
0
  6
Continuous
 62
     7
370
     0
100
AcDbLine
 10
0.5167210607760353
 20
-164.8241338954819
 30
0.0
 11
-0.6379706452139545
 21
-164.8241338954828
 31
0.0
  0
LINE
  5
3522
330
A
100
AcDbEntity
  8
0
  6
Continuous
 62
     7
370
     0
100
AcDbLine
 10
1.094066913771029
 20
-163.8241338954819
 30
0.0
 11
0.5167210607760353
 21
-164.8241338954819
 31
0.0
  0
LINE
  5
3523
330
A
100
AcDbEntity
  8
0
  6
Continuous
 62
     7
370
     0
100
AcDbLine
 10
0.5167210607760353
 20
-162.8241338954819
 30
0.0
 11
1.094066913771029
 21
-163.8241338954819
 31
0.0
  0
LINE
  5
3524
330
A
100
AcDbEntity
  8
0
  6
Continuous
 62
     7
370
     0
100
AcDbLine
 10
-0.6379706452139545
 20
-162.8241338954828
 30
0.0
 11
0.5167210607760353
 21
-162.8241338954819
 31
0.0
  0
LINE
  5
3525
330
A
100
AcDbEntity
  8
0
  6
Continuous
 62
     7
370
     0
100
AcDbLine
 10
-1.215316498208039
 20
-163.8241338954828
 30
0.0
 11
-0.637970645213045
 21
-162.8241338954828
 31
0.0
  0
LINE
  5
3526
330
A
100
AcDbEntity
  8
0
  6
Continuous
 62
     7
370
     0
100
AcDbLine
 10
-1.215316498208039
 20
-163.8241338954828
 30
0.0
 11
-1.20553830540598
 21
-163.824133895805
 31
0.0
  0
LINE
  5
3527
330
A
100
AcDbEntity
  8
0
  6
Continuous
 62
     7
370
     0
100
AcDbLine
 10
-1.205538305407116
 20
-163.824133895805
 30
0.0
 11
-0.6281924524121223
 21
-164.824133895805
 31
0.0
  0
LINE
  5
3528
330
A
100
AcDbEntity
  8
0
  6
Continuous
 62
     7
370
     0
100
AcDbLine
 10
-0.6281924524121223
 20
-162.824133895805
 30
0.0
 11
-1.205538305407116
 21
-163.824133895805
 31
0.0
  0
ELLIPSE
  5
3529
330
A
100
AcDbEntity
  8
0
  6
Continuous
 62
     7
370
     0
100
AcDbEllipse
 10
-0.0591580632981277
 20
-163.8241338955308
 30
0.0
 11
0.0000000658788579
 21
2.0
 31
0.0
210
0.0
220
0.0
230
1.0
 40
0.9999923509263883
 41
3.14159268652925
 42
6.283185307179584
  0
ELLIPSE
  5
352A
330
A
100
AcDbEntity
  8
0
  6
Continuous
 62
     7
370
     0
100
AcDbEllipse
 10
599.9362524934367
 20
-163.8241338953069
 30
0.0
 11
0.0000000631605879
 21
2.0
 31
0.0
210
0.0
220
0.0
230
1.0
 40
0.9999923509268258
 41
0.0000000000001389
 42
3.141592685170086
  0
ELLIPSE
  5
352B
330
A
100
AcDbEntity
  8
0
  6
Continuous
 62
     7
370
     0
100
AcDbEllipse
 10
599.9347857645598
 20
-163.8241338952609
 30
0.0
 11
0.0000000410542711
 21
1.300000000000077
 31
0.0
210
0.0
220
0.0
230
0.9999999999999998
 40
0.999992350926826
 41
0.0
 42
6.283185307179584
  0
LINE
  5
352C
330
A
100
AcDbEntity
  8
0
  6
Continuous
 62
     7
370
     0
100
AcDbLine
 10
599.3574399115641
 20
-164.8241338952609
 30
0.0
 11
598.7800940585689
 21
-163.8241338952609
 31
0.0
  0
LINE
  5
352D
330
A
100
AcDbEntity
  8
0
  6
Continuous
 62
     7
370
     0
100
AcDbLine
 10
600.5121316175541
 20
-164.82413389526
 30
0.0
 11
599.3574399115628
 21
-164.8241338952609
 31
0.0
  0
LINE
  5
352E
330
A
100
AcDbEntity
  8
0
  6
Continuous
 62
     7
370
     0
100
AcDbLine
 10
601.0894774705489
 20
-163.82413389526
 30
0.0
 11
600.5121316175541
 21
-164.82413389526
 31
0.0
  0
LINE
  5
352F
330
A
100
AcDbEntity
  8
0
  6
Continuous
 62
     7
370
     0
100
AcDbLine
 10
600.5121316175541
 20
-162.8241338952609
 30
0.0
 11
601.0894774705489
 21
-163.82413389526
 31
0.0
  0
LINE
  5
3530
330
A
100
AcDbEntity
  8
0
  6
Continuous
 62
     7
370
     0
100
AcDbLine
 10
599.357439911565
 20
-162.8241338952609
 30
0.0
 11
600.512131617555
 21
-162.8241338952609
 31
0.0
  0
LINE
  5
3531
330
A
100
AcDbEntity
  8
0
  6
Continuous
 62
     7
370
     0
100
AcDbLine
 10
598.7800940585689
 20
-163.8241338952609
 30
0.0
 11
599.357439911565
 21
-162.8241338952609
 31
0.0
  0
LINE
  5
3532
330
A
100
AcDbEntity
  8
0
  6
Continuous
 62
     7
370
     0
100
AcDbLine
 10
598.7800940585689
 20
-163.8241338952609
 30
0.0
 11
598.7898722510907
 21
-163.8241338955699
 31
0.0
  0
LINE
  5
3533
330
A
100
AcDbEntity
  8
0
  6
Continuous
 62
     7
370
     0
100
AcDbLine
 10
598.7898722510907
 20
-163.8241338955699
 30
0.0
 11
599.3672181040859
 21
-164.8241338955699
 31
0.0
  0
LINE
  5
3534
330
A
100
AcDbEntity
  8
0
  6
Continuous
 62
     7
370
     0
100
AcDbLine
 10
599.3672181040859
 20
-162.8241338955699
 30
0.0
 11
598.7898722510907
 21
-163.8241338955699
 31
0.0
  0
ELLIPSE
  5
3535
330
A
100
AcDbEntity
  8
0
  6
Continuous
 62
     7
370
     0
100
AcDbEllipse
 10
599.9362524934367
 20
-163.8241338953069
 30
0.0
 11
0.0000000631601438
 21
2.0
 31
0.0
210
0.0
220
0.0
230
1.0
 40
0.9999923509268258
 41
3.141592685169948
 42
6.283185307179584
  0
LINE
  5
3536
330
A
100
AcDbEntity
  8
0
  6
Continuous
 62
     9
370
     0
100
AcDbLine
 10
584.9954105566788
 20
-165.8241338970579
 30
0.0
 11
599.9367413399027
 21
-165.824133897182
 31
0.0
  0
LINE
  5
3537
330
A
100
AcDbEntity
  8
0
  6
Continuous
 62
     9
370
     0
100
AcDbLine
 10
599.9367413399027
 20
-165.824133897182
 30
0.0
 11
614.995410556678
 21
-165.824133897308
 31
0.0
  0
LINE
  5
3538
330
A
100
AcDbEntity
  8
0
  6
Continuous
 62
     7
370
     0
100
AcDbLine
 10
587.9954105566529
 20
-168.8241338970829
 30
0.0
 11
611.9954105566529
 21
-168.824133897283
 31
0.0
  0
LINE
  5
3539
330
A
100
AcDbEntity
  8
0
  6
Continuous
 62
     7
370
     0
100
AcDbLine
 10
584.9954105567238
 20
-160.3241338970579
 30
0.0
 11
614.9954105567238
 21
-160.324133897308
 31
0.0
  0
LINE
  5
353A
330
A
100
AcDbEntity
  8
0
  6
Continuous
 62
     9
370
     0
100
AcDbLine
 10
-14.99999999999795
 20
-165.824133897479
 30
0.0
 11
-0.0586692195372507
 21
-165.824133897479
 31
0.0
  0
LINE
  5
353B
330
A
100
AcDbEntity
  8
0
  6
Continuous
 62
     9
370
     0
100
AcDbLine
 10
-0.0586692195372507
 20
-165.824133897479
 30
0.0
 11
14.99999999999682
 21
-165.824133897479
 31
0.0
  0
LINE
  5
353C
330
A
100
AcDbEntity
  8
0
  6
Continuous
 62
     7
370
     0
100
AcDbLine
 10
-11.99999999999909
 20
-168.8241338974778
 30
0.0
 11
11.99999999999772
 21
-168.8241338974778
 31
0.0
  0
LINE
  5
353D
330
A
100
AcDbEntity
  8
0
  6
Continuous
 62
     7
370
     0
100
AcDbLine
 10
-14.99999999999795
 20
-160.324133897479
 30
0.0
 11
14.99999999999772
 21
-160.324133897479
 31
0.0
  0
LINE
  5
353E
330
A
100
AcDbEntity
  8
0
  6
Continuous
 62
     7
370
     0
100
AcDbLine
 10
592.995410556993
 20
-153.8241338969051
 30
0.0
 11
606.9954105569933
 21
-153.8241338974451
 31
0.0
  0
LINE
  5
353F
330
A
100
AcDbEntity
  8
0
  6
Continuous
 62
     7
370
     0
100
AcDbLine
 10
592.9954105567998
 20
-158.8241338969051
 30
0.0
 11
606.9954105568007
 21
-158.8241338974451
 31
0.0
  0
LINE
  5
3540
330
A
100
AcDbEntity
  8
0
  6
Continuous
 62
     7
370
     0
100
AcDbLine
 10
7.000000000100952
 20
-158.8241338977488
 30
0.0
 11
-6.999999999909277
 21
-158.8241338972088
 31
0.0
  0
LINE
  5
3541
330
A
100
AcDbEntity
  8
0
  6
Continuous
 62
     7
370
     0
100
AcDbLine
 10
7.000000000293994
 20
-153.824133897747
 30
0.0
 11
-6.99999999971601
 21
-153.824133897207
 31
0.0
  0
ELLIPSE
  5
3542
330
A
100
AcDbEntity
  8
0
  6
Continuous
 62
     7
370
     0
100
AcDbEllipse
 10
-0.0479131409852016
 20
-138.3241338958999
 30
0.0
 11
0.00000006587908
 21
2.0
 31
0.0
210
0.0
220
0.0
230
1.0
 40
0.9999923509274603
 41
0.0
 42
6.283185307179584
  0
LINE
  5
3543
330
A
100
AcDbEntity
  8
0
  6
Continuous
 62
     7
370
     0
100
AcDbLine
 10
-1.742246689005014
 20
-138.683563875385
 30
0.0
 11
-1.206353027140948
 21
-137.0365017667288
 31
0.0
  0
LINE
  5
3544
330
A
100
AcDbEntity
  8
0
  6
Continuous
 62
     7
370
     0
100
AcDbLine
 10
-0.5838068028488124
 20
-139.971196004557
 30
0.0
 11
-1.742246689005014
 21
-138.683563875385
 31
0.0
  0
LINE
  5
3545
330
A
100
AcDbEntity
  8
0
  6
Continuous
 62
     7
370
     0
100
AcDbLine
 10
1.110526745170772
 20
-139.611766025072
 30
0.0
 11
-0.5838068028488124
 21
-139.971196004557
 31
0.0
  0
LINE
  5
3546
330
A
100
AcDbEntity
  8
0
  6
Continuous
 62
     7
370
     0
100
AcDbLine
 10
1.646420407034838
 20
-137.964703916416
 30
0.0
 11
1.110526745170772
 21
-139.611766025072
 31
0.0
  0
LINE
  5
3547
330
A
100
AcDbEntity
  8
0
  6
Continuous
 62
     7
370
     0
100
AcDbLine
 10
0.4879805208788639
 20
-136.6770717872439
 30
0.0
 11
1.646420407034838
 21
-137.964703916416
 31
0.0
  0
LINE
  5
3548
330
A
100
AcDbEntity
  8
0
  6
Continuous
 62
     7
370
     0
100
AcDbLine
 10
-1.206353027140948
 20
-137.0365017667288
 30
0.0
 11
0.4879805208788639
 21
-136.6770717872439
 31
0.0
  0
LINE
  5
3549
330
A
100
AcDbEntity
  8
0
  6
Continuous
 62
     7
370
     0
100
AcDbLine
 10
0.4901744667320145
 20
-136.67951040767
 30
0.0
 11
-1.19266355817831
 21
-137.0365017671799
 31
0.0
  0
LINE
  5
354A
330
A
100
AcDbEntity
  8
0
  6
Continuous
 62
     7
370
     0
100
AcDbLine
 10
-1.206353027140948
 20
-137.0365017667288
 30
0.0
 11
-1.19266355817831
 21
-137.0365017671799
 31
0.0
  0
LINE
  5
354B
330
A
100
AcDbEntity
  8
0
  6
Continuous
 62
     7
370
     0
100
AcDbLine
 10
-1.742246689005014
 20
-138.683563875385
 30
0.0
 11
-1.72855722004192
 21
-138.6835638758368
 31
0.0
  0
LINE
  5
354C
330
A
100
AcDbEntity
  8
0
  6
Continuous
 62
     7
370
     0
100
AcDbLine
 10
-1.72855722004192
 20
-138.6835638758368
 30
0.0
 11
-0.5723112797390968
 21
-139.9687573845808
 31
0.0
  0
LINE
  5
354D
330
A
100
AcDbEntity
  8
0
  6
Continuous
 62
     7
370
     0
100
AcDbLine
 10
-1.19266355817831
 20
-137.0365017671799
 30
0.0
 11
-1.72855722004192
 21
-138.6835638758368
 31
0.0
  0
ELLIPSE
  5
354E
330
A
100
AcDbEntity
  8
0
  6
Continuous
 62
     7
370
     0
100
AcDbEllipse
 10
599.9474974154828
 20
-138.324133895597
 30
0.0
 11
0.0000000658788579
 21
2.0
 31
0.0
210
0.0
220
0.0
230
1.0
 40
0.9999923509274603
 41
0.0
 42
6.283185307179584
  0
LINE
  5
354F
330
A
100
AcDbEntity
  8
0
  6
Continuous
 62
     7
370
     0
100
AcDbLine
 10
599.015005394532
 20
-139.783738406531
 30
0.0
 11
598.2172064879058
 21
-138.246368194948
 31
0.0
  0
LINE
  5
3550
330
A
100
AcDbEntity
  8
0
  6
Continuous
 62
     7
370
     0
100
AcDbLine
 10
600.745296322109
 20
-139.86150410718
 30
0.0
 11
599.0150053945306
 21
-139.783738406531
 31
0.0
  0
LINE
  5
3551
330
A
100
AcDbEntity
  8
0
  6
Continuous
 62
     7
370
     0
100
AcDbLine
 10
601.6777883430616
 20
-138.401899596246
 30
0.0
 11
600.7452963221099
 21
-139.86150410718
 31
0.0
  0
LINE
  5
3552
330
A
100
AcDbEntity
  8
0
  6
Continuous
 62
     7
370
     0
100
AcDbLine
 10
600.8799894364361
 20
-136.864529384663
 30
0.0
 11
601.6777883430616
 21
-138.401899596246
 31
0.0
  0
LINE
  5
3553
330
A
100
AcDbEntity
  8
0
  6
Continuous
 62
     7
370
     0
100
AcDbLine
 10
599.1496985088587
 20
-136.786763684014
 30
0.0
 11
600.8799894364361
 21
-136.864529384663
 31
0.0
  0
LINE
  5
3554
330
A
100
AcDbEntity
  8
0
  6
Continuous
 62
     7
370
     0
100
AcDbLine
 10
598.2172064879058
 20
-138.246368194948
 30
0.0
 11
599.1496985088587
 21
-136.786763684014
 31
0.0
  0
LINE
  5
3555
330
A
100
AcDbEntity
  8
0
  6
Continuous
 62
     7
370
     0
100
AcDbLine
 10
599.015005394532
 20
-139.783738406531
 30
0.0
 11
599.0286948634953
 21
-139.7837384069819
 31
0.0
  0
LINE
  5
3556
330
A
100
AcDbEntity
  8
0
  6
Continuous
 62
     7
370
     0
100
AcDbLine
 10
599.0286948634953
 20
-139.7837384069819
 30
0.0
 11
600.745678416738
 21
-139.860906024804
 31
0.0
  0
LINE
  5
3557
330
A
100
AcDbEntity
  8
0
  6
Continuous
 62
     7
370
     0
100
AcDbLine
 10
599.1630058831929
 20
-136.7873617668399
 30
0.0
 11
598.2308959568686
 21
-138.2463681953989
 31
0.0
  0
LINE
  5
3558
330
A
100
AcDbEntity
  8
0
  6
Continuous
 62
     7
370
     0
100
AcDbLine
 10
598.2172064879058
 20
-138.246368194948
 30
0.0
 11
598.2308959568686
 21
-138.2463681953989
 31
0.0
  0
LINE
  5
3559
330
A
100
AcDbEntity
  8
0
  6
Continuous
 62
     7
370
     0
100
AcDbLine
 10
598.2308959568686
 20
-138.2463681953989
 30
0.0
 11
599.0286948634953
 21
-139.7837384069819
 31
0.0
  0
LINE
  5
355A
330
A
100
AcDbEntity
  8
0
  6
Continuous
 62
     7
370
     0
100
AcDbLine
 10
605.9954105568622
 20
-148.324133897174
 30
0.0
 11
604.1051708089667
 21
-148.324133897174
 31
0.0
  0
LINE
  5
355B
330
A
100
AcDbEntity
  8
0
  6
Continuous
 62
     7
370
     0
100
AcDbLine
 10
595.8450059497448
 20
-148.3241338971768
 30
0.0
 11
593.9954105568631
 21
-148.3241338971768
 31
0.0
  0
LINE
  5
355C
330
A
100
AcDbEntity
  8
0
  6
Continuous
 62
     7
370
     0
100
AcDbLine
 10
587.4954105568507
 20
-148.3241338971749
 30
0.0
 11
587.6601155607109
 21
-148.3241338971749
 31
0.0
  0
LINE
  5
355D
330
A
100
AcDbEntity
  8
0
  6
Continuous
 62
     7
370
     0
100
AcDbLine
 10
587.6601155607109
 20
-148.3241338971749
 30
0.0
 11
595.1232721121099
 21
-148.3241338971749
 31
0.0
  0
LINE
  5
355E
330
A
100
AcDbEntity
  8
0
  6
Continuous
 62
     7
370
     0
100
AcDbLine
 10
595.1232721121099
 20
-148.3241338971749
 30
0.0
 11
597.9917056693539
 21
-148.3241338971749
 31
0.0
  0
LINE
  5
355F
330
A
100
AcDbEntity
  8
0
  6
Continuous
 62
     7
370
     0
100
AcDbLine
 10
602.5464642371371
 20
-148.3241338971749
 30
0.0
 11
612.3310484241046
 21
-148.3241338971749
 31
0.0
  0
LINE
  5
3560
330
A
100
AcDbEntity
  8
0
  6
Continuous
 62
     7
370
     0
100
AcDbLine
 10
612.331048424106
 20
-148.3241338971749
 30
0.0
 11
612.495314943445
 21
-148.3241338971749
 31
0.0
  0
LINE
  5
3561
330
A
100
AcDbEntity
  8
0
  6
Continuous
 62
     9
370
     0
100
AcDbLine
 10
587.4954105568507
 20
-123.324133897175
 30
0.0
 11
612.495314943445
 21
-123.324133897175
 31
0.0
  0
ARC
  5
3562
330
A
100
AcDbEntity
  8
0
  6
Continuous
 62
     7
370
     0
100
AcDbCircle
 10
599.9477041170397
 20
-138.3241338966229
 30
0.0
 40
2.500000279559563
100
AcDbArc
 50
90.02704482603036
 51
269.9728527853594
  0
ELLIPSE
  5
3563
330
A
100
AcDbEntity
  8
0
  6
Continuous
 62
     9
370
     0
100
AcDbEllipse
 10
572.4956209063471
 20
-95.82413389718883
 30
0.0
 11
0.0000000000062172
 21
-12.49999999999995
 31
0.0
210
0.0
220
0.0
230
1.0
 40
0.003911276846581
 41
3.141592653461481
 42
6.283185307179577
  0
ARC
  5
3564
330
A
100
AcDbEntity
  8
0
  6
Continuous
 62
     7
370
     0
100
AcDbCircle
 10
599.9474876749677
 20
-138.3241338964299
 30
0.0
 40
2.500000186570324
100
AcDbArc
 50
269.9778132713226
 51
90.022084340071
  0
ELLIPSE
  5
3565
330
A
100
AcDbEntity
  8
0
  6
Continuous
 62
     9
370
     0
100
AcDbEllipse
 10
27.49978965089281
 20
-95.8241338974649
 30
0.0
 11
0.0000000000062172
 21
-12.49999999999995
 31
0.0
210
0.0
220
0.0
230
1.0
 40
0.003911276846581
 41
3.141592653461508
 42
6.283185307179602
  0
LINE
  5
3566
330
A
100
AcDbEntity
  8
0
  6
Continuous
 62
     9
370
     0
100
AcDbLine
 10
12.50000000038585
 20
-123.324133897479
 30
0.0
 11
-12.49999999961233
 21
-123.324133897479
 31
0.0
  0
LINE
  5
3567
330
A
100
AcDbEntity
  8
0
  6
Continuous
 62
     7
370
     0
100
AcDbLine
 10
12.50000000038767
 20
-148.324133897479
 30
0.0
 11
11.39934512854392
 21
-148.324133897479
 31
0.0
  0
LINE
  5
3568
330
A
100
AcDbEntity
  8
0
  6
Continuous
 62
     7
370
     0
100
AcDbLine
 10
9.861899641794023
 20
-148.324133897479
 30
0.0
 11
9.683482134594896
 21
-148.324133897479
 31
0.0
  0
LINE
  5
3569
330
A
100
AcDbEntity
  8
0
  6
Continuous
 62
     7
370
     0
100
AcDbLine
 10
8.430709177166136
 20
-148.324133897479
 30
0.0
 11
8.327735537647866
 21
-148.324133897479
 31
0.0
  0
LINE
  5
356A
330
A
100
AcDbEntity
  8
0
  6
Continuous
 62
     7
370
     0
100
AcDbLine
 10
-11.15969239142486
 20
-148.324133897479
 30
0.0
 11
-12.49999999961233
 21
-148.324133897479
 31
0.0
  0
ARC
  5
356B
330
A
100
AcDbEntity
  8
0
  6
Continuous
 62
     7
370
     0
100
AcDbCircle
 10
-0.0477064394231093
 20
-138.3241338969269
 30
0.0
 40
2.500000279559551
100
AcDbArc
 50
90.0270448254311
 51
269.9728527859587
  0
ARC
  5
356C
330
A
100
AcDbEntity
  8
0
  6
Continuous
 62
     7
370
     0
100
AcDbCircle
 10
-0.0479228814951966
 20
-138.3241338967339
 30
0.0
 40
2.500000186570312
100
AcDbArc
 50
269.9778132719219
 51
90.02208433947172
  0
LINE
  5
356D
330
A
100
AcDbEntity
  8
0
  6
Continuous
 62
     7
370
     0
100
AcDbLine
 10
-14.99999999961505
 20
-151.324133897479
 30
0.0
 11
15.00000000038494
 21
-151.324133897479
 31
0.0
  0
LINE
  5
356E
330
A
100
AcDbEntity
  8
0
  6
Continuous
 62
     9
370
     0
100
AcDbLine
 10
15.00000000038494
 20
-150.324133897479
 30
0.0
 11
-14.99999999961505
 21
-150.324133897479
 31
0.0
  0
LINE
  5
356F
330
A
100
AcDbEntity
  8
0
  6
Continuous
 62
     7
370
     0
100
AcDbLine
 10
-12.99999999961505
 20
-148.324133897479
 30
0.0
 11
13.00000000038585
 21
-148.324133897479
 31
0.0
  0
LINE
  5
3570
330
A
100
AcDbEntity
  8
0
  6
Continuous
 62
     7
370
     0
100
AcDbLine
 10
584.9954105568548
 20
-151.324133897175
 30
0.0
 11
614.7675268520384
 21
-151.324133897175
 31
0.0
  0
LINE
  5
3571
330
A
100
AcDbEntity
  8
0
  6
Continuous
 62
     9
370
     0
100
AcDbLine
 10
614.9954105568548
 20
-150.324133897175
 30
0.0
 11
614.7675268520384
 21
-150.324133897175
 31
0.0
  0
LINE
  5
3572
330
A
100
AcDbEntity
  8
0
  6
Continuous
 62
     7
370
     0
100
AcDbLine
 10
614.7675268520384
 20
-151.324133897175
 30
0.0
 11
614.9954105568548
 21
-151.324133897175
 31
0.0
  0
LINE
  5
3573
330
A
100
AcDbEntity
  8
0
  6
Continuous
 62
     9
370
     0
100
AcDbLine
 10
614.7675268520384
 20
-150.324133897175
 30
0.0
 11
584.995410556854
 21
-150.324133897175
 31
0.0
  0
LINE
  5
3574
330
A
100
AcDbEntity
  8
0
  6
Continuous
 62
     7
370
     0
100
AcDbLine
 10
586.995410556854
 20
-148.3241338971749
 30
0.0
 11
612.7979113460132
 21
-148.3241338971749
 31
0.0
  0
LINE
  5
3575
330
A
100
AcDbEntity
  8
0
  6
Continuous
 62
     7
370
     0
100
AcDbLine
 10
612.7979113460132
 20
-148.3241338971749
 30
0.0
 11
612.995410556855
 21
-148.3241338971749
 31
0.0
  0
LINE
  5
3576
330
A
100
AcDbEntity
  8
0
  6
Continuous
 62
     7
370
     0
100
AcDbLine
 10
14.50000000034697
 20
-152.3241338980378
 30
0.0
 11
-8.824265887009005
 21
-152.3241338971388
 31
0.0
  0
LINE
  5
3577
330
A
100
AcDbEntity
  8
0
  6
Continuous
 62
     7
370
     0
100
AcDbLine
 10
-8.824265887008095
 20
-152.3241338971388
 30
0.0
 11
-14.49999999965303
 21
-152.3241338969198
 31
0.0
  0
LINE
  5
3578
330
A
100
AcDbEntity
  8
0
  6
Continuous
 62
     7
370
     0
100
AcDbLine
 10
614.4954105569098
 20
-152.3241338963701
 30
0.0
 11
585.4954105569109
 21
-152.3241338979808
 31
0.0
  0
LINE
  5
3579
330
A
100
AcDbEntity
  8
0
  6
Continuous
 62
     9
370
     0
100
AcDbLine
 10
596.6204103213023
 20
-152.3241338964699
 30
0.0
 11
596.6204103212898
 21
-153.8241338959469
 31
0.0
  0
LINE
  5
357A
330
A
100
AcDbEntity
  8
0
  6
Continuous
 62
     9
370
     0
100
AcDbLine
 10
596.6204103212476
 20
-158.8241338959469
 30
0.0
 11
596.6204103212357
 21
-160.3241338953498
 31
0.0
  0
LINE
  5
357B
330
A
100
AcDbEntity
  8
0
  6
Continuous
 62
     9
370
     0
100
AcDbLine
 10
603.3704103212357
 20
-160.324133895406
 30
0.0
 11
603.3704103212476
 21
-158.8241338962068
 31
0.0
  0
LINE
  5
357C
330
A
100
AcDbEntity
  8
0
  6
Continuous
 62
     9
370
     0
100
AcDbLine
 10
603.3704103212897
 20
-153.8241338962068
 30
0.0
 11
603.3704103213023
 21
-152.3241338960949
 31
0.0
  0
LINE
  5
357D
330
A
100
AcDbEntity
  8
0
  6
Continuous
 62
     9
370
     0
100
AcDbLine
 10
-3.375
 20
-152.324133894823
 30
0.0
 11
-3.375
 21
-153.8241338962491
 31
0.0
  0
LINE
  5
357E
330
A
100
AcDbEntity
  8
0
  6
Continuous
 62
     9
370
     0
100
AcDbLine
 10
-3.375
 20
-158.82413389625
 30
0.0
 11
-3.375
 21
-160.3241338955958
 31
0.0
  0
LINE
  5
357F
330
A
100
AcDbEntity
  8
0
  6
Continuous
 62
     9
370
     0
100
AcDbLine
 10
3.375
 20
-160.3241338955958
 30
0.0
 11
3.375
 21
-158.824133896511
 31
0.0
  0
LINE
  5
3580
330
A
100
AcDbEntity
  8
0
  6
Continuous
 62
     9
370
     0
100
AcDbLine
 10
3.375
 20
-153.8241338965088
 30
0.0
 11
3.375
 21
-152.3241338950829
 31
0.0
  0
LINE
  5
3581
330
A
100
AcDbEntity
  8
0
  6
Continuous
 62
     7
370
     0
100
AcDbLine
 10
-0.059158129177149
 20
-165.8241338955308
 30
0.0
 11
-0.0586692195372507
 21
-165.8241338955458
 31
0.0
  0
LINE
  5
3582
330
A
100
AcDbEntity
  8
0
  6
Continuous
 62
     7
370
     0
100
AcDbLine
 10
599.9362524302767
 20
-165.8241338953069
 30
0.0
 11
599.9367413399027
 21
-165.8241338953301
 31
0.0
  0
LINE
  5
3583
330
A
100
AcDbEntity
  8
0
  6
Continuous
 62
     7
370
     0
100
AcDbLine
 10
595.995410321302
 20
-152.3241338965149
 30
0.0
 11
595.9954103212899
 21
-153.8241338959919
 31
0.0
  0
LINE
  5
3584
330
A
100
AcDbEntity
  8
0
  6
Continuous
 62
     7
370
     0
100
AcDbLine
 10
595.9954103212476
 20
-158.8241338959919
 30
0.0
 11
595.9954103212347
 21
-160.3241338953639
 31
0.0
  0
LINE
  5
3585
330
A
100
AcDbEntity
  8
0
  6
Continuous
 62
     7
370
     0
100
AcDbLine
 10
603.9954103212356
 20
-160.324133895431
 30
0.0
 11
603.9954103212476
 21
-158.8241338963
 31
0.0
  0
LINE
  5
3586
330
A
100
AcDbEntity
  8
0
  6
Continuous
 62
     7
370
     0
100
AcDbLine
 10
603.995410321289
 20
-153.8241338963009
 30
0.0
 11
603.9954103213021
 21
-152.3241338960708
 31
0.0
  0
LINE
  5
3587
330
A
100
AcDbEntity
  8
0
  6
Continuous
 62
     7
370
     0
100
AcDbLine
 10
-4.000000000001135
 20
-152.324133894836
 30
0.0
 11
-4.000000000001135
 21
-153.8241338963028
 31
0.0
  0
LINE
  5
3588
330
A
100
AcDbEntity
  8
0
  6
Continuous
 62
     7
370
     0
100
AcDbLine
 10
-4.000000000001135
 20
-158.824133896307
 30
0.0
 11
-4.000000000001135
 21
-160.3241338956279
 31
0.0
  0
LINE
  5
3589
330
A
100
AcDbEntity
  8
0
  6
Continuous
 62
     7
370
     0
100
AcDbLine
 10
4.000000000000908
 20
-160.3241338956279
 30
0.0
 11
4.000000000000908
 21
-158.8241338966149
 31
0.0
  0
LINE
  5
358A
330
A
100
AcDbEntity
  8
0
  6
Continuous
 62
     7
370
     0
100
AcDbLine
 10
4.000000000000908
 20
-153.8241338966108
 30
0.0
 11
4.000000000000908
 21
-152.3241338951441
 31
0.0
  0
ARC
  5
358B
330
A
100
AcDbEntity
  8
0
  6
Continuous
 62
     7
370
     0
100
AcDbCircle
 10
587.995410556678
 20
-165.8241338970829
 30
0.0
 40
3.000000000000113
100
AcDbArc
 50
179.9999999995179
 51
269.999999999518
  0
ARC
  5
358C
330
A
100
AcDbEntity
  8
0
  6
Continuous
 62
     7
370
     0
100
AcDbCircle
 10
611.995410556678
 20
-165.824133897283
 30
0.0
 40
2.99999999999989
100
AcDbArc
 50
269.999999999531
 51
359.999999999531
  0
LINE
  5
358D
330
A
100
AcDbEntity
  8
0
  6
Continuous
 62
     7
370
     0
100
AcDbLine
 10
584.9954105567238
 20
-160.3241338970579
 30
0.0
 11
584.995410556678
 21
-165.8241338970579
 31
0.0
  0
LINE
  5
358E
330
A
100
AcDbEntity
  8
0
  6
Continuous
 62
     7
370
     0
100
AcDbLine
 10
614.995410556678
 20
-165.8241338973068
 30
0.0
 11
614.9954105567238
 21
-160.324133897308
 31
0.0
  0
ARC
  5
358F
330
A
100
AcDbEntity
  8
0
  6
Continuous
 62
     7
370
     0
100
AcDbCircle
 10
-12.0
 20
-165.824133897479
 30
0.0
 40
2.99999999999989
100
AcDbArc
 50
180.0
 51
270.0
  0
ARC
  5
3590
330
A
100
AcDbEntity
  8
0
  6
Continuous
 62
     7
370
     0
100
AcDbCircle
 10
12.0
 20
-165.824133897479
 30
0.0
 40
2.99999999999989
100
AcDbArc
 50
270.0
 51
0.0
  0
LINE
  5
3591
330
A
100
AcDbEntity
  8
0
  6
Continuous
 62
     7
370
     0
100
AcDbLine
 10
-15.0
 20
-160.324133897479
 30
0.0
 11
-15.0
 21
-165.824133897479
 31
0.0
  0
LINE
  5
3592
330
A
100
AcDbEntity
  8
0
  6
Continuous
 62
     7
370
     0
100
AcDbLine
 10
15.0
 20
-165.824133897479
 30
0.0
 11
15.0
 21
-160.324133897479
 31
0.0
  0
LINE
  5
3593
330
A
100
AcDbEntity
  8
0
  6
Continuous
 62
     7
370
     0
100
AcDbLine
 10
592.995410556993
 20
-153.8241338969051
 30
0.0
 11
592.9954105567998
 21
-158.8241338969051
 31
0.0
  0
LINE
  5
3594
330
A
100
AcDbEntity
  8
0
  6
Continuous
 62
     7
370
     0
100
AcDbLine
 10
606.9954105568007
 20
-158.8241338974451
 30
0.0
 11
606.9954105569933
 21
-153.8241338974451
 31
0.0
  0
LINE
  5
3595
330
A
100
AcDbEntity
  8
0
  6
Continuous
 62
     7
370
     0
100
AcDbLine
 10
7.000000000099133
 20
-158.8241338977488
 30
0.0
 11
7.000000000291946
 21
-153.824133897747
 31
0.0
  0
LINE
  5
3596
330
A
100
AcDbEntity
  8
0
  6
Continuous
 62
     7
370
     0
100
AcDbLine
 10
-6.999999999714191
 20
-153.8241338972079
 30
0.0
 11
-6.999999999906093
 21
-158.8241338972088
 31
0.0
  0
LINE
  5
3597
330
A
100
AcDbEntity
  8
0
  6
Continuous
 62
     7
370
     0
100
AcDbLine
 10
612.4954105568522
 20
-148.3241338971749
 30
0.0
 11
612.4954105568522
 21
-123.324133897175
 31
0.0
  0
LINE
  5
3598
330
A
100
AcDbEntity
  8
0
  6
Continuous
 62
     7
370
     0
100
AcDbLine
 10
587.4954105568522
 20
-123.324133897175
 30
0.0
 11
587.4954105568522
 21
-148.3241338971749
 31
0.0
  0
ARC
  5
3599
330
A
100
AcDbEntity
  8
0
  6
Continuous
 62
     7
370
     0
100
AcDbCircle
 10
572.4955170947946
 20
-123.3240273592659
 30
0.0
 40
14.99989346243576
100
AcDbArc
 50
359.9995930522752
 51
89.99960346623955
  0
ARC
  5
359A
330
A
100
AcDbEntity
  8
0
  6
Continuous
 62
     7
370
     0
100
AcDbCircle
 10
572.495516446721
 20
-123.324028007323
 30
0.0
 40
39.99989411027043
100
AcDbArc
 50
359.9998483235605
 51
89.99985037222115
  0
LINE
  5
359B
330
A
100
AcDbEntity
  8
0
  6
Continuous
 62
     7
370
     0
100
AcDbLine
 10
572.4956209063407
 20
-83.32413389718885
 30
0.0
 11
27.49978965088712
 21
-83.3241338974649
 31
0.0
  0
LINE
  5
359C
330
A
100
AcDbEntity
  8
0
  6
Continuous
 62
     7
370
     0
100
AcDbLine
 10
27.49978965089895
 20
-108.3241338974649
 30
0.0
 11
572.4956209063528
 21
-108.3241338971888
 31
0.0
  0
ARC
  5
359D
330
A
100
AcDbEntity
  8
0
  6
Continuous
 62
     7
370
     0
100
AcDbCircle
 10
27.49989619294479
 20
-123.324030090002
 30
0.0
 40
14.9998961929158
100
AcDbArc
 50
90.00040696344917
 51
180.0003965181013
  0
ARC
  5
359E
330
A
100
AcDbEntity
  8
0
  6
Continuous
 62
     7
370
     0
100
AcDbCircle
 10
27.49989554093804
 20
-123.3240294380109
 30
0.0
 40
39.99989554068601
100
AcDbArc
 50
90.0001516767262
 51
180.0001496275574
  0
LINE
  5
359F
330
A
100
AcDbEntity
  8
0
  6
Continuous
 62
     7
370
     0
100
AcDbLine
 10
-12.49999999961233
 20
-123.324133897479
 30
0.0
 11
-12.49999999961233
 21
-148.324133897479
 31
0.0
  0
LINE
  5
35A0
330
A
100
AcDbEntity
  8
0
  6
Continuous
 62
     7
370
     0
100
AcDbLine
 10
12.50000000038767
 20
-148.324133897479
 30
0.0
 11
12.50000000038767
 21
-123.324133897479
 31
0.0
  0
LINE
  5
35A1
330
A
100
AcDbEntity
  8
0
  6
Continuous
 62
     7
370
     0
100
AcDbLine
 10
-14.99999999961505
 20
-150.324133897479
 30
0.0
 11
-14.99999999961505
 21
-151.324133897479
 31
0.0
  0
LINE
  5
35A2
330
A
100
AcDbEntity
  8
0
  6
Continuous
 62
     7
370
     0
100
AcDbLine
 10
15.00000000038494
 20
-151.324133897479
 30
0.0
 11
15.00000000038494
 21
-150.324133897479
 31
0.0
  0
ARC
  5
35A3
330
A
100
AcDbEntity
  8
0
  6
Continuous
 62
     7
370
     0
100
AcDbCircle
 10
-12.99999999961505
 20
-150.324133897479
 30
0.0
 40
2.0
100
AcDbArc
 50
90.0
 51
180.0
  0
ARC
  5
35A4
330
A
100
AcDbEntity
  8
0
  6
Continuous
 62
     7
370
     0
100
AcDbCircle
 10
13.00000000038585
 20
-150.324133897479
 30
0.0
 40
2.0
100
AcDbArc
 50
0.0
 51
90.0
  0
LINE
  5
35A5
330
A
100
AcDbEntity
  8
0
  6
Continuous
 62
     7
370
     0
100
AcDbLine
 10
584.9954105568548
 20
-150.324133897175
 30
0.0
 11
584.9954105568548
 21
-151.324133897175
 31
0.0
  0
LINE
  5
35A6
330
A
100
AcDbEntity
  8
0
  6
Continuous
 62
     7
370
     0
100
AcDbLine
 10
614.9954105568548
 20
-151.324133897175
 30
0.0
 11
614.9954105568548
 21
-150.324133897175
 31
0.0
  0
ARC
  5
35A7
330
A
100
AcDbEntity
  8
0
  6
Continuous
 62
     7
370
     0
100
AcDbCircle
 10
586.995410556854
 20
-150.324133897175
 30
0.0
 40
2.0
100
AcDbArc
 50
90.0
 51
180.0
  0
ARC
  5
35A8
330
A
100
AcDbEntity
  8
0
  6
Continuous
 62
     7
370
     0
100
AcDbCircle
 10
612.995410556854
 20
-150.324133897175
 30
0.0
 40
2.000000000000223
100
AcDbArc
 50
0.0
 51
90.0
  0
LINE
  5
35A9
330
A
100
AcDbEntity
  8
0
  6
Continuous
 62
     7
370
     0
100
AcDbLine
 10
-14.49999999961505
 20
-151.3241338969199
 30
0.0
 11
-14.49999999965303
 21
-152.3241338969198
 31
0.0
  0
LINE
  5
35AA
330
A
100
AcDbEntity
  8
0
  6
Continuous
 62
     7
370
     0
100
AcDbLine
 10
14.50000000034697
 20
-152.3241338980378
 30
0.0
 11
14.50000000038585
 21
-151.3241338980378
 31
0.0
  0
LINE
  5
35AB
330
A
100
AcDbEntity
  8
0
  6
Continuous
 62
     7
370
     0
100
AcDbLine
 10
585.495410556854
 20
-151.3241338979808
 30
0.0
 11
585.4954105569098
 21
-152.3241338979808
 31
0.0
  0
LINE
  5
35AC
330
A
100
AcDbEntity
  8
0
  6
Continuous
 62
     7
370
     0
100
AcDbLine
 10
614.4954105569098
 20
-152.3241338963701
 30
0.0
 11
614.4954105568548
 21
-151.3241338963701
 31
0.0
  0
ARC
  5
5E51
330
A
100
AcDbEntity
  8
0
  6
Continuous
 62
     7
370
     0
100
AcDbCircle
 10
904.0811279251808
 20
-101.9196360092239
 30
0.0
 40
4.901025653732954
100
AcDbArc
 50
84.99545718047501
 51
150.2706198820566
  0
ARC
  5
5E52
330
A
100
AcDbEntity
  8
0
  6
Continuous
 62
     7
370
     0
100
AcDbCircle
 10
918.8178491700121
 20
-112.12845539876
 30
0.0
 40
22.81385548538129
100
AcDbArc
 50
146.3569834411286
 51
192.704704251197
  0
ARC
  5
5E53
330
A
100
AcDbEntity
  8
0
  6
Continuous
 62
     7
370
     0
100
AcDbCircle
 10
901.0144726361916
 20
-116.181438233285
 30
0.0
 40
4.555171769476188
100
AcDbArc
 50
192.2226916996633
 51
254.2761242148568
  0
ARC
  5
5E54
330
A
100
AcDbEntity
  8
0
  6
Continuous
 62
     7
370
     0
100
AcDbCircle
 10
688.3225598255847
 20
-291.5711766545751
 30
0.0
 40
6.981113606323138
100
AcDbArc
 50
178.010514761763
 51
234.4210321793848
  0
ARC
  5
5E55
330
A
100
AcDbEntity
  8
0
  6
Continuous
 62
     7
370
     0
100
AcDbCircle
 10
685.7964401744546
 20
-294.242500478812
 30
0.0
 40
3.376003753652855
100
AcDbArc
 50
242.943045757917
 51
258.427420138921
  0
ARC
  5
5E56
330
A
100
AcDbEntity
  8
0
  6
Continuous
 62
     7
370
     0
100
AcDbCircle
 10
689.4035259616229
 20
-278.8506395329471
 30
0.0
 40
4.849084784448936
100
AcDbArc
 50
84.61939804024927
 51
149.7389072584564
  0
ARC
  5
5E57
330
A
100
AcDbEntity
  8
0
  6
Continuous
 62
     7
370
     0
100
AcDbCircle
 10
704.9453825794447
 20
-289.486065167317
 30
0.0
 40
23.67156348037103
100
AcDbArc
 50
146.4597374760173
 51
184.4648080911926
  0
ARC
  5
5E58
330
A
100
AcDbEntity
  8
0
  6
Continuous
 62
     7
370
     0
100
AcDbCircle
 10
873.2980272650989
 20
-152.3758808700179
 30
0.0
 40
58.46359192413121
100
AcDbArc
 50
78.59337954816877
 51
108.6873774526978
  0
ARC
  5
5E59
330
A
100
AcDbEntity
  8
0
  6
Continuous
 62
     7
370
     0
100
AcDbCircle
 10
863.770870589165
 20
-122.327640434155
 30
0.0
 40
26.95366505493239
100
AcDbArc
 50
109.9686354910027
 51
128.1242880936816
  0
ARC
  5
5E5A
330
A
100
AcDbEntity
  8
0
  6
Continuous
 62
     7
370
     0
100
AcDbCircle
 10
869.4722565524411
 20
-134.1582937656599
 30
0.0
 40
20.02548073026966
100
AcDbArc
 50
92.01260654939964
 51
119.1895210515983
  0
ARC
  5
5E5B
330
A
100
AcDbEntity
  8
0
  6
Continuous
 62
     7
370
     0
100
AcDbCircle
 10
873.0703432396339
 20
-155.1377349970639
 30
0.0
 40
41.21762327583088
100
AcDbArc
 50
79.105663240943
 51
95.99015231693675
  0
ARC
  5
5E5C
330
A
100
AcDbEntity
  8
0
  6
Continuous
 62
     7
370
     0
100
AcDbCircle
 10
660.502680245198
 20
-273.6821004017929
 30
0.0
 40
14.44543954989027
100
AcDbArc
 50
126.0615969028905
 51
218.0159251405304
  0
ARC
  5
5E5D
330
A
100
AcDbEntity
  8
0
  6
Continuous
 62
     7
370
     0
100
AcDbCircle
 10
667.8820000215501
 20
-266.768846101824
 30
0.0
 40
24.53347641635444
100
AcDbArc
 50
220.1223728369707
 51
256.0540129580015
  0
LINE
  5
5E5E
330
A
100
AcDbEntity
  8
0
  6
Continuous
 62
     7
370
     0
100
AcDbLine
 10
661.9692583458117
 20
-290.5791579634488
 30
0.0
 11
663.4549401520089
 21
-291.0032517142408
 31
0.0
  0
LINE
  5
5E5F
330
A
100
AcDbEntity
  8
0
  6
Continuous
 62
     7
370
     0
100
AcDbLine
 10
663.4549401520089
 20
-291.0032517142408
 30
0.0
 11
664.9449038149177
 21
-291.3736901246118
 31
0.0
  0
LINE
  5
5E60
330
A
100
AcDbEntity
  8
0
  6
Continuous
 62
     7
370
     0
100
AcDbLine
 10
664.9449038149177
 20
-291.3736901246118
 30
0.0
 11
666.199523523714
 21
-291.646673905369
 31
0.0
  0
ARC
  5
5E61
330
A
100
AcDbEntity
  8
0
  6
Continuous
 62
     7
370
     0
100
AcDbCircle
 10
686.9429143195871
 20
-286.159021415702
 30
0.0
 40
18.18628722694856
100
AcDbArc
 50
316.5861393038166
 51
354.2072656537115
  0
ARC
  5
5E62
330
A
100
AcDbEntity
  8
0
  6
Continuous
 62
     7
370
     0
100
AcDbCircle
 10
690.3845805163602
 20
-284.898418069055
 30
0.0
 40
14.97531296154392
100
AcDbArc
 50
348.0680312263645
 51
26.13183616968256
  0
ARC
  5
5E63
330
A
100
AcDbEntity
  8
0
  6
Continuous
 62
     7
370
     0
100
AcDbCircle
 10
700.0380977866078
 20
-280.6508185181481
 30
0.0
 40
4.459342211269196
100
AcDbArc
 50
31.77313093096389
 51
77.4114572924547
  0
ARC
  5
5E64
330
A
100
AcDbEntity
  8
0
  6
Continuous
 62
     7
370
     0
100
AcDbCircle
 10
901.6037981903092
 20
-109.1753080303058
 30
0.0
 40
18.18628722689878
100
AcDbArc
 50
316.5861393031899
 51
354.2072656532669
  0
ARC
  5
5E65
330
A
100
AcDbEntity
  8
0
  6
Continuous
 62
     7
370
     0
100
AcDbCircle
 10
905.0454643871807
 20
-107.9147046837149
 30
0.0
 40
14.97531296140142
100
AcDbArc
 50
348.068031225925
 51
26.13183616958347
  0
ARC
  5
5E66
330
A
100
AcDbEntity
  8
0
  6
Continuous
 62
     7
370
     0
100
AcDbCircle
 10
914.6989816572837
 20
-103.6671051329028
 30
0.0
 40
4.459342211298405
100
AcDbArc
 50
31.77313093088795
 51
77.41145729222719
  0
LINE
  5
5E67
330
A
100
AcDbEntity
  8
0
  6
Continuous
 62
     7
370
     0
100
AcDbLine
 10
891.5761150715589
 20
-97.981064202708
 30
0.0
 11
891.589908330142
 21
-97.86913453284093
 31
0.0
  0
LINE
  5
5E68
330
A
100
AcDbEntity
  8
0
  6
Continuous
 62
     7
370
     0
100
AcDbLine
 10
891.589908330142
 20
-97.86913453284093
 30
0.0
 11
891.6344935208208
 21
-97.75597247545988
 31
0.0
  0
LINE
  5
5E69
330
A
100
AcDbEntity
  8
0
  6
Continuous
 62
     7
370
     0
100
AcDbLine
 10
891.6344935208208
 20
-97.75597247545988
 30
0.0
 11
891.7169864285806
 21
-97.64241815072205
 31
0.0
  0
LINE
  5
5E6A
330
A
100
AcDbEntity
  8
0
  6
Continuous
 62
     7
370
     0
100
AcDbLine
 10
891.7169864285806
 20
-97.64241815072205
 30
0.0
 11
891.8151361900186
 21
-97.55435709219206
 31
0.0
  0
LINE
  5
5E6B
330
A
100
AcDbEntity
  8
0
  6
Continuous
 62
     7
370
     0
100
AcDbLine
 10
891.8151361900186
 20
-97.55435709219206
 30
0.0
 11
891.9009229802359
 21
-97.49700956716585
 31
0.0
  0
LINE
  5
5E6C
330
A
100
AcDbEntity
  8
0
  6
Continuous
 62
     7
370
     0
100
AcDbLine
 10
891.9009229802359
 20
-97.49700956716585
 30
0.0
 11
892.0120771869028
 21
-97.43900864650299
 31
0.0
  0
ARC
  5
5E6D
330
A
100
AcDbEntity
  8
0
  6
Continuous
 62
     7
370
     0
100
AcDbCircle
 10
893.3349886941201
 20
-102.327676922883
 30
0.0
 40
5.064501196801789
100
AcDbArc
 50
66.38322351573508
 51
105.1420254897467
  0
LINE
  5
5E6E
330
A
100
AcDbEntity
  8
0
  6
Continuous
 62
     7
370
     0
100
AcDbLine
 10
895.3639156458057
 20
-97.68735066311002
 30
0.0
 11
895.447236767905
 21
-97.746668190209
 31
0.0
  0
LINE
  5
5E6F
330
A
100
AcDbEntity
  8
0
  6
Continuous
 62
     7
370
     0
100
AcDbLine
 10
895.447236767905
 20
-97.746668190209
 30
0.0
 11
895.525841853032
 21
-97.82885892732204
 31
0.0
  0
LINE
  5
5E70
330
A
100
AcDbEntity
  8
0
  6
Continuous
 62
     7
370
     0
100
AcDbLine
 10
895.525841853032
 20
-97.82885892732204
 30
0.0
 11
895.5733346875577
 21
-97.93947625777992
 31
0.0
  0
LINE
  5
5E71
330
A
100
AcDbEntity
  8
0
  6
Continuous
 62
     7
370
     0
100
AcDbLine
 10
895.5733346875577
 20
-97.93947625777992
 30
0.0
 11
895.5761085615581
 21
-97.97433871328394
 31
0.0
  0
ARC
  5
5E72
330
A
100
AcDbEntity
  8
0
  6
Continuous
 62
     7
370
     0
100
AcDbCircle
 10
893.4364261917016
 20
-95.52654355754087
 30
0.0
 40
3.383514493534142
100
AcDbArc
 50
243.8822922261442
 51
304.7474816457638
  0
LINE
  5
5E73
330
A
100
AcDbEntity
  8
0
  6
Continuous
 62
     7
370
     0
100
AcDbLine
 10
891.946946632987
 20
-98.564572683822
 30
0.0
 11
891.8365070881108
 21
-98.47670452329587
 31
0.0
  0
LINE
  5
5E74
330
A
100
AcDbEntity
  8
0
  6
Continuous
 62
     7
370
     0
100
AcDbLine
 10
891.8365070881108
 20
-98.47670452329587
 30
0.0
 11
891.7603532276798
 21
-98.40111005459585
 31
0.0
  0
LINE
  5
5E75
330
A
100
AcDbEntity
  8
0
  6
Continuous
 62
     7
370
     0
100
AcDbLine
 10
891.7603532276798
 20
-98.40111005459585
 30
0.0
 11
891.6895053237347
 21
-98.312176423864
 31
0.0
  0
LINE
  5
5E76
330
A
100
AcDbEntity
  8
0
  6
Continuous
 62
     7
370
     0
100
AcDbLine
 10
891.6895053237347
 20
-98.312176423864
 30
0.0
 11
891.6305513853709
 21
-98.21065785313999
 31
0.0
  0
LINE
  5
5E77
330
A
100
AcDbEntity
  8
0
  6
Continuous
 62
     7
370
     0
100
AcDbLine
 10
891.6305513853709
 20
-98.21065785313999
 30
0.0
 11
891.5854491645884
 21
-98.07558147002191
 31
0.0
  0
LINE
  5
5E78
330
A
100
AcDbEntity
  8
0
  6
Continuous
 62
     7
370
     0
100
AcDbLine
 10
891.5854491645884
 20
-98.07558147002191
 30
0.0
 11
891.5761150715589
 21
-97.981064202708
 31
0.0
  0
LINE
  5
5E79
330
A
100
AcDbEntity
  8
0
  6
Continuous
 62
     7
370
     0
100
AcDbLine
 10
676.9152312010319
 20
-274.964777588146
 30
0.0
 11
676.9290244596159
 21
-274.8528479182869
 31
0.0
  0
LINE
  5
5E7A
330
A
100
AcDbEntity
  8
0
  6
Continuous
 62
     7
370
     0
100
AcDbLine
 10
676.9290244596159
 20
-274.8528479182869
 30
0.0
 11
676.9736096502952
 21
-274.7396858609061
 31
0.0
  0
LINE
  5
5E7B
330
A
100
AcDbEntity
  8
0
  6
Continuous
 62
     7
370
     0
100
AcDbLine
 10
676.9736096502952
 20
-274.7396858609061
 30
0.0
 11
677.0561025580549
 21
-274.6261315361689
 31
0.0
  0
LINE
  5
5E7C
330
A
100
AcDbEntity
  8
0
  6
Continuous
 62
     7
370
     0
100
AcDbLine
 10
677.0561025580549
 20
-274.6261315361689
 30
0.0
 11
677.154252319493
 21
-274.5380704776378
 31
0.0
  0
LINE
  5
5E7D
330
A
100
AcDbEntity
  8
0
  6
Continuous
 62
     7
370
     0
100
AcDbLine
 10
677.154252319493
 20
-274.5380704776378
 30
0.0
 11
677.2400391097098
 21
-274.480722952612
 31
0.0
  0
LINE
  5
5E7E
330
A
100
AcDbEntity
  8
0
  6
Continuous
 62
     7
370
     0
100
AcDbLine
 10
677.2400391097098
 20
-274.480722952612
 30
0.0
 11
677.3511933163766
 21
-274.422722031949
 31
0.0
  0
ARC
  5
5E7F
330
A
100
AcDbEntity
  8
0
  6
Continuous
 62
     7
370
     0
100
AcDbCircle
 10
678.6741048235938
 20
-279.3113903083279
 30
0.0
 40
5.064501196800792
100
AcDbArc
 50
66.38322351573508
 51
105.1420254897467
  0
LINE
  5
5E80
330
A
100
AcDbEntity
  8
0
  6
Continuous
 62
     7
370
     0
100
AcDbLine
 10
680.7030317752787
 20
-274.6710640485569
 30
0.0
 11
680.786352897378
 21
-274.730381575655
 31
0.0
  0
LINE
  5
5E81
330
A
100
AcDbEntity
  8
0
  6
Continuous
 62
     7
370
     0
100
AcDbLine
 10
680.786352897378
 20
-274.730381575655
 30
0.0
 11
680.8649579825051
 21
-274.8125723127678
 31
0.0
  0
LINE
  5
5E82
330
A
100
AcDbEntity
  8
0
  6
Continuous
 62
     7
370
     0
100
AcDbLine
 10
680.8649579825051
 20
-274.8125723127678
 30
0.0
 11
680.9124508170307
 21
-274.9231896432259
 31
0.0
  0
LINE
  5
5E83
330
A
100
AcDbEntity
  8
0
  6
Continuous
 62
     7
370
     0
100
AcDbLine
 10
680.9124508170307
 20
-274.9231896432259
 30
0.0
 11
680.915224691031
 21
-274.958052098724
 31
0.0
  0
ARC
  5
5E84
330
A
100
AcDbEntity
  8
0
  6
Continuous
 62
     7
370
     0
100
AcDbCircle
 10
678.7755423211747
 20
-272.510256942991
 30
0.0
 40
3.383514493530573
100
AcDbArc
 50
243.8822922261326
 51
304.7474816460168
  0
LINE
  5
5E85
330
A
100
AcDbEntity
  8
0
  6
Continuous
 62
     7
370
     0
100
AcDbLine
 10
677.2860627624609
 20
-275.548286069268
 30
0.0
 11
677.1756232175838
 21
-275.4604179087421
 31
0.0
  0
LINE
  5
5E86
330
A
100
AcDbEntity
  8
0
  6
Continuous
 62
     7
370
     0
100
AcDbLine
 10
677.1756232175838
 20
-275.4604179087421
 30
0.0
 11
677.0994693571529
 21
-275.3848234400418
 31
0.0
  0
LINE
  5
5E87
330
A
100
AcDbEntity
  8
0
  6
Continuous
 62
     7
370
     0
100
AcDbLine
 10
677.0994693571529
 20
-275.3848234400418
 30
0.0
 11
677.0286214532078
 21
-275.29588980931
 31
0.0
  0
LINE
  5
5E88
330
A
100
AcDbEntity
  8
0
  6
Continuous
 62
     7
370
     0
100
AcDbLine
 10
677.0286214532078
 20
-275.29588980931
 30
0.0
 11
676.9696675148447
 21
-275.194371238586
 31
0.0
  0
LINE
  5
5E89
330
A
100
AcDbEntity
  8
0
  6
Continuous
 62
     7
370
     0
100
AcDbLine
 10
676.9696675148447
 20
-275.194371238586
 30
0.0
 11
676.9245652940617
 21
-275.059294855469
 31
0.0
  0
LINE
  5
5E8A
330
A
100
AcDbEntity
  8
0
  6
Continuous
 62
     7
370
     0
100
AcDbLine
 10
676.9245652940617
 20
-275.059294855469
 30
0.0
 11
676.9152312010319
 21
-274.964777588146
 31
0.0
  0
ARC
  5
5ED6
330
A
100
AcDbEntity
  8
0
  6
Continuous
 62
     7
370
     0
100
AcDbCircle
 10
697.8164206845239
 20
0.9739816532189705
 30
0.0
 40
13.46227422132829
100
AcDbArc
 50
215.740999117193
 51
275.2693835960469
  0
ARC
  5
5ED7
330
A
100
AcDbEntity
  8
0
  6
Continuous
 62
     7
370
     0
100
AcDbCircle
 10
721.2951605516299
 20
3506.50315766555
 30
0.0
 40
3519.00485134203
100
AcDbArc
 50
269.6378512354502
 51
270.0562136972127
  0
TEXT
  5
6327
330
A
100
AcDbEntity
  8
0
  6
Continuous
 62
     7
370
     0
100
AcDbText
 10
279.5430562804684
 20
39.63163931954865
 30
0.0
 40
10.0
  1
5P01
 50
359.78
100
AcDbText
  0
LINE
  5
6398
330
A
100
AcDbEntity
  8
0
  6
CENTER
 62
     1
100
AcDbLine
 10
-19.64762402357382
 20
-0.0000000077362188
 30
0.0
 11
618.5414690013349
 21
-0.0000000074574587
 31
0.0
  0
LINE
  5
6399
330
A
100
AcDbEntity
  8
0
  6
CENTER
 62
     1
100
AcDbLine
 10
677.6000812542332
 20
0.1075601035434502
 30
0.0
 11
778.3443634720293
 21
0.1075601038222103
 31
0.0
  0
ENDSEC
  0
SECTION
  2
OBJECTS
  0
DICTIONARY
  5
19
330
0
100
AcDbDictionary
281
     1
  3
ACAD_COLOR
350
3176
  3
ACAD_GROUP
350
1A
  3
ACAD_LAYOUT
350
1E
  3
ACAD_MATERIAL
350
314C
  3
ACAD_MLEADERSTYLE
350
319B
  3
ACAD_MLINESTYLE
350
1B
  3
ACAD_PLOTSETTINGS
350
22
  3
ACAD_PLOTSTYLENAME
350
1F
  3
ACAD_SCALELIST
350
3179
  3
ACAD_TABLESTYLE
350
3177
  3
ACAD_VISUALSTYLE
350
3165
  3
ACAD_WIPEOUT_VARS
350
23
  3
ACDB_RECOMPOSE_DATA
350
630A
  3
AcDbVariableDictionary
350
630B
  3
ASE_INDEX_DICTIONARY
350
5E44
  3
DWGPROPS
350
63B8
  0
DICTIONARY
  5
5E41
330
14
100
AcDbDictionary
280
     1
281
     1
  3
ADSK_XREC_LAYER_RECONCILED
360
5E42
  0
DICTIONARY
  5
31A7
330
A
100
AcDbDictionary
280
     1
281
     1
  3
ACAD_SORTENTS
360
31A8
  0
DICTIONARY
  5
3176
102
{ACAD_REACTORS
330
19
102
}
330
19
100
AcDbDictionary
281
     1
  0
DICTIONARY
  5
1A
102
{ACAD_REACTORS
330
19
102
}
330
19
100
AcDbDictionary
281
     1
  0
DICTIONARY
  5
1E
102
{ACAD_REACTORS
330
19
102
}
330
19
100
AcDbDictionary
281
     1
  3
Layout1
350
21
  3
Model
350
20
  0
DICTIONARY
  5
314C
102
{ACAD_REACTORS
330
19
102
}
330
19
100
AcDbDictionary
281
     1
  3
ByBlock
350
3155
  3
ByLayer
350
314D
  3
Global
350
315D
  0
DICTIONARY
  5
319B
102
{ACAD_REACTORS
330
19
102
}
330
19
100
AcDbDictionary
281
     1
  3
Standard
350
319C
  0
DICTIONARY
  5
1B
102
{ACAD_REACTORS
330
19
102
}
330
19
100
AcDbDictionary
281
     1
  3
Standard
350
1C
  0
DICTIONARY
  5
22
102
{ACAD_REACTORS
330
19
102
}
330
19
100
AcDbDictionary
281
     1
  0
ACDBDICTIONARYWDFLT
  5
1F
102
{ACAD_REACTORS
330
19
102
}
330
19
100
AcDbDictionary
281
     1
  3
Normal
350
1D
100
AcDbDictionaryWithDefault
340
1D
  0
DICTIONARY
  5
3179
102
{ACAD_REACTORS
330
19
102
}
330
19
100
AcDbDictionary
281
     1
  3
A0
350
317A
  3
A1
350
317B
  3
A2
350
317C
  3
A3
350
317D
  3
A4
350
317E
  3
A5
350
317F
  3
A6
350
3180
  3
A7
350
3181
  3
A8
350
3182
  3
A9
350
3183
  3
B0
350
3184
  3
B1
350
3185
  3
B2
350
3186
  3
B3
350
3187
  3
B4
350
3188
  3
B5
350
3189
  3
B6
350
318A
  3
B7
350
318B
  3
B8
350
318C
  3
B9
350
318D
  3
C0
350
318E
  3
C1
350
318F
  3
C2
350
3190
  3
C3
350
3191
  3
C4
350
3192
  3
C5
350
3193
  3
C6
350
3194
  3
C7
350
3195
  3
C8
350
3196
  3
C9
350
3197
  3
D0
350
3198
  3
D1
350
3199
  3
D2
350
319A
  0
DICTIONARY
  5
3177
102
{ACAD_REACTORS
330
19
102
}
330
19
100
AcDbDictionary
281
     1
  3
Standard
350
3178
  0
DICTIONARY
  5
3165
102
{ACAD_REACTORS
330
19
102
}
330
19
100
AcDbDictionary
281
     1
  3
2dWireframe
350
316B
  3
3D Hidden
350
316D
  3
3dWireframe
350
316C
  3
Basic
350
316A
  3
Brighten
350
3171
  3
ColorChange
350
3175
  3
Conceptual
350
316E
  3
Dim
350
3170
  3
Facepattern
350
3174
  3
Flat
350
3166
  3
FlatWithEdges
350
3167
  3
Gouraud
350
3168
  3
GouraudWithEdges
350
3169
  3
Linepattern
350
3173
  3
Realistic
350
316F
  3
Thicken
350
3172
  0
WIPEOUTVARIABLES
  5
23
330
19
100
AcDbWipeoutVariables
 70
     1
  0
XRECORD
  5
630A
102
{ACAD_REACTORS
330
19
102
}
330
19
100
AcDbXrecord
280
     1
 90
        1
330
3178
  0
DICTIONARY
  5
630B
102
{ACAD_REACTORS
330
19
102
}
330
19
100
AcDbDictionary
281
     1
  3
CANNOSCALE
350
630F
  3
CMLEADERSTYLE
350
630D
  3
CTABLESTYLE
350
630C
  3
DIMASSOC
350
6318
  3
INDEXCTL
350
6317
  3
LIGHTINGUNITS
350
6310
  3
MSLTSCALE
350
630E
  3
SORTENTS
350
6316
  0
DICTIONARY
  5
5E44
102
{ACAD_REACTORS
330
19
102
}
330
19
100
AcDbDictionary
281
     1
  3
ASEBlockHierarchyIndexRecord
350
5E46
1001
DCO15
1040
1685075681.336
  0
XRECORD
  5
63B8
102
{ACAD_REACTORS
330
19
102
}
330
19
100
AcDbXrecord
280
     1
  1
DWGPROPS COOKIE
  2

  3

  4

  6

  7

  8
renzo.ceresoli
  9

300
=
301
=
302
=
303
=
304
=
305
=
306
=
307
=
308
=
309
=
 40
0.0139111342592593
 41
2455303.727916667
 42
2455306.505678739
  1

 90
        0
  0
XRECORD
  5
5E42
102
{ACAD_REACTORS
330
5E41
102
}
330
5E41
100
AcDbXrecord
280
     1
290
     1
  0
SORTENTSTABLE
  5
31A8
102
{ACAD_REACTORS
330
31A7
102
}
330
31A7
100
AcDbSortentsTable
330
A
331
33FC
  5
5C3A
331
343B
  5
5C71
331
3247
  5
5DB8
331
327E
  5
5DD6
331
31F0
  5
5D8D
331
31F8
  5
5D95
331
33CD
  5
5C0B
331
3404
  5
5C42
331
31C1
  5
5D5E
331
34E3
  5
5AE8
331
328E
  5
5DDE
331
33D5
  5
5C13
331
340C
  5
5C4A
331
3296
  5
5DE1
331
3580
  5
5AB6
331
350A
  5
5B0F
331
3549
  5
5A7F
331
3551
  5
5A87
331
3588
  5
5ABE
331
3512
  5
5B17
331
351A
  5
5B1F
331
3559
  5
5A8F
331
3590
  5
5AC6
331
3598
  5
5ACE
331
3522
  5
5A58
331
31C9
  5
5D66
331
341C
  5
5C5A
331
325F
  5
5DC6
331
31D1
  5
5D6E
331
33E5
  5
5C23
331
3230
  5
5DA1
331
3267
  5
5DCE
331
3424
  5
5C62
331
31D9
  5
5D76
331
33B6
  5
5BF4
331
3238
  5
5DA9
331
31E1
  5
5D7E
331
33F5
  5
5C33
331
35A0
  5
5AD6
331
34EB
  5
5AF0
331
352A
  5
5A60
331
3561
  5
5A97
331
3569
  5
5A9F
331
35A8
  5
5ADE
331
34F3
  5
5AF8
331
3532
  5
5A68
331
353A
  5
5A70
331
3571
  5
5AA7
331
34FB
  5
5B00
331
3542
  5
5A78
331
3579
  5
5AAF
331
3503
  5
5B08
331
31E9
  5
5D86
331
3240
  5
5DB1
331
343C
  5
5C72
331
327F
  5
5DD7
331
31F1
  5
5D8E
331
3248
  5
5DB9
331
33FD
  5
5C3B
331
3405
  5
5C43
331
31C2
  5
5D5F
331
31F9
  5
5D96
331
33CE
  5
5C0C
331
340D
  5
5C4B
331
34E4
  5
5AE9
331
328F
  5
5DDF
331
33D6
  5
5C14
331
3415
  5
5C53
331
3297
  5
5DE2
331
350B
  5
5B10
331
354A
  5
5A80
331
3581
  5
5AB7
331
3589
  5
5ABF
331
3513
  5
5B18
331
3552
  5
5A88
331
3591
  5
5AC7
331
351B
  5
5B20
331
355A
  5
5A90
331
3599
  5
5ACF
331
3523
  5
5A59
331
31CA
  5
5D67
331
31D2
  5
5D6F
331
3221
  5
5D9F
331
3260
  5
5DC7
331
341D
  5
5C5B
331
3425
  5
5C63
331
33AF
  5
5BED
331
33E6
  5
5C24
331
31DA
  5
5D77
331
3231
  5
5DA2
331
3268
  5
5DCF
331
33B7
  5
5BF5
331
31E2
  5
5D7F
331
3239
  5
5DAA
331
3435
  5
5C6B
331
352B
  5
5A61
331
3562
  5
5A98
331
34EC
  5
5AF1
331
35A1
  5
5AD7
331
35A9
  5
5ADF
331
3533
  5
5A69
331
356A
  5
5AA0
331
34F4
  5
5AF9
331
34FC
  5
5B01
331
353B
  5
5A71
331
3572
  5
5AA8
331
357A
  5
5AB0
331
3504
  5
5B09
331
3543
  5
5A79
331
3241
  5
5DB2
331
31EA
  5
5D87
331
3249
  5
5DBA
331
3280
  5
5DD8
331
31F2
  5
5D8F
331
31FA
  5
5D97
331
33CF
  5
5C0D
331
31C3
  5
5D60
331
34E5
  5
5AEA
331
33D7
  5
5C15
331
340E
  5
5C4C
331
3416
  5
5C54
331
354B
  5
5A81
331
3582
  5
5AB8
331
350C
  5
5B11
331
3553
  5
5A89
331
358A
  5
5AC0
331
3514
  5
5B19
331
351C
  5
5A52
331
355B
  5
5A91
331
3592
  5
5AC8
331
359A
  5
5AD0
331
3524
  5
5A5A
331
31CB
  5
5D68
331
3298
  5
5DE3
331
341E
  5
5C5C
331
3261
  5
5DC8
331
31D3
  5
5D70
331
33E7
  5
5C25
331
3232
  5
5DA3
331
31DB
  5
5D78
331
33B0
  5
5BEE
331
33B8
  5
5BF6
331
31E3
  5
5D80
331
323A
  5
5DAB
331
3271
  5
5DD1
331
3436
  5
5C6C
331
33F7
  5
5C35
331
35A2
  5
5AD8
331
34ED
  5
5AF2
331
352C
  5
5A62
331
3563
  5
5A99
331
356B
  5
5AA1
331
35AA
  5
5AE0
331
34F5
  5
5AFA
331
3534
  5
5A6A
331
353C
  5
5A72
331
3573
  5
5AA9
331
34FD
  5
5B02
331
3544
  5
5A7A
331
357B
  5
5AB1
331
3505
  5
5B0A
331
31EB
  5
5D88
331
3242
  5
5DB3
331
3281
  5
5DD9
331
31F3
  5
5D90
331
324A
  5
5DBB
331
33FF
  5
5C3D
331
34DE
  5
5AE3
331
31C4
  5
5D61
331
33D0
  5
5C0E
331
34E6
  5
5AEB
331
3417
  5
5C55
331
350D
  5
5B12
331
354C
  5
5A82
331
3583
  5
5AB9
331
358B
  5
5AC1
331
3515
  5
5B1A
331
3554
  5
5A8A
331
355C
  5
5A92
331
3593
  5
5AC9
331
351D
  5
5A53
331
359B
  5
5AD1
331
3525
  5
5A5B
331
33D8
  5
5C16
331
31CC
  5
5D69
331
3299
  5
5DE4
331
31D4
  5
5D71
331
3262
  5
5DC9
331
33B1
  5
5BEF
331
31DC
  5
5D79
331
3233
  5
5DA4
331
33E8
  5
5C26
331
3272
  5
5DD2
331
33B9
  5
5BF7
331
31E4
  5
5D81
331
323B
  5
5DAC
331
33F0
  5
5C2E
331
3437
  5
5C6D
331
352D
  5
5A63
331
3564
  5
5A9A
331
34EE
  5
5AF3
331
35A3
  5
5AD9
331
35AB
  5
5AE1
331
34F6
  5
5AFB
331
3535
  5
5A6B
331
356C
  5
5AA2
331
34FE
  5
5B03
331
353D
  5
5A73
331
3574
  5
5AAA
331
357C
  5
5AB2
331
3506
  5
5B0B
331
3545
  5
5A7B
331
33F8
  5
5C36
331
3243
  5
5DB4
331
31EC
  5
5D89
331
3400
  5
5C3E
331
31F4
  5
5D91
331
324B
  5
5DBC
331
31BD
  5
5D5A
331
3282
  5
5DDA
331
34DF
  5
5AE4
331
33D1
  5
5C0F
331
3253
  5
5DBF
331
3408
  5
5C46
331
31C5
  5
5D62
331
34E7
  5
5AEC
331
354D
  5
5A83
331
3584
  5
5ABA
331
350E
  5
5B13
331
3555
  5
5A8B
331
358C
  5
5AC2
331
3516
  5
5B1B
331
351E
  5
5A54
331
355D
  5
5A93
331
3594
  5
5ACA
331
359C
  5
5AD2
331
3526
  5
5A5C
331
3418
  5
5C56
331
31CD
  5
5D6A
331
33D9
  5
5C17
331
33E1
  5
5C1F
331
3263
  5
5DCA
331
3420
  5
5C5E
331
31D5
  5
5D72
331
3234
  5
5DA5
331
3136
  5
5E30
331
31DD
  5
5D7A
331
33B2
  5
5BF0
331
33BA
  5
5BF8
331
31E5
  5
5D82
331
323C
  5
5DAD
331
33F1
  5
5C2F
331
3565
  5
5A9B
331
35A4
  5
5ADA
331
34EF
  5
5AF4
331
352E
  5
5A64
331
356D
  5
5AA3
331
35AC
  5
5AE2
331
34F7
  5
5AFC
331
3536
  5
5A6C
331
353E
  5
5A74
331
3575
  5
5AAB
331
34FF
  5
5B04
331
3507
  5
5B0C
331
3546
  5
5A7C
331
357D
  5
5AB3
331
3438
  5
5C6E
331
31ED
  5
5D8A
331
3244
  5
5DB5
331
33F9
  5
5C37
331
31BE
  5
5D5B
331
31F5
  5
5D92
331
324C
  5
5DBD
331
3401
  5
5C3F
331
3409
  5
5C47
331
34E0
  5
5AE5
331
3254
  5
5DC0
331
31C6
  5
5D63
331
3205
  5
5D99
331
350F
  5
5B14
331
354E
  5
5A84
331
3585
  5
5ABB
331
358D
  5
5AC3
331
3517
  5
5B1C
331
3556
  5
5A8C
331
355E
  5
5A94
331
3595
  5
5ACB
331
351F
  5
5A55
331
359D
  5
5AD3
331
3527
  5
5A5D
331
33DA
  5
5C18
331
3215
  5
5D9C
331
325C
  5
5DC3
331
31CE
  5
5D6B
331
33E2
  5
5C20
331
31D6
  5
5D73
331
3264
  5
5DCB
331
3421
  5
5C5F
331
33B3
  5
5BF1
331
3137
  5
5E31
331
31DE
  5
5D7B
331
3235
  5
5DA6
331
33F2
  5
5C30
331
33BB
  5
5BF9
331
313F
  5
5E39
331
31E6
  5
5D83
331
323D
  5
5DAE
331
34E8
  5
5AED
331
352F
  5
5A65
331
3566
  5
5A9C
331
34F0
  5
5AF5
331
35A5
  5
5ADB
331
34F8
  5
5AFD
331
3537
  5
5A6D
331
356E
  5
5AA4
331
3576
  5
5AAC
331
3500
  5
5B05
331
353F
  5
5A75
331
357E
  5
5AB4
331
3547
  5
5A7D
331
3245
  5
5DB6
331
31EE
  5
5D8B
331
31F6
  5
5D93
331
3402
  5
5C40
331
31BF
  5
5D5C
331
34E1
  5
5AE6
331
3255
  5
5DC1
331
340A
  5
5C48
331
31C7
  5
5D64
331
3206
  5
5D9A
331
3508
  5
5B0D
331
354F
  5
5A85
331
3586
  5
5ABC
331
3510
  5
5B15
331
3518
  5
5B1D
331
3557
  5
5A8D
331
358E
  5
5AC4
331
3520
  5
5A56
331
355F
  5
5A95
331
3596
  5
5ACC
331
359E
  5
5AD4
331
325D
  5
5DC4
331
31CF
  5
5D6C
331
3216
  5
5D9D
331
33DB
  5
5C19
331
33E3
  5
5C21
331
3265
  5
5DCC
331
3422
  5
5C60
331
31D7
  5
5D74
331
3236
  5
5DA7
331
3138
  5
5E32
331
31DF
  5
5D7C
331
33B4
  5
5BF2
331
33BC
  5
5BFA
331
31E7
  5
5D84
331
323E
  5
5DAF
331
33F3
  5
5C31
331
34E9
  5
5AEE
331
3528
  5
5A5E
331
3567
  5
5A9D
331
35A6
  5
5ADC
331
34F1
  5
5AF6
331
3530
  5
5A66
331
356F
  5
5AA5
331
34F9
  5
5AFE
331
3538
  5
5A6E
331
3540
  5
5A76
331
3577
  5
5AAD
331
3501
  5
5B06
331
357F
  5
5AB5
331
3140
  5
5E3A
331
327D
  5
5DD5
331
31EF
  5
5D8C
331
3246
  5
5DB7
331
3403
  5
5C41
331
31C0
  5
5D5D
331
31F7
  5
5D94
331
33CC
  5
5C0A
331
340B
  5
5C49
331
34E2
  5
5AE7
331
328D
  5
5DDD
331
33D4
  5
5C12
331
3509
  5
5B0E
331
3548
  5
5A7E
331
3587
  5
5ABD
331
3511
  5
5B16
331
3550
  5
5A86
331
358F
  5
5AC5
331
3519
  5
5B1E
331
3558
  5
5A8E
331
3597
  5
5ACD
331
3521
  5
5A57
331
359F
  5
5AD5
331
31C8
  5
5D65
331
325E
  5
5DC5
331
341B
  5
5C59
331
31D0
  5
5D6D
331
33E4
  5
5C22
331
31D8
  5
5D75
331
3266
  5
5DCD
331
3423
  5
5C61
331
33B5
  5
5BF3
331
3139
  5
5E33
331
31E0
  5
5D7D
331
3237
  5
5DA8
331
33F4
  5
5C32
331
323F
  5
5DB0
331
33BD
  5
5BFB
331
3529
  5
5A5F
331
3560
  5
5A96
331
34EA
  5
5AEF
331
3531
  5
5A67
331
3568
  5
5A9E
331
34F2
  5
5AF7
331
35A7
  5
5ADD
331
34FA
  5
5AFF
331
3539
  5
5A6F
331
3570
  5
5AA6
331
3578
  5
5AAE
331
3502
  5
5B07
331
3541
  5
5A77
331
31E8
  5
5D85
  0
LAYOUT
  5
21
102
{ACAD_XDICTIONARY
360
63BB
102
}
102
{ACAD_REACTORS
330
1E
102
}
330
1E
100
AcDbPlotSettings
  1

  2

  4

  6

 40
0.0
 41
0.0
 42
0.0
 43
0.0
 44
0.0
 45
0.0
 46
0.0
 47
0.0
 48
0.0
 49
0.0
140
0.0
141
0.0
142
1.0
143
1.0
 70
     0
 72
     0
 73
     0
 74
     0
  7

 75
     0
147
1.0
148
0.0
149
0.0
100
AcDbLayout
  1
Layout1
 70
     0
 71
     1
 10
0.0
 20
0.0
 11
12.0
 21
9.0
 12
0.0
 22
0.0
 32
0.0
 14
1.000000000000000E+20
 24
1.000000000000000E+20
 34
1.000000000000000E+20
 15
-1.000000000000000E+20
 25
-1.000000000000000E+20
 35
-1.000000000000000E+20
146
0.0
 13
0.0
 23
0.0
 33
0.0
 16
1.0
 26
0.0
 36
0.0
 17
0.0
 27
1.0
 37
0.0
 76
     0
330
B
  0
LAYOUT
  5
20
102
{ACAD_XDICTIONARY
360
63B9
102
}
102
{ACAD_REACTORS
330
1E
102
}
330
1E
100
AcDbPlotSettings
  1

  2

  4

  6

 40
0.0
 41
0.0
 42
0.0
 43
0.0
 44
0.0
 45
0.0
 46
0.0
 47
0.0
 48
0.0
 49
0.0
140
0.0
141
0.0
142
1.0
143
1.0
 70
  1024
 72
     0
 73
     0
 74
     0
  7

 75
     0
147
1.0
148
0.0
149
0.0
100
AcDbLayout
  1
Model
 70
     0
 71
     0
 10
0.0
 20
0.0
 11
0.0
 21
0.0
 12
0.0
 22
0.0
 32
0.0
 14
0.0
 24
0.0
 34
0.0
 15
0.0
 25
0.0
 35
0.0
146
0.0
 13
0.0
 23
0.0
 33
0.0
 16
0.0
 26
0.0
 36
0.0
 17
0.0
 27
0.0
 37
0.0
 76
     0
330
A
331
15
  0
MATERIAL
  5
3155
102
{ACAD_XDICTIONARY
360
3156
102
}
102
{ACAD_REACTORS
330
314C
102
}
330
314C
100
AcDbMaterial
  1
ByBlock
 72
     0
 43
0.0208333333333333
 43
0.0
 43
0.0
 43
0.0
 43
0.0
 43
0.0208333333333333
 43
0.0
 43
0.0
 43
0.0
 43
0.0
 43
1.0
 43
0.0
 43
0.0
 43
0.0
 43
0.0
 43
1.0
 77
     0
 47
0.0208333333333333
 47
0.0
 47
0.0
 47
0.0
 47
0.0
 47
0.0208333333333333
 47
0.0
 47
0.0
 47
0.0
 47
0.0
 47
1.0
 47
0.0
 47
0.0
 47
0.0
 47
0.0
 47
1.0
171
     0
 49
0.0208333333333333
 49
0.0
 49
0.0
 49
0.0
 49
0.0
 49
0.0208333333333333
 49
0.0
 49
0.0
 49
0.0
 49
0.0
 49
1.0
 49
0.0
 49
0.0
 49
0.0
 49
0.0
 49
1.0
175
     0
142
0.0208333333333333
142
0.0
142
0.0
142
0.0
142
0.0
142
0.0208333333333333
142
0.0
142
0.0
142
0.0
142
0.0
142
1.0
142
0.0
142
0.0
142
0.0
142
0.0
142
1.0
179
     0
144
0.0208333333333333
144
0.0
144
0.0
144
0.0
144
0.0
144
0.0208333333333333
144
0.0
144
0.0
144
0.0
144
0.0
144
1.0
144
0.0
144
0.0
144
0.0
144
0.0
144
1.0
147
0.0208333333333333
147
0.0
147
0.0
147
0.0
147
0.0
147
0.0208333333333333
147
0.0
147
0.0
147
0.0
147
0.0
147
1.0
147
0.0
147
0.0
147
0.0
147
0.0
147
1.0
  0
MATERIAL
  5
314D
102
{ACAD_XDICTIONARY
360
314E
102
}
102
{ACAD_REACTORS
330
314C
102
}
330
314C
100
AcDbMaterial
  1
ByLayer
 72
     0
 43
0.0208333333333333
 43
0.0
 43
0.0
 43
0.0
 43
0.0
 43
0.0208333333333333
 43
0.0
 43
0.0
 43
0.0
 43
0.0
 43
1.0
 43
0.0
 43
0.0
 43
0.0
 43
0.0
 43
1.0
 77
     0
 47
0.0208333333333333
 47
0.0
 47
0.0
 47
0.0
 47
0.0
 47
0.0208333333333333
 47
0.0
 47
0.0
 47
0.0
 47
0.0
 47
1.0
 47
0.0
 47
0.0
 47
0.0
 47
0.0
 47
1.0
171
     0
 49
0.0208333333333333
 49
0.0
 49
0.0
 49
0.0
 49
0.0
 49
0.0208333333333333
 49
0.0
 49
0.0
 49
0.0
 49
0.0
 49
1.0
 49
0.0
 49
0.0
 49
0.0
 49
0.0
 49
1.0
175
     0
142
0.0208333333333333
142
0.0
142
0.0
142
0.0
142
0.0
142
0.0208333333333333
142
0.0
142
0.0
142
0.0
142
0.0
142
1.0
142
0.0
142
0.0
142
0.0
142
0.0
142
1.0
179
     0
144
0.0208333333333333
144
0.0
144
0.0
144
0.0
144
0.0
144
0.0208333333333333
144
0.0
144
0.0
144
0.0
144
0.0
144
1.0
144
0.0
144
0.0
144
0.0
144
0.0
144
1.0
147
0.0208333333333333
147
0.0
147
0.0
147
0.0
147
0.0
147
0.0208333333333333
147
0.0
147
0.0
147
0.0
147
0.0
147
1.0
147
0.0
147
0.0
147
0.0
147
0.0
147
1.0
  0
MATERIAL
  5
315D
102
{ACAD_XDICTIONARY
360
315E
102
}
102
{ACAD_REACTORS
330
314C
102
}
330
314C
100
AcDbMaterial
  1
Global
 72
     0
 43
0.0208333333333333
 43
0.0
 43
0.0
 43
0.0
 43
0.0
 43
0.0208333333333333
 43
0.0
 43
0.0
 43
0.0
 43
0.0
 43
1.0
 43
0.0
 43
0.0
 43
0.0
 43
0.0
 43
1.0
 77
     0
 47
0.0208333333333333
 47
0.0
 47
0.0
 47
0.0
 47
0.0
 47
0.0208333333333333
 47
0.0
 47
0.0
 47
0.0
 47
0.0
 47
1.0
 47
0.0
 47
0.0
 47
0.0
 47
0.0
 47
1.0
171
     0
 49
0.0208333333333333
 49
0.0
 49
0.0
 49
0.0
 49
0.0
 49
0.0208333333333333
 49
0.0
 49
0.0
 49
0.0
 49
0.0
 49
1.0
 49
0.0
 49
0.0
 49
0.0
 49
0.0
 49
1.0
175
     0
142
0.0208333333333333
142
0.0
142
0.0
142
0.0
142
0.0
142
0.0208333333333333
142
0.0
142
0.0
142
0.0
142
0.0
142
1.0
142
0.0
142
0.0
142
0.0
142
0.0
142
1.0
179
     0
144
0.0208333333333333
144
0.0
144
0.0
144
0.0
144
0.0
144
0.0208333333333333
144
0.0
144
0.0
144
0.0
144
0.0
144
1.0
144
0.0
144
0.0
144
0.0
144
0.0
144
1.0
147
0.0208333333333333
147
0.0
147
0.0
147
0.0
147
0.0
147
0.0208333333333333
147
0.0
147
0.0
147
0.0
147
0.0
147
1.0
147
0.0
147
0.0
147
0.0
147
0.0
147
1.0
  0
MLEADERSTYLE
  5
319C
102
{ACAD_REACTORS
330
319B
102
}
330
319B
100
AcDbMLeaderStyle
170
     2
171
     1
172
     0
 90
        2
 40
0.0
 41
0.0
173
     1
 91
-1056964608
340
11
 92
       -2
290
     1
 42
2.0
291
     1
 43
0.36
  3
Standard
 44
4.0
300

342
17
174
     1
178
     6
175
     1
176
     0
 93
-1056964608
 45
4.0
292
     0
297
     0
 46
4.0
 94
-1056964608
 47
1.0
 49
1.0
140
1.0
293
     1
141
0.0
294
     1
177
     0
142
1.0
295
     0
296
     0
143
0.125
1001
ACAD_MLEADERVER
1070
     2
  0
MLINESTYLE
  5
1C
102
{ACAD_REACTORS
330
1B
102
}
330
1B
100
AcDbMlineStyle
  2
STANDARD
 70
     0
  3

 62
     0
 51
90.0
 52
90.0
 71
     2
 49
0.5
 62
   256
  6
BYLAYER
 49
-0.5
 62
   256
  6
BYLAYER
  0
ACDBPLACEHOLDER
  5
1D
102
{ACAD_REACTORS
330
1F
102
}
330
1F
  0
SCALE
  5
317A
102
{ACAD_REACTORS
330
3179
102
}
330
3179
100
AcDbScale
 70
     0
300
1:1
140
1.0
141
1.0
290
     1
  0
SCALE
  5
317B
102
{ACAD_REACTORS
330
3179
102
}
330
3179
100
AcDbScale
 70
     0
300
1:2
140
1.0
141
2.0
290
     0
  0
SCALE
  5
317C
102
{ACAD_REACTORS
330
3179
102
}
330
3179
100
AcDbScale
 70
     0
300
1:4
140
1.0
141
4.0
290
     0
  0
SCALE
  5
317D
102
{ACAD_REACTORS
330
3179
102
}
330
3179
100
AcDbScale
 70
     0
300
1:5
140
1.0
141
5.0
290
     0
  0
SCALE
  5
317E
102
{ACAD_REACTORS
330
3179
102
}
330
3179
100
AcDbScale
 70
     0
300
1:8
140
1.0
141
8.0
290
     0
  0
SCALE
  5
317F
102
{ACAD_REACTORS
330
3179
102
}
330
3179
100
AcDbScale
 70
     0
300
1:10
140
1.0
141
10.0
290
     0
  0
SCALE
  5
3180
102
{ACAD_REACTORS
330
3179
102
}
330
3179
100
AcDbScale
 70
     0
300
1:16
140
1.0
141
16.0
290
     0
  0
SCALE
  5
3181
102
{ACAD_REACTORS
330
3179
102
}
330
3179
100
AcDbScale
 70
     0
300
1:20
140
1.0
141
20.0
290
     0
  0
SCALE
  5
3182
102
{ACAD_REACTORS
330
3179
102
}
330
3179
100
AcDbScale
 70
     0
300
1:30
140
1.0
141
30.0
290
     0
  0
SCALE
  5
3183
102
{ACAD_REACTORS
330
3179
102
}
330
3179
100
AcDbScale
 70
     0
300
1:40
140
1.0
141
40.0
290
     0
  0
SCALE
  5
3184
102
{ACAD_REACTORS
330
3179
102
}
330
3179
100
AcDbScale
 70
     0
300
1:50
140
1.0
141
50.0
290
     0
  0
SCALE
  5
3185
102
{ACAD_REACTORS
330
3179
102
}
330
3179
100
AcDbScale
 70
     0
300
1:100
140
1.0
141
100.0
290
     0
  0
SCALE
  5
3186
102
{ACAD_REACTORS
330
3179
102
}
330
3179
100
AcDbScale
 70
     0
300
2:1
140
2.0
141
1.0
290
     0
  0
SCALE
  5
3187
102
{ACAD_REACTORS
330
3179
102
}
330
3179
100
AcDbScale
 70
     0
300
4:1
140
4.0
141
1.0
290
     0
  0
SCALE
  5
3188
102
{ACAD_REACTORS
330
3179
102
}
330
3179
100
AcDbScale
 70
     0
300
8:1
140
8.0
141
1.0
290
     0
  0
SCALE
  5
3189
102
{ACAD_REACTORS
330
3179
102
}
330
3179
100
AcDbScale
 70
     0
300
10:1
140
10.0
141
1.0
290
     0
  0
SCALE
  5
318A
102
{ACAD_REACTORS
330
3179
102
}
330
3179
100
AcDbScale
 70
     0
300
100:1
140
100.0
141
1.0
290
     0
  0
SCALE
  5
318B
102
{ACAD_REACTORS
330
3179
102
}
330
3179
100
AcDbScale
 70
     0
300
1/128" = 1'-0"
140
0.0078125
141
12.0
290
     0
  0
SCALE
  5
318C
102
{ACAD_REACTORS
330
3179
102
}
330
3179
100
AcDbScale
 70
     0
300
1/64" = 1'-0"
140
0.015625
141
12.0
290
     0
  0
SCALE
  5
318D
102
{ACAD_REACTORS
330
3179
102
}
330
3179
100
AcDbScale
 70
     0
300
1/32" = 1'-0"
140
0.03125
141
12.0
290
     0
  0
SCALE
  5
318E
102
{ACAD_REACTORS
330
3179
102
}
330
3179
100
AcDbScale
 70
     0
300
1/16" = 1'-0"
140
0.0625
141
12.0
290
     0
  0
SCALE
  5
318F
102
{ACAD_REACTORS
330
3179
102
}
330
3179
100
AcDbScale
 70
     0
300
3/32" = 1'-0"
140
0.09375
141
12.0
290
     0
  0
SCALE
  5
3190
102
{ACAD_REACTORS
330
3179
102
}
330
3179
100
AcDbScale
 70
     0
300
1/8" = 1'-0"
140
0.125
141
12.0
290
     0
  0
SCALE
  5
3191
102
{ACAD_REACTORS
330
3179
102
}
330
3179
100
AcDbScale
 70
     0
300
3/16" = 1'-0"
140
0.1875
141
12.0
290
     0
  0
SCALE
  5
3192
102
{ACAD_REACTORS
330
3179
102
}
330
3179
100
AcDbScale
 70
     0
300
1/4" = 1'-0"
140
0.25
141
12.0
290
     0
  0
SCALE
  5
3193
102
{ACAD_REACTORS
330
3179
102
}
330
3179
100
AcDbScale
 70
     0
300
3/8" = 1'-0"
140
0.375
141
12.0
290
     0
  0
SCALE
  5
3194
102
{ACAD_REACTORS
330
3179
102
}
330
3179
100
AcDbScale
 70
     0
300
1/2" = 1'-0"
140
0.5
141
12.0
290
     0
  0
SCALE
  5
3195
102
{ACAD_REACTORS
330
3179
102
}
330
3179
100
AcDbScale
 70
     0
300
3/4" = 1'-0"
140
0.75
141
12.0
290
     0
  0
SCALE
  5
3196
102
{ACAD_REACTORS
330
3179
102
}
330
3179
100
AcDbScale
 70
     0
300
1" = 1'-0"
140
1.0
141
12.0
290
     0
  0
SCALE
  5
3197
102
{ACAD_REACTORS
330
3179
102
}
330
3179
100
AcDbScale
 70
     0
300
1-1/2" = 1'-0"
140
1.5
141
12.0
290
     0
  0
SCALE
  5
3198
102
{ACAD_REACTORS
330
3179
102
}
330
3179
100
AcDbScale
 70
     0
300
3" = 1'-0"
140
3.0
141
12.0
290
     0
  0
SCALE
  5
3199
102
{ACAD_REACTORS
330
3179
102
}
330
3179
100
AcDbScale
 70
     0
300
6" = 1'-0"
140
6.0
141
12.0
290
     0
  0
SCALE
  5
319A
102
{ACAD_REACTORS
330
3179
102
}
330
3179
100
AcDbScale
 70
     0
300
1'-0" = 1'-0"
140
12.0
141
12.0
290
     0
  0
TABLESTYLE
  5
3178
102
{ACAD_XDICTIONARY
360
6308
102
}
102
{ACAD_REACTORS
330
3177
102
}
330
3177
100
AcDbTableStyle
  3
Standard
 70
     0
 71
     0
 40
1.5
 41
1.5
280
     0
281
     0
  7
Standard
140
4.5
170
     2
 62
     0
 63
     7
283
     0
274
    -2
284
     1
 64
     0
275
    -2
285
     1
 65
     0
276
    -2
286
     1
 66
     0
277
    -2
287
     1
 67
     0
278
    -2
288
     1
 68
     0
279
    -2
289
     1
 69
     0
  7
Standard
140
6.0
170
     5
 62
     0
 63
     7
283
     0
274
    -2
284
     1
 64
     0
275
    -2
285
     1
 65
     0
276
    -2
286
     1
 66
     0
277
    -2
287
     1
 67
     0
278
    -2
288
     1
 68
     0
279
    -2
289
     1
 69
     0
  7
Standard
140
4.5
170
     5
 62
     0
 63
     7
283
     0
274
    -2
284
     1
 64
     0
275
    -2
285
     1
 65
     0
276
    -2
286
     1
 66
     0
277
    -2
287
     1
 67
     0
278
    -2
288
     1
 68
     0
279
    -2
289
     1
 69
     0
  0
VISUALSTYLE
  5
316B
102
{ACAD_REACTORS
330
3165
102
}
330
3165
100
AcDbVisualStyle
  2
2dWireframe
 70
     4
 71
     0
 72
     2
 73
     0
 90
        0
 40
-0.6
 41
-30.0
 62
     5
 63
     7
 74
     1
 91
        4
 64
     7
 65
   257
 75
     1
175
     1
 42
1.0
 92
        0
 66
   257
 43
1.0
 76
     1
 77
     6
 78
     2
 67
     7
 79
     5
170
     0
171
     0
290
     0
174
     0
 93
        1
 44
0.0
173
     0
291
     0
 45
0.0
1001
ACAD
1000
AcDbSavedByObjectVersion
1070
     0
1000
AcDbSavedByObjectVersion
1070
     0
1000
AcDbSavedByObjectVersion
1070
     0
  0
VISUALSTYLE
  5
316D
102
{ACAD_REACTORS
330
3165
102
}
330
3165
100
AcDbVisualStyle
  2
3D Hidden
 70
     6
 71
     1
 72
     2
 73
     2
 90
        0
 40
-0.6
 41
-30.0
 62
     5
 63
     7
 74
     2
 91
        2
 64
     7
 65
   257
 75
     2
175
     1
 42
40.0
 92
        0
 66
   257
 43
1.0
 76
     1
 77
     6
 78
     2
 67
     7
 79
     3
170
     0
171
     0
290
     0
174
     0
 93
        1
 44
0.0
173
     0
291
     0
 45
0.0
1001
ACAD
1000
AcDbSavedByObjectVersion
1070
     0
1000
AcDbSavedByObjectVersion
1070
     0
1000
AcDbSavedByObjectVersion
1070
     0
  0
VISUALSTYLE
  5
316C
102
{ACAD_REACTORS
330
3165
102
}
330
3165
100
AcDbVisualStyle
  2
3dWireframe
 70
     5
 71
     0
 72
     2
 73
     0
 90
        0
 40
-0.6
 41
-30.0
 62
     5
 63
     7
 74
     1
 91
        4
 64
     7
 65
   257
 75
     1
175
     1
 42
1.0
 92
        0
 66
   257
 43
1.0
 76
     1
 77
     6
 78
     2
 67
     7
 79
     5
170
     0
171
     0
290
     0
174
     0
 93
        1
 44
0.0
173
     0
291
     0
 45
0.0
1001
ACAD
1000
AcDbSavedByObjectVersion
1070
     0
1000
AcDbSavedByObjectVersion
1070
     0
1000
AcDbSavedByObjectVersion
1070
     0
  0
VISUALSTYLE
  5
316A
102
{ACAD_REACTORS
330
3165
102
}
330
3165
100
AcDbVisualStyle
  2
Basic
 70
     7
 71
     1
 72
     0
 73
     1
 90
        0
 40
-0.6
 41
-30.0
 62
     5
 63
     7
 74
     0
 91
        4
 64
     7
 65
   257
 75
     1
175
     1
 42
1.0
 92
        8
 66
     7
 43
1.0
 76
     1
 77
     6
 78
     2
 67
     7
 79
     5
170
     0
171
     0
290
     0
174
     0
 93
        1
 44
0.0
173
     0
291
     1
 45
0.0
1001
ACAD
1000
AcDbSavedByObjectVersion
1070
     0
1000
AcDbSavedByObjectVersion
1070
     0
1000
AcDbSavedByObjectVersion
1070
     0
  0
VISUALSTYLE
  5
3171
102
{ACAD_REACTORS
330
3165
102
}
330
3165
100
AcDbVisualStyle
  2
Brighten
 70
    12
 71
     2
 72
     2
 73
     0
 90
        0
 40
-0.6
 41
-30.0
 62
     5
 63
     7
 74
     1
 91
        4
 64
     7
 65
   257
 75
     1
175
     1
 42
1.0
 92
        8
 66
     7
 43
1.0
 76
     1
 77
     6
 78
     2
 67
     7
 79
     5
170
     0
171
     0
290
     0
174
     0
 93
        1
 44
50.0
173
     0
291
     1
 45
0.0
1001
ACAD
1000
AcDbSavedByObjectVersion
1070
     0
1000
AcDbSavedByObjectVersion
1070
     0
1000
AcDbSavedByObjectVersion
1070
     0
  0
VISUALSTYLE
  5
3175
102
{ACAD_REACTORS
330
3165
102
}
330
3165
100
AcDbVisualStyle
  2
ColorChange
 70
    16
 71
     2
 72
     2
 73
     3
 90
        0
 40
-0.6
 41
-30.0
 62
     5
 63
     8
 74
     1
 91
        4
 64
     7
 65
   257
 75
     1
175
     1
 42
1.0
 92
        8
 66
     8
 43
1.0
 76
     1
 77
     6
 78
     2
 67
     7
 79
     5
170
     0
171
     0
290
     0
174
     0
 93
        1
 44
0.0
173
     0
291
     1
 45
0.0
1001
ACAD
1000
AcDbSavedByObjectVersion
1070
     0
1000
AcDbSavedByObjectVersion
1070
     0
1000
AcDbSavedByObjectVersion
1070
     0
  0
VISUALSTYLE
  5
316E
102
{ACAD_REACTORS
330
3165
102
}
330
3165
100
AcDbVisualStyle
  2
Conceptual
 70
     9
 71
     3
 72
     2
 73
     0
 90
        0
 40
-0.6
 41
-30.0
 62
     5
 63
     7
 74
     2
 91
        2
 64
     7
 65
   257
 75
     1
175
     1
 42
40.0
 92
        8
 66
     7
 43
1.0
 76
     1
 77
     6
 78
     2
 67
     7
 79
     3
170
     0
171
     0
290
     0
174
     0
 93
        1
 44
0.0
173
     0
291
     0
 45
0.0
1001
ACAD
1000
AcDbSavedByObjectVersion
1070
     0
1000
AcDbSavedByObjectVersion
1070
     0
1000
AcDbSavedByObjectVersion
1070
     0
  0
VISUALSTYLE
  5
3170
102
{ACAD_REACTORS
330
3165
102
}
330
3165
100
AcDbVisualStyle
  2
Dim
 70
    11
 71
     2
 72
     2
 73
     0
 90
        0
 40
-0.6
 41
-30.0
 62
     5
 63
     7
 74
     1
 91
        4
 64
     7
 65
   257
 75
     1
175
     1
 42
1.0
 92
        8
 66
     7
 43
1.0
 76
     1
 77
     6
 78
     2
 67
     7
 79
     5
170
     0
171
     0
290
     0
174
     0
 93
        1
 44
-50.0
173
     0
291
     1
 45
0.0
1001
ACAD
1000
AcDbSavedByObjectVersion
1070
     0
1000
AcDbSavedByObjectVersion
1070
     0
1000
AcDbSavedByObjectVersion
1070
     0
  0
VISUALSTYLE
  5
3174
102
{ACAD_REACTORS
330
3165
102
}
330
3165
100
AcDbVisualStyle
  2
Facepattern
 70
    15
 71
     2
 72
     2
 73
     0
 90
        0
 40
-0.6
 41
-30.0
 62
     5
 63
     7
 74
     1
 91
        4
 64
     7
 65
   257
 75
     1
175
     1
 42
1.0
 92
        8
 66
     7
 43
1.0
 76
     1
 77
     6
 78
     2
 67
     7
 79
     5
170
     0
171
     0
290
     0
174
     0
 93
        1
 44
0.0
173
     0
291
     1
 45
0.0
1001
ACAD
1000
AcDbSavedByObjectVersion
1070
     0
1000
AcDbSavedByObjectVersion
1070
     0
1000
AcDbSavedByObjectVersion
1070
     0
  0
VISUALSTYLE
  5
3166
102
{ACAD_REACTORS
330
3165
102
}
330
3165
100
AcDbVisualStyle
  2
Flat
 70
     0
 71
     2
 72
     1
 73
     1
 90
        2
 40
-0.6
 41
30.0
 62
     5
 63
     7
 74
     0
 91
        4
 64
     7
 65
   257
 75
     1
175
     1
 42
1.0
 92
        8
 66
     7
 43
1.0
 76
     1
 77
     6
 78
     2
 67
     7
 79
     5
170
     0
171
     0
290
     0
174
     0
 93
       13
 44
0.0
173
     0
291
     1
 45
0.0
1001
ACAD
1000
AcDbSavedByObjectVersion
1070
     0
1000
AcDbSavedByObjectVersion
1070
     0
1000
AcDbSavedByObjectVersion
1070
     0
  0
VISUALSTYLE
  5
3167
102
{ACAD_REACTORS
330
3165
102
}
330
3165
100
AcDbVisualStyle
  2
FlatWithEdges
 70
     1
 71
     2
 72
     1
 73
     1
 90
        2
 40
-0.6
 41
30.0
 62
     5
 63
     7
 74
     1
 91
        4
 64
     7
 65
   257
 75
     1
175
     1
 42
1.0
 92
        0
 66
   257
 43
1.0
 76
     1
 77
     6
 78
     2
 67
     7
 79
     5
170
     0
171
     0
290
     0
174
     0
 93
       13
 44
0.0
173
     0
291
     1
 45
0.0
1001
ACAD
1000
AcDbSavedByObjectVersion
1070
     0
1000
AcDbSavedByObjectVersion
1070
     0
1000
AcDbSavedByObjectVersion
1070
     0
  0
VISUALSTYLE
  5
3168
102
{ACAD_REACTORS
330
3165
102
}
330
3165
100
AcDbVisualStyle
  2
Gouraud
 70
     2
 71
     2
 72
     2
 73
     1
 90
        2
 40
-0.6
 41
30.0
 62
     5
 63
     7
 74
     0
 91
        4
 64
     7
 65
   257
 75
     1
175
     1
 42
1.0
 92
        0
 66
     7
 43
1.0
 76
     1
 77
     6
 78
     2
 67
     7
 79
     5
170
     0
171
     0
290
     0
174
     0
 93
       13
 44
0.0
173
     0
291
     1
 45
0.0
1001
ACAD
1000
AcDbSavedByObjectVersion
1070
     0
1000
AcDbSavedByObjectVersion
1070
     0
1000
AcDbSavedByObjectVersion
1070
     0
  0
VISUALSTYLE
  5
3169
102
{ACAD_REACTORS
330
3165
102
}
330
3165
100
AcDbVisualStyle
  2
GouraudWithEdges
 70
     3
 71
     2
 72
     2
 73
     1
 90
        2
 40
-0.6
 41
30.0
 62
     5
 63
     7
 74
     1
 91
        4
 64
     7
 65
   257
 75
     1
175
     1
 42
1.0
 92
        0
 66
   257
 43
1.0
 76
     1
 77
     6
 78
     2
 67
     7
 79
     5
170
     0
171
     0
290
     0
174
     0
 93
       13
 44
0.0
173
     0
291
     1
 45
0.0
1001
ACAD
1000
AcDbSavedByObjectVersion
1070
     0
1000
AcDbSavedByObjectVersion
1070
     0
1000
AcDbSavedByObjectVersion
1070
     0
  0
VISUALSTYLE
  5
3173
102
{ACAD_REACTORS
330
3165
102
}
330
3165
100
AcDbVisualStyle
  2
Linepattern
 70
    14
 71
     2
 72
     2
 73
     0
 90
        0
 40
-0.6
 41
-30.0
 62
     5
 63
     7
 74
     1
 91
        4
 64
     7
 65
   257
 75
     7
175
     7
 42
1.0
 92
        8
 66
     7
 43
1.0
 76
     1
 77
     6
 78
     2
 67
     7
 79
     5
170
     0
171
     0
290
     0
174
     0
 93
        1
 44
0.0
173
     0
291
     1
 45
0.0
1001
ACAD
1000
AcDbSavedByObjectVersion
1070
     0
1000
AcDbSavedByObjectVersion
1070
     0
1000
AcDbSavedByObjectVersion
1070
     0
  0
VISUALSTYLE
  5
316F
102
{ACAD_REACTORS
330
3165
102
}
330
3165
100
AcDbVisualStyle
  2
Realistic
 70
     8
 71
     2
 72
     2
 73
     0
 90
        0
 40
-0.6
 41
-30.0
 62
     5
 63
     7
 74
     1
 91
        0
 64
     7
 65
   257
 75
     1
175
     1
 42
1.0
 92
        8
 66
     8
 43
1.0
 76
     1
 77
     6
 78
     2
 67
     7
 79
     5
170
     0
171
     0
290
     0
174
     0
 93
       13
 44
0.0
173
     0
291
     0
 45
0.0
1001
ACAD
1000
AcDbSavedByObjectVersion
1070
     0
1000
AcDbSavedByObjectVersion
1070
     0
1000
AcDbSavedByObjectVersion
1070
     0
  0
VISUALSTYLE
  5
3172
102
{ACAD_REACTORS
330
3165
102
}
330
3165
100
AcDbVisualStyle
  2
Thicken
 70
    13
 71
     2
 72
     2
 73
     0
 90
        0
 40
-0.6
 41
-30.0
 62
     5
 63
     7
 74
     1
 91
        4
 64
     7
 65
   257
 75
     1
175
     1
 42
1.0
 92
       12
 66
     7
 43
1.0
 76
     1
 77
     6
 78
     2
 67
     7
 79
     5
170
     0
171
     0
290
     0
174
     0
 93
        1
 44
0.0
173
     0
291
     1
 45
0.0
1001
ACAD
1000
AcDbSavedByObjectVersion
1070
     0
1000
AcDbSavedByObjectVersion
1070
     0
1000
AcDbSavedByObjectVersion
1070
     0
  0
DICTIONARYVAR
  5
630F
102
{ACAD_REACTORS
330
630B
102
}
330
630B
100
DictionaryVariables
280
     0
  1
1:1
  0
DICTIONARYVAR
  5
630D
102
{ACAD_REACTORS
330
630B
102
}
330
630B
100
DictionaryVariables
280
     0
  1
STANDARD
  0
DICTIONARYVAR
  5
630C
102
{ACAD_REACTORS
330
630B
102
}
330
630B
100
DictionaryVariables
280
     0
  1
STANDARD
  0
DICTIONARYVAR
  5
6318
102
{ACAD_REACTORS
330
630B
102
}
330
630B
100
DictionaryVariables
280
     0
  1
1
  0
DICTIONARYVAR
  5
6317
102
{ACAD_REACTORS
330
630B
102
}
330
630B
100
DictionaryVariables
280
     0
  1
0
  0
DICTIONARYVAR
  5
6310
102
{ACAD_REACTORS
330
630B
102
}
330
630B
100
DictionaryVariables
280
     0
  1
0
  0
DICTIONARYVAR
  5
630E
102
{ACAD_REACTORS
330
630B
102
}
330
630B
100
DictionaryVariables
280
     0
  1
0
  0
DICTIONARYVAR
  5
6316
102
{ACAD_REACTORS
330
630B
102
}
330
630B
100
DictionaryVariables
280
     0
  1
127
  0
XRECORD
  5
5E46
102
{ACAD_REACTORS
330
5E44
102
}
330
5E44
100
AcDbXrecord
280
     1
  0
DICTIONARY
  5
63BB
330
21
100
AcDbDictionary
280
     1
281
     1
  3
ACAD_XREC_ROUNDTRIP
360
63BC
  0
DICTIONARY
  5
63B9
330
20
100
AcDbDictionary
280
     1
281
     1
  3
ACAD_XREC_ROUNDTRIP
360
63BA
  0
DICTIONARY
  5
3156
330
3155
100
AcDbDictionary
280
     1
281
     1
  3
ACAD_XREC_ROUNDTRIP
360
6320
  3
BUMPTILE
360
3158
  3
DIFFUSETILE
360
3157
  3
OPACITYTILE
360
315B
  3
REFLECTIONTILE
360
315A
  3
REFRACTIONTILE
360
315C
  3
SPECULARTILE
360
3159
  0
DICTIONARY
  5
314E
330
314D
100
AcDbDictionary
280
     1
281
     1
  3
ACAD_XREC_ROUNDTRIP
360
631F
  3
BUMPTILE
360
3150
  3
DIFFUSETILE
360
314F
  3
OPACITYTILE
360
3153
  3
REFLECTIONTILE
360
3152
  3
REFRACTIONTILE
360
3154
  3
SPECULARTILE
360
3151
  0
DICTIONARY
  5
315E
330
315D
100
AcDbDictionary
280
     1
281
     1
  3
ACAD_XREC_ROUNDTRIP
360
6321
  3
BUMPTILE
360
3160
  3
DIFFUSETILE
360
315F
  3
OPACITYTILE
360
3163
  3
REFLECTIONTILE
360
3162
  3
REFRACTIONTILE
360
3164
  3
SPECULARTILE
360
3161
  0
DICTIONARY
  5
6308
330
3178
100
AcDbDictionary
280
     1
281
     1
  3
ACAD_ROUNDTRIP_2008_TABLESTYLE_CELLSTYLEMAP
360
63B7
  3
ACAD_XREC_ROUNDTRIP
360
63BD
  0
XRECORD
  5
63BC
102
{ACAD_REACTORS
330
63BB
102
}
330
63BB
100
AcDbXrecord
280
     1
102
SHADEPLOT
 70
     0
102
SHADEPLOTRESLEVEL
 70
     2
102
SHADEPLOTCUSTOMDPI
 70
   300
  0
XRECORD
  5
63BA
102
{ACAD_REACTORS
330
63B9
102
}
330
63B9
100
AcDbXrecord
280
     1
102
SHADEPLOT
 70
     0
102
SHADEPLOTRESLEVEL
 70
     2
102
SHADEPLOTCUSTOMDPI
 70
   300
  0
XRECORD
  5
6320
102
{ACAD_REACTORS
330
3156
102
}
330
3156
100
AcDbXrecord
280
     1
102
MATERIAL
148
0.0
149
0.0
149
0.0
 93
        0
 94
      127
282
     0
 72
     0
 77
     0
171
     0
175
     0
179
     0
273
     0
  0
XRECORD
  5
3158
102
{ACAD_REACTORS
330
3156
102
}
330
3156
100
AcDbXrecord
280
     1
270
     1
271
     1
  0
XRECORD
  5
3157
102
{ACAD_REACTORS
330
3156
102
}
330
3156
100
AcDbXrecord
280
     1
270
     1
271
     1
  0
XRECORD
  5
315B
102
{ACAD_REACTORS
330
3156
102
}
330
3156
100
AcDbXrecord
280
     1
270
     1
271
     1
  0
XRECORD
  5
315A
102
{ACAD_REACTORS
330
3156
102
}
330
3156
100
AcDbXrecord
280
     1
270
     1
271
     1
  0
XRECORD
  5
315C
102
{ACAD_REACTORS
330
3156
102
}
330
3156
100
AcDbXrecord
280
     1
270
     1
271
     1
  0
XRECORD
  5
3159
102
{ACAD_REACTORS
330
3156
102
}
330
3156
100
AcDbXrecord
280
     1
270
     1
271
     1
  0
XRECORD
  5
631F
102
{ACAD_REACTORS
330
314E
102
}
330
314E
100
AcDbXrecord
280
     1
102
MATERIAL
148
0.0
149
0.0
149
0.0
 93
        0
 94
      127
282
     0
 72
     0
 77
     0
171
     0
175
     0
179
     0
273
     0
  0
XRECORD
  5
3150
102
{ACAD_REACTORS
330
314E
102
}
330
314E
100
AcDbXrecord
280
     1
270
     1
271
     1
  0
XRECORD
  5
314F
102
{ACAD_REACTORS
330
314E
102
}
330
314E
100
AcDbXrecord
280
     1
270
     1
271
     1
  0
XRECORD
  5
3153
102
{ACAD_REACTORS
330
314E
102
}
330
314E
100
AcDbXrecord
280
     1
270
     1
271
     1
  0
XRECORD
  5
3152
102
{ACAD_REACTORS
330
314E
102
}
330
314E
100
AcDbXrecord
280
     1
270
     1
271
     1
  0
XRECORD
  5
3154
102
{ACAD_REACTORS
330
314E
102
}
330
314E
100
AcDbXrecord
280
     1
270
     1
271
     1
  0
XRECORD
  5
3151
102
{ACAD_REACTORS
330
314E
102
}
330
314E
100
AcDbXrecord
280
     1
270
     1
271
     1
  0
XRECORD
  5
6321
102
{ACAD_REACTORS
330
315E
102
}
330
315E
100
AcDbXrecord
280
     1
102
MATERIAL
148
0.0
149
0.0
149
0.0
 93
        0
 94
      127
282
     0
 72
     0
 77
     0
171
     0
175
     0
179
     0
273
     0
  0
XRECORD
  5
3160
102
{ACAD_REACTORS
330
315E
102
}
330
315E
100
AcDbXrecord
280
     1
270
     1
271
     1
  0
XRECORD
  5
315F
102
{ACAD_REACTORS
330
315E
102
}
330
315E
100
AcDbXrecord
280
     1
270
     1
271
     1
  0
XRECORD
  5
3163
102
{ACAD_REACTORS
330
315E
102
}
330
315E
100
AcDbXrecord
280
     1
270
     1
271
     1
  0
XRECORD
  5
3162
102
{ACAD_REACTORS
330
315E
102
}
330
315E
100
AcDbXrecord
280
     1
270
     1
271
     1
  0
XRECORD
  5
3164
102
{ACAD_REACTORS
330
315E
102
}
330
315E
100
AcDbXrecord
280
     1
270
     1
271
     1
  0
XRECORD
  5
3161
102
{ACAD_REACTORS
330
315E
102
}
330
315E
100
AcDbXrecord
280
     1
270
     1
271
     1
  0
CELLSTYLEMAP
  5
63B7
102
{ACAD_REACTORS
330
6308
102
}
330
6308
100
AcDbCellStyleMap
 90
        3
300
CELLSTYLE
  1
TABLEFORMAT_BEGIN
 90
        5
170
     1
 91
        0
 92
    32768
 62
   257
 93
        1
300
CONTENTFORMAT
  1
CONTENTFORMAT_BEGIN
 90
        0
 91
        0
 92
      512
 93
        0
300

 40
0.0
140
1.0
 94
        5
 62
     0
340
17
144
6.0
309
CONTENTFORMAT_END
171
     1
301
MARGIN
  1
CELLMARGIN_BEGIN
 40
1.5
 40
1.5
 40
1.5
 40
1.5
 40
0.18
 40
0.18
309
CELLMARGIN_END
 94
        6
 95
        1
302
GRIDFORMAT
  1
GRIDFORMAT_BEGIN
 90
        0
 91
        1
 62
     0
 92
       -2
340
0
 93
        0
 40
1.125
309
GRIDFORMAT_END
 95
        2
302
GRIDFORMAT
  1
GRIDFORMAT_BEGIN
 90
        0
 91
        1
 62
     0
 92
       -2
340
0
 93
        0
 40
1.125
309
GRIDFORMAT_END
 95
        4
302
GRIDFORMAT
  1
GRIDFORMAT_BEGIN
 90
        0
 91
        1
 62
     0
 92
       -2
340
0
 93
        0
 40
1.125
309
GRIDFORMAT_END
 95
        8
302
GRIDFORMAT
  1
GRIDFORMAT_BEGIN
 90
        0
 91
        1
 62
     0
 92
       -2
340
0
 93
        0
 40
1.125
309
GRIDFORMAT_END
 95
       16
302
GRIDFORMAT
  1
GRIDFORMAT_BEGIN
 90
        0
 91
        1
 62
     0
 92
       -2
340
0
 93
        0
 40
1.125
309
GRIDFORMAT_END
 95
       32
302
GRIDFORMAT
  1
GRIDFORMAT_BEGIN
 90
        0
 91
        1
 62
     0
 92
       -2
340
0
 93
        0
 40
1.125
309
GRIDFORMAT_END
309
TABLEFORMAT_END
  1
CELLSTYLE_BEGIN
 90
        1
 91
        1
300
_TITLE
309
CELLSTYLE_END
300
CELLSTYLE
  1
TABLEFORMAT_BEGIN
 90
        5
170
     1
 91
        0
 92
        0
 62
   257
 93
        1
300
CONTENTFORMAT
  1
CONTENTFORMAT_BEGIN
 90
        0
 91
        0
 92
      512
 93
        0
300

 40
0.0
140
1.0
 94
        5
 62
     0
340
17
144
4.5
309
CONTENTFORMAT_END
171
     1
301
MARGIN
  1
CELLMARGIN_BEGIN
 40
1.5
 40
1.5
 40
1.5
 40
1.5
 40
0.18
 40
0.18
309
CELLMARGIN_END
 94
        6
 95
        1
302
GRIDFORMAT
  1
GRIDFORMAT_BEGIN
 90
        0
 91
        1
 62
     0
 92
       -2
340
0
 93
        0
 40
1.125
309
GRIDFORMAT_END
 95
        2
302
GRIDFORMAT
  1
GRIDFORMAT_BEGIN
 90
        0
 91
        1
 62
     0
 92
       -2
340
0
 93
        0
 40
1.125
309
GRIDFORMAT_END
 95
        4
302
GRIDFORMAT
  1
GRIDFORMAT_BEGIN
 90
        0
 91
        1
 62
     0
 92
       -2
340
0
 93
        0
 40
1.125
309
GRIDFORMAT_END
 95
        8
302
GRIDFORMAT
  1
GRIDFORMAT_BEGIN
 90
        0
 91
        1
 62
     0
 92
       -2
340
0
 93
        0
 40
1.125
309
GRIDFORMAT_END
 95
       16
302
GRIDFORMAT
  1
GRIDFORMAT_BEGIN
 90
        0
 91
        1
 62
     0
 92
       -2
340
0
 93
        0
 40
1.125
309
GRIDFORMAT_END
 95
       32
302
GRIDFORMAT
  1
GRIDFORMAT_BEGIN
 90
        0
 91
        1
 62
     0
 92
       -2
340
0
 93
        0
 40
1.125
309
GRIDFORMAT_END
309
TABLEFORMAT_END
  1
CELLSTYLE_BEGIN
 90
        2
 91
        1
300
_HEADER
309
CELLSTYLE_END
300
CELLSTYLE
  1
TABLEFORMAT_BEGIN
 90
        5
170
     1
 91
        0
 92
        0
 62
   257
 93
        1
300
CONTENTFORMAT
  1
CONTENTFORMAT_BEGIN
 90
        0
 91
        0
 92
      512
 93
        0
300

 40
0.0
140
1.0
 94
        2
 62
     0
340
17
144
4.5
309
CONTENTFORMAT_END
171
     1
301
MARGIN
  1
CELLMARGIN_BEGIN
 40
1.5
 40
1.5
 40
1.5
 40
1.5
 40
0.18
 40
0.18
309
CELLMARGIN_END
 94
        6
 95
        1
302
GRIDFORMAT
  1
GRIDFORMAT_BEGIN
 90
        0
 91
        1
 62
     0
 92
       -2
340
0
 93
        0
 40
1.125
309
GRIDFORMAT_END
 95
        2
302
GRIDFORMAT
  1
GRIDFORMAT_BEGIN
 90
        0
 91
        1
 62
     0
 92
       -2
340
0
 93
        0
 40
1.125
309
GRIDFORMAT_END
 95
        4
302
GRIDFORMAT
  1
GRIDFORMAT_BEGIN
 90
        0
 91
        1
 62
     0
 92
       -2
340
0
 93
        0
 40
1.125
309
GRIDFORMAT_END
 95
        8
302
GRIDFORMAT
  1
GRIDFORMAT_BEGIN
 90
        0
 91
        1
 62
     0
 92
       -2
340
0
 93
        0
 40
1.125
309
GRIDFORMAT_END
 95
       16
302
GRIDFORMAT
  1
GRIDFORMAT_BEGIN
 90
        0
 91
        1
 62
     0
 92
       -2
340
0
 93
        0
 40
1.125
309
GRIDFORMAT_END
 95
       32
302
GRIDFORMAT
  1
GRIDFORMAT_BEGIN
 90
        0
 91
        1
 62
     0
 92
       -2
340
0
 93
        0
 40
1.125
309
GRIDFORMAT_END
309
TABLEFORMAT_END
  1
CELLSTYLE_BEGIN
 90
        3
 91
        2
300
_DATA
309
CELLSTYLE_END
  0
XRECORD
  5
63BD
102
{ACAD_REACTORS
330
6308
102
}
330
6308
100
AcDbXrecord
280
     1
102
ACAD_ROUNDTRIP_PRE2007_TABLESTYLE
 90
      512
 91
        0
  1

 92
      512
 93
        0
  2

 94
      512
 95
        0
  3

  0
ENDSEC
  0
EOF
