  0
SECTION
  2
HEADER
  9
$ACADVER
  1
AC1015
  9
$ACADMAINTVER
 70
     6
  9
$DWGCODEPAGE
  3
ANSI_1252
  9
$INSBASE
 10
0.0
 20
0.0
 30
0.0
  9
$EXTMIN
 10
0.0
 20
0.0
 30
0.0
  9
$EXTMAX
 10
420.0
 20
297.0
 30
0.0
  9
$LIMMIN
 10
0.0
 20
0.0
  9
$LIMMAX
 10
420.0
 20
297.0
  9
$ORTHOMODE
 70
     0
  9
$REGENMODE
 70
     1
  9
$FILLMODE
 70
     1
  9
$QTEXTMODE
 70
     0
  9
$MIRRTEXT
 70
     1
  9
$LTSCALE
 40
1.0
  9
$ATTMODE
 70
     1
  9
$TEXTSIZE
 40
2.8
  9
$TRACEWID
 40
1.0
  9
$TEXTSTYLE
  7
Standard
  9
$CLAYER
  8
0
  9
$CELTYPE
  6
ByLayer
  9
$CECOLOR
 62
   256
  9
$CELTSCALE
 40
1.0
  9
$DISPSILH
 70
     0
  9
$DIMSCALE
 40
1.0
  9
$DIMASZ
 40
3.2
  9
$DIMEXO
 40
0.1
  9
$DIMDLI
 40
3.75
  9
$DIMRND
 40
0.0
  9
$DIMDLE
 40
0.0
  9
$DIMEXE
 40
1.0
  9
$DIMTP
 40
0.0
  9
$DIMTM
 40
0.0
  9
$DIMTXT
 40
3.2
  9
$DIMCEN
 40
2.5
  9
$DIMTSZ
 40
0.0
  9
$DIMTOL
 70
     0
  9
$DIMLIM
 70
     0
  9
$DIMTIH
 70
     1
  9
$DIMTOH
 70
     1
  9
$DIMSE1
 70
     0
  9
$DIMSE2
 70
     0
  9
$DIMTAD
 70
     1
  9
$DIMZIN
 70
     0
  9
$DIMBLK
  1

  9
$DIMASO
 70
     1
  9
$DIMSHO
 70
     1
  9
$DIMPOST
  1

  9
$DIMAPOST
  1

  9
$DIMALT
 70
     0
  9
$DIMALTD
 70
     3
  9
$DIMALTF
 40
0.0393700787
  9
$DIMLFAC
 40
1.0
  9
$DIMTOFL
 70
     1
  9
$DIMTVP
 40
0.0
  9
$DIMTIX
 70
     0
  9
$DIMSOXD
 70
     0
  9
$DIMSAH
 70
     0
  9
$DIMBLK1
  1

  9
$DIMBLK2
  1

  9
$DIMSTYLE
  2
ISO-25
  9
$DIMCLRD
 70
     0
  9
$DIMCLRE
 70
     0
  9
$DIMCLRT
 70
     0
  9
$DIMTFAC
 40
1.0
  9
$DIMGAP
 40
2.0
  9
$DIMJUST
 70
     0
  9
$DIMSD1
 70
     0
  9
$DIMSD2
 70
     0
  9
$DIMTOLJ
 70
     0
  9
$DIMTZIN
 70
     0
  9
$DIMALTZ
 70
     0
  9
$DIMALTTZ
 70
     0
  9
$DIMUPT
 70
     0
  9
$DIMDEC
 70
     2
  9
$DIMTDEC
 70
     2
  9
$DIMALTU
 70
     2
  9
$DIMALTTD
 70
     3
  9
$DIMTXSTY
  7
Standard
  9
$DIMAUNIT
 70
     0
  9
$DIMADEC
 70
     2
  9
$DIMALTRND
 40
0.0
  9
$DIMAZIN
 70
     0
  9
$DIMDSEP
 70
    44
  9
$DIMATFIT
 70
     3
  9
$DIMFRAC
 70
     0
  9
$DIMLDRBLK
  1

  9
$DIMLUNIT
 70
     2
  9
$DIMLWD
 70
    -2
  9
$DIMLWE
 70
    -2
  9
$DIMTMOVE
 70
     0
  9
$LUNITS
 70
     2
  9
$LUPREC
 70
     2
  9
$SKETCHINC
 40
1.0
  9
$FILLETRAD
 40
10.0
  9
$AUNITS
 70
     0
  9
$AUPREC
 70
     2
  9
$MENU
  1
.
  9
$ELEVATION
 40
0.0
  9
$PELEVATION
 40
0.0
  9
$THICKNESS
 40
0.0
  9
$LIMCHECK
 70
     0
  9
$CHAMFERA
 40
0.0
  9
$CHAMFERB
 40
0.0
  9
$CHAMFERC
 40
0.0
  9
$CHAMFERD
 40
0.0
  9
$SKPOLY
 70
     0
  9
$TDCREATE
 40
2458516.473120822
  9
$TDUCREATE
 40
2458516.431454155
  9
$TDUPDATE
 40
2458516.473121493
  9
$TDUUPDATE
 40
2458516.431454827
  9
$TDINDWG
 40
0.0000000116
  9
$TDUSRTIMER
 40
0.0000000116
  9
$USRTIMER
 70
     1
  9
$ANGBASE
 50
0.0
  9
$ANGDIR
 70
     0
  9
$PDMODE
 70
     0
  9
$PDSIZE
 40
-1.0
  9
$PLINEWID
 40
0.0
  9
$SPLFRAME
 70
     0
  9
$SPLINETYPE
 70
     6
  9
$SPLINESEGS
 70
     8
  9
$HANDSEED
  5
258
  9
$SURFTAB1
 70
     6
  9
$SURFTAB2
 70
     6
  9
$SURFTYPE
 70
     6
  9
$SURFU
 70
     6
  9
$SURFV
 70
     6
  9
$UCSBASE
  2

  9
$UCSNAME
  2

  9
$UCSORG
 10
0.0
 20
0.0
 30
0.0
  9
$UCSXDIR
 10
1.0
 20
0.0
 30
0.0
  9
$UCSYDIR
 10
0.0
 20
1.0
 30
0.0
  9
$UCSORTHOREF
  2

  9
$UCSORTHOVIEW
 70
     0
  9
$UCSORGTOP
 10
0.0
 20
0.0
 30
0.0
  9
$UCSORGBOTTOM
 10
0.0
 20
0.0
 30
0.0
  9
$UCSORGLEFT
 10
0.0
 20
0.0
 30
0.0
  9
$UCSORGRIGHT
 10
0.0
 20
0.0
 30
0.0
  9
$UCSORGFRONT
 10
0.0
 20
0.0
 30
0.0
  9
$UCSORGBACK
 10
0.0
 20
0.0
 30
0.0
  9
$PUCSBASE
  2

  9
$PUCSNAME
  2

  9
$PUCSORG
 10
0.0
 20
0.0
 30
0.0
  9
$PUCSXDIR
 10
1.0
 20
0.0
 30
0.0
  9
$PUCSYDIR
 10
0.0
 20
1.0
 30
0.0
  9
$PUCSORTHOREF
  2

  9
$PUCSORTHOVIEW
 70
     0
  9
$PUCSORGTOP
 10
0.0
 20
0.0
 30
0.0
  9
$PUCSORGBOTTOM
 10
0.0
 20
0.0
 30
0.0
  9
$PUCSORGLEFT
 10
0.0
 20
0.0
 30
0.0
  9
$PUCSORGRIGHT
 10
0.0
 20
0.0
 30
0.0
  9
$PUCSORGFRONT
 10
0.0
 20
0.0
 30
0.0
  9
$PUCSORGBACK
 10
0.0
 20
0.0
 30
0.0
  9
$USERI1
 70
     0
  9
$USERI2
 70
     0
  9
$USERI3
 70
     0
  9
$USERI4
 70
     0
  9
$USERI5
 70
     0
  9
$USERR1
 40
0.0
  9
$USERR2
 40
0.0
  9
$USERR3
 40
0.0
  9
$USERR4
 40
0.0
  9
$USERR5
 40
0.0
  9
$WORLDVIEW
 70
     1
  9
$SHADEDGE
 70
     3
  9
$SHADEDIF
 70
    70
  9
$TILEMODE
 70
     1
  9
$MAXACTVP
 70
    64
  9
$PINSBASE
 10
0.0
 20
0.0
 30
0.0
  9
$PLIMCHECK
 70
     0
  9
$PEXTMIN
 10
1.0000000000E+20
 20
1.0000000000E+20
 30
1.0000000000E+20
  9
$PEXTMAX
 10
-1.0000000000E+20
 20
-1.0000000000E+20
 30
-1.0000000000E+20
  9
$PLIMMIN
 10
0.0
 20
0.0
  9
$PLIMMAX
 10
420.0
 20
297.0
  9
$UNITMODE
 70
     0
  9
$VISRETAIN
 70
     1
  9
$PLINEGEN
 70
     0
  9
$PSLTSCALE
 70
     1
  9
$TREEDEPTH
 70
  3020
  9
$CMLSTYLE
  2
Standard
  9
$CMLJUST
 70
     0
  9
$CMLSCALE
 40
20.0
  9
$PROXYGRAPHICS
 70
     1
  9
$MEASUREMENT
 70
     1
  9
$CELWEIGHT
370
    -1
  9
$ENDCAPS
280
     0
  9
$JOINSTYLE
280
     0
  9
$LWDISPLAY
290
     1
  9
$INSUNITS
 70
     4
  9
$HYPERLINKBASE
  1

  9
$STYLESHEET
  1

  9
$XEDIT
290
     1
  9
$CEPSNTYPE
380
     0
  9
$PSTYLEMODE
290
     1
  9
$FINGERPRINTGUID
  2
{DEB1FD9D-A55F-4D57-BD28-78D5E02602F1}
  9
$VERSIONGUID
  2
{FAEB1C32-E019-11D5-929B-00C0DF256EC4}
  9
$EXTNAMES
290
     1
  9
$PSVPSCALE
 40
0.0
  9
$OLESTARTUP
290
     0
  0
ENDSEC
  0
SECTION
  2
CLASSES
  0
CLASS
  1
ACDBDICTIONARYWDFLT
  2
AcDbDictionaryWithDefault
  3
ObjectDBX Classes
 90
        0
280
     0
281
     0
  0
CLASS
  1
VISUALSTYLE
  2
AcDbVisualStyle
  3
ObjectDBX Classes
 90
     4095
280
     0
281
     0
  0
CLASS
  1
MATERIAL
  2
AcDbMaterial
  3
ObjectDBX Classes
 90
     1153
280
     0
281
     0
  0
CLASS
  1
SCALE
  2
AcDbScale
  3
ObjectDBX Classes
 90
     1153
280
     0
281
     0
  0
CLASS
  1
TABLESTYLE
  2
AcDbTableStyle
  3
ObjectDBX Classes
 90
     4095
280
     0
281
     0
  0
CLASS
  1
MLEADERSTYLE
  2
AcDbMLeaderStyle
  3
ACDB_MLEADERSTYLE_CLASS
 90
     4095
280
     0
281
     0
  0
CLASS
  1
SUN
  2
AcDbSun
  3
SCENEOE
 90
     1153
280
     0
281
     0
  0
CLASS
  1
ACDBPLACEHOLDER
  2
AcDbPlaceHolder
  3
ObjectDBX Classes
 90
        0
280
     0
281
     0
  0
CLASS
  1
LAYOUT
  2
AcDbLayout
  3
ObjectDBX Classes
 90
        0
280
     0
281
     0
  0
ENDSEC
  0
SECTION
  2
TABLES
  0
TABLE
  2
VPORT
  5
8
330
0
100
AcDbSymbolTable
 70
     1
  0
VPORT
  5
29
330
8
100
AcDbSymbolTableRecord
100
AcDbViewportTableRecord
  2
*Active
 70
     0
 10
0.0
 20
0.0
 11
1.0
 21
1.0
 12
210.0
 22
148.5
 13
0.0
 23
0.0
 14
10.0
 24
10.0
 15
10.0
 25
10.0
 16
0.0
 26
0.0
 36
1.0
 17
0.0
 27
0.0
 37
0.0
 40
297.0
 41
1.4141414141
 42
50.0
 43
0.0
 44
0.0
 50
0.0
 51
0.0
 71
     0
 72
  2000
 73
     1
 74
     3
 75
     0
 76
     0
 77
     0
 78
     0
281
     0
 65
     1
110
0.0
120
0.0
130
0.0
111
1.0
121
0.0
131
0.0
112
0.0
122
1.0
132
0.0
 79
     0
146
0.0
  0
ENDTAB
  0
TABLE
  2
LTYPE
  5
5
330
0
100
AcDbSymbolTable
 70
     6
  0
LTYPE
  5
14
330
5
100
AcDbSymbolTableRecord
100
AcDbLinetypeTableRecord
  2
ByBlock
 70
     0
  3

 72
    65
 73
     0
 40
0.0
  0
LTYPE
  5
15
330
5
100
AcDbSymbolTableRecord
100
AcDbLinetypeTableRecord
  2
ByLayer
 70
     0
  3

 72
    65
 73
     0
 40
0.0
  0
LTYPE
  5
16
330
5
100
AcDbSymbolTableRecord
100
AcDbLinetypeTableRecord
  2
Continuous
 70
     0
  3
Solid line
 72
    65
 73
     0
 40
0.0
  0
LTYPE
  5
6E
330
5
100
AcDbSymbolTableRecord
100
AcDbLinetypeTableRecord
  2
HIDDEN
 70
     0
  3
Hidden __ __ __ __ __ __ __ __ __ __ __ __ __ __
 72
    65
 73
     2
 40
1.905
 49
1.27
 74
     0
 49
-0.635
 74
     0
  0
LTYPE
  5
6F
330
5
100
AcDbSymbolTableRecord
100
AcDbLinetypeTableRecord
  2
PHANTOM
 70
     0
  3
Phantom ______  __  __  ______  __  __  ______
 72
    65
 73
     6
 40
12.7
 49
6.35
 74
     0
 49
-1.27
 74
     0
 49
1.27
 74
     0
 49
-1.27
 74
     0
 49
1.27
 74
     0
 49
-1.27
 74
     0
  0
LTYPE
  5
70
330
5
100
AcDbSymbolTableRecord
100
AcDbLinetypeTableRecord
  2
CENTER
 70
     0
  3
Center ____ _ ____ _ ____ _ ____ _ ____ _ ____
 72
    65
 73
     4
 40
10.16
 49
6.35
 74
     0
 49
-1.27
 74
     0
 49
1.27
 74
     0
 49
-1.27
 74
     0
  0
LTYPE
  5
71
330
5
100
AcDbSymbolTableRecord
100
AcDbLinetypeTableRecord
  2
CENTERX2
 70
     0
  3
Center (2x) ________  __  ________  __  _____
 72
    65
 73
     4
 40
20.32
 49
12.7
 74
     0
 49
-2.54
 74
     0
 49
2.54
 74
     0
 49
-2.54
 74
     0
  0
LTYPE
  5
72
330
5
100
AcDbSymbolTableRecord
100
AcDbLinetypeTableRecord
  2
DOT2
 70
     0
  3
Dot (.5x) ........................................
 72
    65
 73
     2
 40
0.635
 49
0.0
 74
     0
 49
-0.635
 74
     0
  0
ENDTAB
  0
TABLE
  2
LAYER
  5
2
330
0
100
AcDbSymbolTable
 70
     2
  0
LAYER
  5
10
330
2
100
AcDbSymbolTableRecord
100
AcDbLayerTableRecord
  2
0
 70
     0
 62
     7
  6
Continuous
370
    -3
390
F
  0
LAYER
  5
73
330
2
100
AcDbSymbolTableRecord
100
AcDbLayerTableRecord
  2
FORMAT
 70
     0
 62
     7
  6
Continuous
370
    -3
390
F
  0
ENDTAB
  0
TABLE
  2
STYLE
  5
3
330
0
100
AcDbSymbolTable
 70
     2
  0
STYLE
  5
11
330
3
100
AcDbSymbolTableRecord
100
AcDbTextStyleTableRecord
  2
Standard
 70
     0
 40
0.0
 41
1.0
 50
0.0
 71
     0
 42
2.8
  3
txt
  4

  0
STYLE
  5
74
330
3
100
AcDbSymbolTableRecord
100
AcDbTextStyleTableRecord
  2
SLDTEXTSTYLE0
 70
     0
 40
0.0
 41
0.75
 50
0.0
 71
     0
 42
2.8
  3
TXT
  4

  0
ENDTAB
  0
TABLE
  2
VIEW
  5
6
330
0
100
AcDbSymbolTable
 70
     0
  0
ENDTAB
  0
TABLE
  2
UCS
  5
7
330
0
100
AcDbSymbolTable
 70
     0
  0
ENDTAB
  0
TABLE
  2
APPID
  5
9
330
0
100
AcDbSymbolTable
 70
     1
  0
APPID
  5
12
330
9
100
AcDbSymbolTableRecord
100
AcDbRegAppTableRecord
  2
ACAD
 70
     0
  0
ENDTAB
  0
TABLE
  2
DIMSTYLE
  5
A
330
0
100
AcDbSymbolTable
 70
     1
100
AcDbDimStyleTable
  0
DIMSTYLE
105
27
330
A
100
AcDbSymbolTableRecord
100
AcDbDimStyleTableRecord
  2
ISO-25
 70
     0
 41
2.5
 42
0.625
 43
3.75
 44
1.25
 73
     0
 74
     0
 77
     1
 78
     8
140
2.5
141
2.5
143
0.0393700787
147
0.625
171
     3
172
     1
178
     0
271
     2
272
     2
274
     3
278
    44
283
     0
284
     8
340
11
  0
ENDTAB
  0
TABLE
  2
BLOCK_RECORD
  5
1
330
0
100
AcDbSymbolTable
 70
     1
  0
BLOCK_RECORD
  5
1F
330
1
100
AcDbSymbolTableRecord
100
AcDbBlockTableRecord
  2
*Model_Space
340
22
  0
BLOCK_RECORD
  5
1B
330
1
100
AcDbSymbolTableRecord
100
AcDbBlockTableRecord
  2
*Paper_Space
340
1E
  0
BLOCK_RECORD
  5
23
330
1
100
AcDbSymbolTableRecord
100
AcDbBlockTableRecord
  2
*Paper_Space0
340
26
  0
ENDTAB
  0
ENDSEC
  0
SECTION
  2
BLOCKS
  0
BLOCK
  5
20
330
1F
100
AcDbEntity
  8
0
100
AcDbBlockBegin
  2
*Model_Space
 70
     0
 10
0.0
 20
0.0
 30
0.0
  3
*Model_Space
  1

  0
ENDBLK
  5
21
330
1F
100
AcDbEntity
  8
0
100
AcDbBlockEnd
  0
BLOCK
  5
1C
330
1B
100
AcDbEntity
 67
     1
  8
0
100
AcDbBlockBegin
  2
*Paper_Space
 70
     0
 10
0.0
 20
0.0
 30
0.0
  3
*Paper_Space
  1

  0
ENDBLK
  5
1D
330
1B
100
AcDbEntity
 67
     1
  8
0
100
AcDbBlockEnd
  0
BLOCK
  5
24
330
23
100
AcDbEntity
  8
0
100
AcDbBlockBegin
  2
*Paper_Space0
 70
     0
 10
0.0
 20
0.0
 30
0.0
  3
*Paper_Space0
  1

  0
ENDBLK
  5
25
330
23
100
AcDbEntity
  8
0
100
AcDbBlockEnd
  0
ENDSEC
  0
SECTION
  2
ENTITIES
  0
MTEXT
  5
75
330
1F
100
AcDbEntity
  8
0
  6
Continuous
 62
     7
370
     0
100
AcDbMText
 10
5.2153846154
 20
290.5241472842
 30
0.0
 40
4.2333333333
 41
0.0
 71
     1
 72
     1
  1
601E10
  7
SLDTEXTSTYLE0
 73
     1
 44
1.0
  0
LINE
  5
76
330
1F
100
AcDbEntity
  8
0
  6
Continuous
 62
     7
370
    25
100
AcDbLine
 10
263.0455611834
 20
127.0961538462
 30
0.0
 11
263.0455611834
 21
127.5961538462
 31
0.0
  0
LINE
  5
77
330
1F
100
AcDbEntity
  8
0
  6
Continuous
 62
     7
370
    25
100
AcDbLine
 10
240.0455611834
 20
127.5961538462
 30
0.0
 11
240.0455611834
 21
127.0961538462
 31
0.0
  0
LINE
  5
78
330
1F
100
AcDbEntity
  8
0
  6
Continuous
 62
     7
370
    25
100
AcDbLine
 10
261.4955611834
 20
127.5961538462
 30
0.0
 11
261.4955611834
 21
131.7961538462
 31
0.0
  0
LINE
  5
79
330
1F
100
AcDbEntity
  8
0
  6
Continuous
 62
     7
370
    25
100
AcDbLine
 10
241.5955611834
 20
131.7961538462
 30
0.0
 11
241.5955611834
 21
127.5961538462
 31
0.0
  0
LINE
  5
7A
330
1F
100
AcDbEntity
  8
0
  6
Continuous
 62
     7
370
    25
100
AcDbLine
 10
240.0455611834
 20
160.0961538462
 30
0.0
 11
240.0455611834
 21
159.5961538462
 31
0.0
  0
LINE
  5
7B
330
1F
100
AcDbEntity
  8
0
  6
Continuous
 62
     7
370
    25
100
AcDbLine
 10
263.0455611834
 20
159.5961538462
 30
0.0
 11
263.0455611834
 21
160.0961538462
 31
0.0
  0
LINE
  5
7C
330
1F
100
AcDbEntity
  8
0
  6
Continuous
 62
     7
370
    25
100
AcDbLine
 10
241.5955611834
 20
159.5961538462
 30
0.0
 11
241.5955611834
 21
155.3961538462
 31
0.0
  0
LINE
  5
7D
330
1F
100
AcDbEntity
  8
0
  6
Continuous
 62
     7
370
    25
100
AcDbLine
 10
261.4955611834
 20
155.3961538462
 30
0.0
 11
261.4955611834
 21
159.5961538462
 31
0.0
  0
LINE
  5
7E
330
1F
100
AcDbEntity
  8
0
  6
Continuous
 62
     7
370
    25
100
AcDbLine
 10
255.5455611834
 20
155.3961538462
 30
0.0
 11
255.5455611834
 21
131.7961538462
 31
0.0
  0
LINE
  5
7F
330
1F
100
AcDbEntity
  8
0
  6
Continuous
 62
     7
370
    25
100
AcDbLine
 10
247.5455611834
 20
131.7961538462
 30
0.0
 11
247.5455611834
 21
155.3961538462
 31
0.0
  0
LINE
  5
80
330
1F
100
AcDbEntity
  8
0
  6
Continuous
 62
     7
370
    25
100
AcDbLine
 10
252.8603577146
 20
127.5961538462
 30
0.0
 11
240.0455611834
 21
127.5961538462
 31
0.0
  0
LINE
  5
81
330
1F
100
AcDbEntity
  8
0
  6
Continuous
 62
     7
370
    25
100
AcDbLine
 10
263.0455611834
 20
127.5961538462
 30
0.0
 11
252.8603577146
 21
127.5961538462
 31
0.0
  0
LINE
  5
82
330
1F
100
AcDbEntity
  8
0
  6
Continuous
 62
     7
370
    25
100
AcDbLine
 10
252.6831460082
 20
131.7961538462
 30
0.0
 11
241.5955611834
 21
131.7961538462
 31
0.0
  0
LINE
  5
83
330
1F
100
AcDbEntity
  8
0
  6
Continuous
 62
     7
370
    25
100
AcDbLine
 10
261.4955611834
 20
131.7961538462
 30
0.0
 11
252.6831460082
 21
131.7961538462
 31
0.0
  0
LINE
  5
84
330
1F
100
AcDbEntity
  8
0
  6
Continuous
 62
     7
370
    25
100
AcDbLine
 10
240.0455611834
 20
159.5961538462
 30
0.0
 11
263.0455611834
 21
159.5961538462
 31
0.0
  0
LINE
  5
85
330
1F
100
AcDbEntity
  8
0
  6
Continuous
 62
     7
370
    25
100
AcDbLine
 10
241.5955611834
 20
155.3961538462
 30
0.0
 11
261.4955611834
 21
155.3961538462
 31
0.0
  0
LINE
  5
86
330
1F
100
AcDbEntity
  8
0
  6
Continuous
 62
     7
370
    25
100
AcDbLine
 10
263.0455611834
 20
161.5961538462
 30
0.0
 11
263.0455611834
 21
203.9932047633
 31
0.0
  0
LINE
  5
87
330
1F
100
AcDbEntity
  8
0
  6
Continuous
 62
     7
370
    25
100
AcDbLine
 10
263.0455611834
 20
203.9932047633
 30
0.0
 11
264.5455611834
 21
203.9932047633
 31
0.0
  0
LINE
  5
88
330
1F
100
AcDbEntity
  8
0
  6
Continuous
 62
     7
370
    25
100
AcDbLine
 10
264.5455611834
 20
203.9932047633
 30
0.0
 11
264.5455611834
 21
160.5961538462
 31
0.0
  0
LINE
  5
89
330
1F
100
AcDbEntity
  8
0
  6
Continuous
 62
     7
370
    25
100
AcDbLine
 10
264.5455611834
 20
160.5961538462
 30
0.0
 11
263.0455611834
 21
161.5961538462
 31
0.0
  0
LINE
  5
8A
330
1F
100
AcDbEntity
  8
0
  6
Continuous
 62
     7
370
    25
100
AcDbLine
 10
135.6455611834
 20
203.8689635528
 30
0.0
 11
134.178152111
 21
203.5579802507
 31
0.0
  0
ARC
  5
8B
330
1F
100
AcDbEntity
  8
0
  6
Continuous
 62
     7
370
    25
100
AcDbCircle
 10
135.6455611834
 20
203.8689635528
 30
0.0
 40
1.499999999999955
100
AcDbArc
 50
107.3108276
 51
191.9654723948
  0
LINE
  5
8C
330
1F
100
AcDbEntity
  8
0
  6
Continuous
 62
     7
370
    25
100
AcDbLine
 10
135.6455611834
 20
203.8689635528
 30
0.0
 11
135.1992282382
 21
205.3010204308
 31
0.0
  0
LINE
  5
8D
330
1F
100
AcDbEntity
  8
0
  6
Continuous
 62
     7
370
    25
100
AcDbLine
 10
135.6455611834
 20
203.8689635528
 30
0.0
 11
136.7622056859
 21
198.5999530871
 31
0.0
  0
LINE
  5
8E
330
1F
100
AcDbEntity
  8
0
  6
Continuous
 62
     7
370
    25
100
AcDbLine
 10
136.7622056859
 20
198.5999530871
 30
0.0
 11
135.2947966134
 21
198.2889697849
 31
0.0
  0
LINE
  5
8F
330
1F
100
AcDbEntity
  8
0
  6
Continuous
 62
     7
370
    25
100
AcDbLine
 10
135.2947966134
 20
198.2889697849
 30
0.0
 11
134.178152111
 21
203.5579802507
 31
0.0
  0
LINE
  5
90
330
1F
100
AcDbEntity
  8
0
  6
Continuous
 62
     7
370
    25
100
AcDbLine
 10
238.5455611834
 20
160.5961538462
 30
0.0
 11
240.0455611834
 21
161.5961538462
 31
0.0
  0
LINE
  5
91
330
1F
100
AcDbEntity
  8
0
  6
Continuous
 62
     7
370
    25
100
AcDbLine
 10
239.0455611834
 20
160.0961538462
 30
0.0
 11
240.0455611834
 21
161.5961538462
 31
0.0
  0
ARC
  5
92
330
1F
100
AcDbEntity
  8
0
  6
Continuous
 62
     7
370
    25
100
AcDbCircle
 10
239.0455611834
 20
160.5961538462
 30
0.0
 40
0.5
100
AcDbArc
 50
180.0
 51
270.0
  0
LINE
  5
93
330
1F
100
AcDbEntity
  8
0
  6
Continuous
 62
     7
370
    25
100
AcDbLine
 10
238.5455611834
 20
160.5961538462
 30
0.0
 11
238.5455611834
 21
197.2033127792
 31
0.0
  0
LINE
  5
94
330
1F
100
AcDbEntity
  8
0
  6
Continuous
 62
     7
370
    25
100
AcDbLine
 10
238.5455611834
 20
197.2033127792
 30
0.0
 11
240.0455611834
 21
197.2033127792
 31
0.0
  0
LINE
  5
95
330
1F
100
AcDbEntity
  8
0
  6
Continuous
 62
     7
370
    25
100
AcDbLine
 10
240.0455611834
 20
197.2033127792
 30
0.0
 11
240.0455611834
 21
161.5961538462
 31
0.0
  0
LINE
  5
96
330
1F
100
AcDbEntity
  8
0
  6
Continuous
 62
     7
370
    25
100
AcDbLine
 10
264.0455611834
 20
160.0961538462
 30
0.0
 11
263.0455611834
 21
161.5961538462
 31
0.0
  0
ARC
  5
97
330
1F
100
AcDbEntity
  8
0
  6
Continuous
 62
     7
370
    25
100
AcDbCircle
 10
264.0455611834
 20
160.5961538462
 30
0.0
 40
0.5
100
AcDbArc
 50
270.0
 51
0.0
  0
ARC
  5
98
330
1F
100
AcDbEntity
  8
0
  6
Continuous
 62
     7
370
    25
100
AcDbCircle
 10
199.5455611834
 20
-1.1538461538
 30
0.0
 40
206.2500000000002
100
AcDbArc
 50
80.2735675533
 51
107.0392786642
  0
LINE
  5
99
330
1F
100
AcDbEntity
  8
0
  6
Continuous
 62
     7
370
    25
100
AcDbLine
 10
138.6691555929
 20
197.4767802419
 30
0.0
 11
139.1086964274
 21
196.0426240946
 31
0.0
  0
ARC
  5
9A
330
1F
100
AcDbEntity
  8
0
  6
Continuous
 62
     7
370
    25
100
AcDbCircle
 10
199.5455611834
 20
-1.1538461538
 30
0.0
 40
207.7500000000002
100
AcDbArc
 50
80.2735675533
 51
107.0392786642
  0
LINE
  5
9B
330
1F
100
AcDbEntity
  8
0
  6
Continuous
 62
     7
370
    25
100
AcDbLine
 10
234.3902816803
 20
202.1314409515
 30
0.0
 11
234.6436978294
 21
203.6098794032
 31
0.0
  0
ARC
  5
9C
330
1F
100
AcDbEntity
  8
0
  6
Continuous
 62
     7
370
    25
100
AcDbCircle
 10
199.5455611834
 20
-1.1538461538
 30
0.0
 40
214.75
100
AcDbArc
 50
72.80092271
 51
107.3108276
  0
ARC
  5
9D
330
1F
100
AcDbEntity
  8
0
  6
Continuous
 62
     7
370
    25
100
AcDbCircle
 10
199.5455611834
 20
-1.1538461538
 30
0.0
 40
216.25
100
AcDbArc
 50
72.80092271
 51
107.3108276
  0
LINE
  5
9E
330
1F
100
AcDbEntity
  8
0
  6
Continuous
 62
     7
370
    25
100
AcDbLine
 10
263.0455611834
 20
203.9932047633
 30
0.0
 11
263.4891001823
 21
205.4261294496
 31
0.0
  0
ARC
  5
9F
330
1F
100
AcDbEntity
  8
0
  6
Continuous
 62
     7
370
    25
100
AcDbCircle
 10
138.2296147583
 20
198.9109363892
 30
0.0
 40
1.499999999999992
100
AcDbArc
 50
191.9654723948
 51
287.0392786642
  0
ARC
  5
A0
330
1F
100
AcDbEntity
  8
0
  6
Continuous
 62
     7
370
    25
100
AcDbCircle
 10
138.2296147583
 20
198.9109363892
 30
0.0
 40
3.000000000000003
100
AcDbArc
 50
191.9654723948
 51
287.0392786642
  0
LINE
  5
A1
330
1F
100
AcDbEntity
  8
0
  6
Continuous
 62
     7
370
    25
100
AcDbLine
 10
240.0455611834
 20
161.5961538462
 30
0.0
 11
263.0455611834
 21
161.5961538462
 31
0.0
  0
ARC
  5
A2
330
1F
100
AcDbEntity
  8
0
  6
Continuous
 62
     7
370
    25
100
AcDbCircle
 10
233.5455611834
 20
197.2033127792
 30
0.0
 40
6.500000000000021
100
AcDbArc
 50
0.0
 51
80.2735675533
  0
ARC
  5
A3
330
1F
100
AcDbEntity
  8
0
  6
Continuous
 62
     7
370
    25
100
AcDbCircle
 10
263.0455611834
 20
203.9932047633
 30
0.0
 40
1.499999999999971
100
AcDbArc
 50
0.0
 51
72.80092271
  0
LINE
  5
A4
330
1F
100
AcDbEntity
  8
0
  6
Continuous
 62
     7
370
    25
100
AcDbLine
 10
264.0455611834
 20
160.0961538462
 30
0.0
 11
239.0455611834
 21
160.0961538462
 31
0.0
  0
ARC
  5
A5
330
1F
100
AcDbEntity
  8
0
  6
Continuous
 62
     7
370
    25
100
AcDbCircle
 10
233.5455611834
 20
197.2033127792
 30
0.0
 40
5.000000000000064
100
AcDbArc
 50
0.0
 51
80.2735675533
  0
ARC
  5
A6
330
1F
100
AcDbEntity
  8
0
  6
Continuous
 62
     7
370
    25
100
AcDbCircle
 10
199.5455611834
 20
288.3461538462
 30
0.0
 40
214.75
100
AcDbArc
 50
252.6891724
 51
287.19907729
  0
LINE
  5
A7
330
1F
100
AcDbEntity
  8
0
  6
Continuous
 62
     7
370
    25
100
AcDbLine
 10
263.0455611834
 20
83.199102929
 30
0.0
 11
263.4891001823
 21
81.7661782427
 31
0.0
  0
ARC
  5
A8
330
1F
100
AcDbEntity
  8
0
  6
Continuous
 62
     7
370
    25
100
AcDbCircle
 10
199.5455611834
 20
288.3461538462
 30
0.0
 40
216.2499999999999
100
AcDbArc
 50
252.6891724
 51
287.19907729
  0
LINE
  5
A9
330
1F
100
AcDbEntity
  8
0
  6
Continuous
 62
     7
370
    25
100
AcDbLine
 10
135.1992282382
 20
81.8912872615
 30
0.0
 11
135.6455611834
 21
83.3233441395
 31
0.0
  0
LINE
  5
AA
330
1F
100
AcDbEntity
  8
0
  6
Continuous
 62
     7
370
    25
100
AcDbLine
 10
263.0455611834
 20
83.199102929
 30
0.0
 11
263.0455611834
 21
125.5961538462
 31
0.0
  0
LINE
  5
AB
330
1F
100
AcDbEntity
  8
0
  6
Continuous
 62
     7
370
    25
100
AcDbLine
 10
136.7622056859
 20
88.5923546052
 30
0.0
 11
135.6455611834
 21
83.3233441395
 31
0.0
  0
ARC
  5
AC
330
1F
100
AcDbEntity
  8
0
  6
Continuous
 62
     7
370
    25
100
AcDbCircle
 10
138.2296147583
 20
88.2813713031
 30
0.0
 40
1.500000000000018
100
AcDbArc
 50
72.9607213358
 51
168.0345276052
  0
ARC
  5
AD
330
1F
100
AcDbEntity
  8
0
  6
Continuous
 62
     7
370
    25
100
AcDbCircle
 10
199.5455611834
 20
288.3461538462
 30
0.0
 40
207.7500000000002
100
AcDbArc
 50
252.9607213358
 51
279.7264324467
  0
ARC
  5
AE
330
1F
100
AcDbEntity
  8
0
  6
Continuous
 62
     7
370
    25
100
AcDbCircle
 10
233.5455611834
 20
89.9889949131
 30
0.0
 40
6.5
100
AcDbArc
 50
279.7264324467
 51
0.0
  0
LINE
  5
AF
330
1F
100
AcDbEntity
  8
0
  6
Continuous
 62
     7
370
    25
100
AcDbLine
 10
240.0455611834
 20
125.5961538462
 30
0.0
 11
240.0455611834
 21
89.9889949131
 31
0.0
  0
LINE
  5
B0
330
1F
100
AcDbEntity
  8
0
  6
Continuous
 62
     7
370
    25
100
AcDbLine
 10
263.0455611834
 20
125.5961538462
 30
0.0
 11
240.0455611834
 21
125.5961538462
 31
0.0
  0
LINE
  5
B1
330
1F
100
AcDbEntity
  8
0
  6
Continuous
 62
     7
370
    25
100
AcDbLine
 10
263.0455611834
 20
125.5961538462
 30
0.0
 11
264.5455611834
 21
126.5961538462
 31
0.0
  0
LINE
  5
B2
330
1F
100
AcDbEntity
  8
0
  6
Continuous
 62
     7
370
    25
100
AcDbLine
 10
264.5455611834
 20
126.5961538462
 30
0.0
 11
264.5455611834
 21
83.199102929
 31
0.0
  0
LINE
  5
B3
330
1F
100
AcDbEntity
  8
0
  6
Continuous
 62
     7
370
    25
100
AcDbLine
 10
263.0455611834
 20
83.199102929
 30
0.0
 11
264.5455611834
 21
83.199102929
 31
0.0
  0
ARC
  5
B4
330
1F
100
AcDbEntity
  8
0
  6
Continuous
 62
     7
370
    25
100
AcDbCircle
 10
263.0455611834
 20
83.199102929
 30
0.0
 40
1.499999999999985
100
AcDbArc
 50
287.19907729
 51
0.0
  0
ARC
  5
B5
330
1F
100
AcDbEntity
  8
0
  6
Continuous
 62
     7
370
    25
100
AcDbCircle
 10
199.5455611834
 20
288.3461538462
 30
0.0
 40
206.2500000000001
100
AcDbArc
 50
252.9607213358
 51
279.7264324467
  0
LINE
  5
B6
330
1F
100
AcDbEntity
  8
0
  6
Continuous
 62
     7
370
    25
100
AcDbLine
 10
234.3902816803
 20
85.0608667408
 30
0.0
 11
234.6436978294
 21
83.5824282892
 31
0.0
  0
LINE
  5
B7
330
1F
100
AcDbEntity
  8
0
  6
Continuous
 62
     7
370
    25
100
AcDbLine
 10
139.1086964274
 20
91.1496835977
 30
0.0
 11
138.6691555929
 21
89.7155274504
 31
0.0
  0
ARC
  5
B8
330
1F
100
AcDbEntity
  8
0
  6
Continuous
 62
     7
370
    25
100
AcDbCircle
 10
233.5455611834
 20
89.9889949131
 30
0.0
 40
5.000000000000036
100
AcDbArc
 50
279.7264324467
 51
0.0
  0
LINE
  5
B9
330
1F
100
AcDbEntity
  8
0
  6
Continuous
 62
     7
370
    25
100
AcDbLine
 10
238.5455611834
 20
89.9889949131
 30
0.0
 11
240.0455611834
 21
89.9889949131
 31
0.0
  0
LINE
  5
BA
330
1F
100
AcDbEntity
  8
0
  6
Continuous
 62
     7
370
    25
100
AcDbLine
 10
134.178152111
 20
83.6343274416
 30
0.0
 11
135.2947966134
 21
88.9033379074
 31
0.0
  0
LINE
  5
BB
330
1F
100
AcDbEntity
  8
0
  6
Continuous
 62
     7
370
    25
100
AcDbLine
 10
135.2947966134
 20
88.9033379074
 30
0.0
 11
136.7622056859
 21
88.5923546052
 31
0.0
  0
LINE
  5
BC
330
1F
100
AcDbEntity
  8
0
  6
Continuous
 62
     7
370
    25
100
AcDbLine
 10
134.178152111
 20
83.6343274416
 30
0.0
 11
135.6455611834
 21
83.3233441395
 31
0.0
  0
ARC
  5
BD
330
1F
100
AcDbEntity
  8
0
  6
Continuous
 62
     7
370
    25
100
AcDbCircle
 10
135.6455611834
 20
83.3233441395
 30
0.0
 40
1.499999999999945
100
AcDbArc
 50
168.0345276052
 51
252.6891724
  0
LINE
  5
BE
330
1F
100
AcDbEntity
  8
0
  6
Continuous
 62
     7
370
    25
100
AcDbLine
 10
238.5455611834
 20
89.9889949131
 30
0.0
 11
238.5455611834
 21
126.5961538462
 31
0.0
  0
LINE
  5
BF
330
1F
100
AcDbEntity
  8
0
  6
Continuous
 62
     7
370
    25
100
AcDbLine
 10
240.0455611834
 20
125.5961538462
 30
0.0
 11
238.5455611834
 21
126.5961538462
 31
0.0
  0
ARC
  5
C0
330
1F
100
AcDbEntity
  8
0
  6
Continuous
 62
     7
370
    25
100
AcDbCircle
 10
138.2296147583
 20
88.2813713031
 30
0.0
 40
3.000000000000017
100
AcDbArc
 50
72.9607213358
 51
168.0345276052
  0
ARC
  5
C1
330
1F
100
AcDbEntity
  8
0
  6
Continuous
 62
     7
370
    25
100
AcDbCircle
 10
239.0455611834
 20
126.5961538462
 30
0.0
 40
0.5
100
AcDbArc
 50
90.0
 51
180.0
  0
LINE
  5
C2
330
1F
100
AcDbEntity
  8
0
  6
Continuous
 62
     7
370
    25
100
AcDbLine
 10
240.0455611834
 20
125.5961538462
 30
0.0
 11
239.0455611834
 21
127.0961538462
 31
0.0
  0
LINE
  5
C3
330
1F
100
AcDbEntity
  8
0
  6
Continuous
 62
     7
370
    25
100
AcDbLine
 10
239.0455611834
 20
127.0961538462
 30
0.0
 11
264.0455611834
 21
127.0961538462
 31
0.0
  0
LINE
  5
C4
330
1F
100
AcDbEntity
  8
0
  6
Continuous
 62
     7
370
    25
100
AcDbLine
 10
263.0455611834
 20
125.5961538462
 30
0.0
 11
264.0455611834
 21
127.0961538462
 31
0.0
  0
ARC
  5
C5
330
1F
100
AcDbEntity
  8
0
  6
Continuous
 62
     7
370
    25
100
AcDbCircle
 10
264.0455611834
 20
126.5961538462
 30
0.0
 40
0.5
100
AcDbArc
 50
0.0
 51
90.0
  0
LINE
  5
C6
330
1F
100
AcDbEntity
  8
0
  6
Continuous
 62
     8
370
    25
100
AcDbLine
 10
255.3455611834
 20
131.7961538462
 30
0.0
 11
255.3455611834
 21
155.3961538462
 31
0.0
  0
LINE
  5
C7
330
1F
100
AcDbEntity
  8
0
  6
Continuous
 62
     8
370
    25
100
AcDbLine
 10
247.7455611834
 20
155.3961538462
 30
0.0
 11
247.7455611834
 21
131.7961538462
 31
0.0
  0
LINE
  5
C8
330
1F
100
AcDbEntity
  8
0
  6
HIDDEN
 62
     7
370
    18
100
AcDbLine
 10
248.6305884777
 20
183.5961538462
 30
0.0
 11
248.6305884777
 21
103.5961538462
 31
0.0
  0
LINE
  5
C9
330
1F
100
AcDbEntity
  8
0
  6
HIDDEN
 62
     7
370
    18
100
AcDbLine
 10
255.3455611834
 20
183.5961538462
 30
0.0
 11
255.3455611834
 21
103.5961538462
 31
0.0
  0
LINE
  5
CA
330
1F
100
AcDbEntity
  8
0
  6
HIDDEN
 62
     7
370
    18
100
AcDbLine
 10
247.7455611834
 20
103.5961538462
 30
0.0
 11
247.7455611834
 21
183.5961538462
 31
0.0
  0
LINE
  5
CB
330
1F
100
AcDbEntity
  8
0
  6
HIDDEN
 62
     7
370
    18
100
AcDbLine
 10
255.5455611834
 20
163.3961538462
 30
0.0
 11
255.5455611834
 21
155.3961538462
 31
0.0
  0
LINE
  5
CC
330
1F
100
AcDbEntity
  8
0
  6
HIDDEN
 62
     7
370
    18
100
AcDbLine
 10
255.5455611834
 20
131.7961538462
 30
0.0
 11
255.5455611834
 21
123.7961538462
 31
0.0
  0
LINE
  5
CD
330
1F
100
AcDbEntity
  8
0
  6
HIDDEN
 62
     7
370
    18
100
AcDbLine
 10
255.5455611834
 20
103.5961538462
 30
0.0
 11
255.3455611834
 21
103.5961538462
 31
0.0
  0
LINE
  5
CE
330
1F
100
AcDbEntity
  8
0
  6
HIDDEN
 62
     7
370
    18
100
AcDbLine
 10
255.3455611834
 20
183.5961538462
 30
0.0
 11
255.5455611834
 21
183.5961538462
 31
0.0
  0
LINE
  5
CF
330
1F
100
AcDbEntity
  8
0
  6
HIDDEN
 62
     7
370
    18
100
AcDbLine
 10
255.3455611834
 20
103.5961538462
 30
0.0
 11
247.7455611834
 21
103.5961538462
 31
0.0
  0
LINE
  5
D0
330
1F
100
AcDbEntity
  8
0
  6
HIDDEN
 62
     7
370
    18
100
AcDbLine
 10
255.3455611834
 20
183.5961538462
 30
0.0
 11
247.7455611834
 21
183.5961538462
 31
0.0
  0
LINE
  5
D1
330
1F
100
AcDbEntity
  8
0
  6
HIDDEN
 62
     7
370
    18
100
AcDbLine
 10
247.5455611834
 20
123.7961538462
 30
0.0
 11
247.5455611834
 21
131.7961538462
 31
0.0
  0
LINE
  5
D2
330
1F
100
AcDbEntity
  8
0
  6
HIDDEN
 62
     7
370
    18
100
AcDbLine
 10
247.5455611834
 20
155.3961538462
 30
0.0
 11
247.5455611834
 21
163.3961538462
 31
0.0
  0
LINE
  5
D3
330
1F
100
AcDbEntity
  8
0
  6
HIDDEN
 62
     7
370
    18
100
AcDbLine
 10
247.7455611834
 20
103.5961538462
 30
0.0
 11
247.5455611834
 21
103.5961538462
 31
0.0
  0
LINE
  5
D4
330
1F
100
AcDbEntity
  8
0
  6
HIDDEN
 62
     7
370
    18
100
AcDbLine
 10
247.5455611834
 20
183.5961538462
 30
0.0
 11
247.7455611834
 21
183.5961538462
 31
0.0
  0
LINE
  5
D5
330
1F
100
AcDbEntity
  8
0
  6
HIDDEN
 62
     7
370
    18
100
AcDbLine
 10
248.3455611834
 20
183.5961538462
 30
0.0
 11
248.3455611834
 21
103.5961538462
 31
0.0
  0
LINE
  5
D6
330
1F
100
AcDbEntity
  8
0
  6
HIDDEN
 62
     7
370
    18
100
AcDbLine
 10
251.6455611834
 20
103.5961538462
 30
0.0
 11
251.6455611834
 21
183.5961538462
 31
0.0
  0
LINE
  5
D7
330
1F
100
AcDbEntity
  8
0
  6
HIDDEN
 62
     7
370
    18
100
AcDbLine
 10
238.8455611834
 20
121.0961538461
 30
0.0
 11
238.8455611834
 21
115.0961538462
 31
0.0
  0
LINE
  5
D8
330
1F
100
AcDbEntity
  8
0
  6
HIDDEN
 62
     7
370
    18
100
AcDbLine
 10
244.9455611835
 20
117.1771042328
 30
0.0
 11
244.9455611835
 21
121.0961538461
 31
0.0
  0
LINE
  5
D9
330
1F
100
AcDbEntity
  8
0
  6
HIDDEN
 62
     7
370
    18
100
AcDbLine
 10
244.9455611835
 20
115.0961538462
 30
0.0
 11
244.9455611835
 21
117.1771042328
 31
0.0
  0
LINE
  5
DA
330
1F
100
AcDbEntity
  8
0
  6
HIDDEN
 62
     7
370
    18
100
AcDbLine
 10
245.9455611834
 20
117.4834541039
 30
0.0
 11
245.9455611834
 21
116.0961538462
 31
0.0
  0
LINE
  5
DB
330
1F
100
AcDbEntity
  8
0
  6
HIDDEN
 62
     7
370
    18
100
AcDbLine
 10
245.9455611834
 20
120.0961538461
 30
0.0
 11
245.9455611834
 21
117.4834541039
 31
0.0
  0
LINE
  5
DC
330
1F
100
AcDbEntity
  8
0
  6
HIDDEN
 62
     7
370
    18
100
AcDbLine
 10
241.5455611834
 20
117.5661685691
 30
0.0
 11
241.5455611834
 21
119.25734903
 31
0.0
  0
LINE
  5
DD
330
1F
100
AcDbEntity
  8
0
  6
HIDDEN
 62
     7
370
    18
100
AcDbLine
 10
246.0352712683
 20
116.7054396635
 30
0.0
 11
246.0352712683
 21
119.4868680288
 31
0.0
  0
LINE
  5
DE
330
1F
100
AcDbEntity
  8
0
  6
HIDDEN
 62
     7
370
    18
100
AcDbLine
 10
247.6100512206
 20
119.4940102414
 30
0.0
 11
247.6100512206
 21
116.6982974509
 31
0.0
  0
LINE
  5
DF
330
1F
100
AcDbEntity
  8
0
  6
HIDDEN
 62
     7
370
    18
100
AcDbLine
 10
247.3955611835
 20
117.7094077177
 30
0.0
 11
247.3955611835
 21
116.8337210369
 31
0.0
  0
LINE
  5
E0
330
1F
100
AcDbEntity
  8
0
  6
HIDDEN
 62
     7
370
    18
100
AcDbLine
 10
247.3955611835
 20
119.3585866554
 30
0.0
 11
247.3955611835
 21
117.7094077177
 31
0.0
  0
LINE
  5
E1
330
1F
100
AcDbEntity
  8
0
  6
HIDDEN
 62
     7
370
    18
100
AcDbLine
 10
241.5455611834
 20
117.5661685691
 30
0.0
 11
238.5455611834
 21
117.5661685691
 31
0.0
  0
LINE
  5
E2
330
1F
100
AcDbEntity
  8
0
  6
HIDDEN
 62
     7
370
    18
100
AcDbLine
 10
241.5455611834
 20
116.4049733853
 30
0.0
 11
241.5455611834
 21
117.5661685691
 31
0.0
  0
LINE
  5
E3
330
1F
100
AcDbEntity
  8
0
  6
HIDDEN
 62
     7
370
    18
100
AcDbLine
 10
241.5455611834
 20
119.25734903
 30
0.0
 11
238.5455611834
 21
119.25734903
 31
0.0
  0
LINE
  5
E4
330
1F
100
AcDbEntity
  8
0
  6
HIDDEN
 62
     7
370
    18
100
AcDbLine
 10
241.5455611834
 20
119.25734903
 30
0.0
 11
241.5455611834
 21
119.787334307
 31
0.0
  0
LINE
  5
E5
330
1F
100
AcDbEntity
  8
0
  6
HIDDEN
 62
     7
370
    18
100
AcDbLine
 10
241.5455611834
 20
116.9349586623
 30
0.0
 11
238.5455611834
 21
116.9349586623
 31
0.0
  0
LINE
  5
E6
330
1F
100
AcDbEntity
  8
0
  6
HIDDEN
 62
     7
370
    18
100
AcDbLine
 10
241.5455611834
 20
116.4049733853
 30
0.0
 11
238.5455611834
 21
116.4049733853
 31
0.0
  0
LINE
  5
E7
330
1F
100
AcDbEntity
  8
0
  6
HIDDEN
 62
     7
370
    18
100
AcDbLine
 10
241.5455611834
 20
118.6261391232
 30
0.0
 11
238.5455611834
 21
118.6261391232
 31
0.0
  0
LINE
  5
E8
330
1F
100
AcDbEntity
  8
0
  6
HIDDEN
 62
     7
370
    18
100
AcDbLine
 10
241.5455611834
 20
119.787334307
 30
0.0
 11
238.5455611834
 21
119.787334307
 31
0.0
  0
LINE
  5
E9
330
1F
100
AcDbEntity
  8
0
  6
HIDDEN
 62
     7
370
    18
100
AcDbLine
 10
238.8455611834
 20
172.0961538461
 30
0.0
 11
238.8455611834
 21
166.0961538462
 31
0.0
  0
LINE
  5
EA
330
1F
100
AcDbEntity
  8
0
  6
HIDDEN
 62
     7
370
    18
100
AcDbLine
 10
244.9455611835
 20
168.1771042328
 30
0.0
 11
244.9455611835
 21
172.0961538461
 31
0.0
  0
LINE
  5
EB
330
1F
100
AcDbEntity
  8
0
  6
HIDDEN
 62
     7
370
    18
100
AcDbLine
 10
244.9455611835
 20
166.0961538462
 30
0.0
 11
244.9455611835
 21
168.1771042328
 31
0.0
  0
LINE
  5
EC
330
1F
100
AcDbEntity
  8
0
  6
HIDDEN
 62
     7
370
    18
100
AcDbLine
 10
245.9455611834
 20
168.4834541039
 30
0.0
 11
245.9455611834
 21
167.0961538462
 31
0.0
  0
LINE
  5
ED
330
1F
100
AcDbEntity
  8
0
  6
HIDDEN
 62
     7
370
    18
100
AcDbLine
 10
245.9455611834
 20
171.0961538461
 30
0.0
 11
245.9455611834
 21
168.4834541039
 31
0.0
  0
LINE
  5
EE
330
1F
100
AcDbEntity
  8
0
  6
HIDDEN
 62
     7
370
    18
100
AcDbLine
 10
241.5455611834
 20
168.5661685691
 30
0.0
 11
241.5455611834
 21
170.25734903
 31
0.0
  0
LINE
  5
EF
330
1F
100
AcDbEntity
  8
0
  6
HIDDEN
 62
     7
370
    18
100
AcDbLine
 10
246.0352712683
 20
167.7054396635
 30
0.0
 11
246.0352712683
 21
170.4868680288
 31
0.0
  0
LINE
  5
F0
330
1F
100
AcDbEntity
  8
0
  6
HIDDEN
 62
     7
370
    18
100
AcDbLine
 10
247.6100512206
 20
170.4940102414
 30
0.0
 11
247.6100512206
 21
167.6982974509
 31
0.0
  0
LINE
  5
F1
330
1F
100
AcDbEntity
  8
0
  6
HIDDEN
 62
     7
370
    18
100
AcDbLine
 10
247.3955611835
 20
168.7094077177
 30
0.0
 11
247.3955611835
 21
167.8337210369
 31
0.0
  0
LINE
  5
F2
330
1F
100
AcDbEntity
  8
0
  6
HIDDEN
 62
     7
370
    18
100
AcDbLine
 10
247.3955611835
 20
170.3585866554
 30
0.0
 11
247.3955611835
 21
168.7094077177
 31
0.0
  0
LINE
  5
F3
330
1F
100
AcDbEntity
  8
0
  6
HIDDEN
 62
     7
370
    18
100
AcDbLine
 10
241.5455611834
 20
168.5661685691
 30
0.0
 11
238.5455611834
 21
168.5661685691
 31
0.0
  0
LINE
  5
F4
330
1F
100
AcDbEntity
  8
0
  6
HIDDEN
 62
     7
370
    18
100
AcDbLine
 10
241.5455611834
 20
167.4049733853
 30
0.0
 11
241.5455611834
 21
168.5661685691
 31
0.0
  0
LINE
  5
F5
330
1F
100
AcDbEntity
  8
0
  6
HIDDEN
 62
     7
370
    18
100
AcDbLine
 10
241.5455611834
 20
170.25734903
 30
0.0
 11
238.5455611834
 21
170.25734903
 31
0.0
  0
LINE
  5
F6
330
1F
100
AcDbEntity
  8
0
  6
HIDDEN
 62
     7
370
    18
100
AcDbLine
 10
241.5455611834
 20
170.25734903
 30
0.0
 11
241.5455611834
 21
170.787334307
 31
0.0
  0
LINE
  5
F7
330
1F
100
AcDbEntity
  8
0
  6
HIDDEN
 62
     7
370
    18
100
AcDbLine
 10
241.5455611834
 20
167.9349586623
 30
0.0
 11
238.5455611834
 21
167.9349586623
 31
0.0
  0
LINE
  5
F8
330
1F
100
AcDbEntity
  8
0
  6
HIDDEN
 62
     7
370
    18
100
AcDbLine
 10
241.5455611834
 20
167.4049733853
 30
0.0
 11
238.5455611834
 21
167.4049733853
 31
0.0
  0
LINE
  5
F9
330
1F
100
AcDbEntity
  8
0
  6
HIDDEN
 62
     7
370
    18
100
AcDbLine
 10
241.5455611834
 20
169.6261391232
 30
0.0
 11
238.5455611834
 21
169.6261391232
 31
0.0
  0
LINE
  5
FA
330
1F
100
AcDbEntity
  8
0
  6
HIDDEN
 62
     7
370
    18
100
AcDbLine
 10
241.5455611834
 20
170.787334307
 30
0.0
 11
238.5455611834
 21
170.787334307
 31
0.0
  0
LINE
  5
FB
330
1F
100
AcDbEntity
  8
0
  6
HIDDEN
 62
     7
370
    18
100
AcDbLine
 10
251.5455611834
 20
163.3961538462
 30
0.0
 11
263.5455611834
 21
163.3961538462
 31
0.0
  0
LINE
  5
FC
330
1F
100
AcDbEntity
  8
0
  6
HIDDEN
 62
     7
370
    18
100
AcDbLine
 10
239.5455611834
 20
163.3961538462
 30
0.0
 11
251.5455611834
 21
163.3961538462
 31
0.0
  0
LINE
  5
FD
330
1F
100
AcDbEntity
  8
0
  6
HIDDEN
 62
     7
370
    18
100
AcDbLine
 10
251.5455611834
 20
187.5558126617
 30
0.0
 11
255.9455611834
 21
187.5558126617
 31
0.0
  0
LINE
  5
FE
330
1F
100
AcDbEntity
  8
0
  6
HIDDEN
 62
     7
370
    18
100
AcDbLine
 10
247.1455611834
 20
187.5558126617
 30
0.0
 11
251.5455611834
 21
187.5558126617
 31
0.0
  0
SPLINE
  5
FF
330
1F
100
AcDbEntity
  8
0
  6
HIDDEN
 62
     7
370
    18
100
AcDbSpline
210
0.0
220
0.0
230
1.0
 70
     8
 71
     3
 72
    11
 73
     7
 74
     0
 42
0.000000001
 43
0.00000001
 40
0.0
 40
0.0
 40
0.0
 40
0.0
 40
0.0364543980425984
 40
0.3913994534792446
 40
0.7478514158168359
 40
1.0
 40
1.0
 40
1.0
 40
1.0
 10
247.152082170537
 20
171.5845071600893
 30
0.0
 10
247.1499317814043
 20
171.5883520042121
 30
0.0
 10
247.1268437268348
 20
171.6296328912709
 30
0.0
 10
247.2121151972046
 20
171.4783861548065
 30
0.0
 10
247.3651839606801
 20
171.1975968213848
 30
0.0
 10
247.4927213260231
 20
170.9137528935696
 30
0.0
 10
247.5455611834395
 20
170.7961538461538
 30
0.0
  0
LINE
  5
100
330
1F
100
AcDbEntity
  8
0
  6
HIDDEN
 62
     7
370
    18
100
AcDbLine
 10
249.7125309055
 20
185.0961538462
 30
0.0
 11
249.7125309055
 21
163.3961538462
 31
0.0
  0
LINE
  5
101
330
1F
100
AcDbEntity
  8
0
  6
HIDDEN
 62
     7
370
    18
100
AcDbLine
 10
253.3785914614
 20
163.3961538462
 30
0.0
 11
253.3785914614
 21
185.0961538462
 31
0.0
  0
LINE
  5
102
330
1F
100
AcDbEntity
  8
0
  6
HIDDEN
 62
     7
370
    18
100
AcDbLine
 10
255.5455611834
 20
185.0961538462
 30
0.0
 11
255.5455611834
 21
163.3961538462
 31
0.0
  0
LINE
  5
103
330
1F
100
AcDbEntity
  8
0
  6
HIDDEN
 62
     7
370
    18
100
AcDbLine
 10
255.5455611834
 20
185.0961538462
 30
0.0
 11
253.3785914614
 21
185.0961538462
 31
0.0
  0
LINE
  5
104
330
1F
100
AcDbEntity
  8
0
  6
HIDDEN
 62
     7
370
    18
100
AcDbLine
 10
249.7125309055
 20
185.0961538462
 30
0.0
 11
247.5455611834
 21
185.0961538462
 31
0.0
  0
LINE
  5
105
330
1F
100
AcDbEntity
  8
0
  6
HIDDEN
 62
     7
370
    18
100
AcDbLine
 10
247.5455611834
 20
185.0961538462
 30
0.0
 11
247.5455611834
 21
163.3961538462
 31
0.0
  0
LINE
  5
106
330
1F
100
AcDbEntity
  8
0
  6
HIDDEN
 62
     7
370
    18
100
AcDbLine
 10
239.2955611834
 20
169.0961538462
 30
0.0
 11
239.2955611834
 21
171.5961538462
 31
0.0
  0
LINE
  5
107
330
1F
100
AcDbEntity
  8
0
  6
HIDDEN
 62
     7
370
    18
100
AcDbLine
 10
239.2955611834
 20
166.5961538462
 30
0.0
 11
239.2955611834
 21
169.0961538462
 31
0.0
  0
SPLINE
  5
108
330
1F
100
AcDbEntity
  8
0
  6
HIDDEN
 62
     7
370
    18
100
AcDbSpline
210
0.0
220
0.0
230
1.0
 70
     8
 71
     3
 72
    10
 73
     6
 74
     0
 42
0.000000001
 43
0.00000001
 40
0.0
 40
0.0
 40
0.0
 40
0.0
 40
0.2153710512317168
 40
0.6528670900024608
 40
1.0
 40
1.0
 40
1.0
 40
1.0
 10
247.5455611834395
 20
167.3961538461538
 30
0.0
 10
247.5011944407565
 20
167.2964321442325
 30
0.0
 10
247.3667028922282
 20
166.9941398121333
 30
0.0
 10
247.1822095938249
 20
166.6608653286589
 30
0.0
 10
247.1629104003264
 20
166.626890123147
 30
0.0
 10
247.154372115816
 20
166.611858926585
 30
0.0
  0
LINE
  5
109
330
1F
100
AcDbEntity
  8
0
  6
HIDDEN
 62
     7
370
    18
100
AcDbLine
 10
134.178152111
 20
203.5579802507
 30
0.0
 11
135.6455611834
 21
203.8689635528
 31
0.0
  0
LINE
  5
10A
330
1F
100
AcDbEntity
  8
0
  6
HIDDEN
 62
     7
370
    18
100
AcDbLine
 10
135.1992282382
 20
205.3010204308
 30
0.0
 11
135.6455611834
 21
203.8689635528
 31
0.0
  0
LINE
  5
10B
330
1F
100
AcDbEntity
  8
0
  6
HIDDEN
 62
     7
370
    18
100
AcDbLine
 10
135.2947966134
 20
198.2889697849
 30
0.0
 11
136.7622056859
 21
198.5999530871
 31
0.0
  0
LINE
  5
10C
330
1F
100
AcDbEntity
  8
0
  6
HIDDEN
 62
     7
370
    18
100
AcDbLine
 10
136.7622056859
 20
198.5999530871
 30
0.0
 11
135.6455611834
 21
203.8689635528
 31
0.0
  0
ARC
  5
10D
330
1F
100
AcDbEntity
  8
0
  6
HIDDEN
 62
     7
370
    18
100
AcDbCircle
 10
199.5455611834
 20
-1.1538461538
 30
0.0
 40
214.75
100
AcDbArc
 50
72.80092271
 51
107.3108276
  0
LINE
  5
10E
330
1F
100
AcDbEntity
  8
0
  6
HIDDEN
 62
     7
370
    18
100
AcDbLine
 10
263.0455611834
 20
203.9932047633
 30
0.0
 11
263.4891001823
 21
205.4261294496
 31
0.0
  0
LINE
  5
10F
330
1F
100
AcDbEntity
  8
0
  6
HIDDEN
 62
     7
370
    18
100
AcDbLine
 10
263.0455611834
 20
203.9932047633
 30
0.0
 11
264.5455611834
 21
203.9932047633
 31
0.0
  0
LINE
  5
110
330
1F
100
AcDbEntity
  8
0
  6
HIDDEN
 62
     7
370
    18
100
AcDbLine
 10
263.0455611834
 20
161.5961538462
 30
0.0
 11
240.0455611834
 21
161.5961538462
 31
0.0
  0
LINE
  5
111
330
1F
100
AcDbEntity
  8
0
  6
HIDDEN
 62
     7
370
    18
100
AcDbLine
 10
240.0455611834
 20
161.5961538462
 30
0.0
 11
239.0455611834
 21
160.0961538462
 31
0.0
  0
LINE
  5
112
330
1F
100
AcDbEntity
  8
0
  6
HIDDEN
 62
     7
370
    18
100
AcDbLine
 10
263.0455611834
 20
161.5961538462
 30
0.0
 11
264.0455611834
 21
160.0961538462
 31
0.0
  0
LINE
  5
113
330
1F
100
AcDbEntity
  8
0
  6
HIDDEN
 62
     7
370
    18
100
AcDbLine
 10
263.0455611834
 20
203.9932047633
 30
0.0
 11
263.0455611834
 21
161.5961538462
 31
0.0
  0
LINE
  5
114
330
1F
100
AcDbEntity
  8
0
  6
HIDDEN
 62
     7
370
    18
100
AcDbLine
 10
263.0455611834
 20
161.5961538462
 30
0.0
 11
264.5455611834
 21
160.5961538462
 31
0.0
  0
LINE
  5
115
330
1F
100
AcDbEntity
  8
0
  6
HIDDEN
 62
     7
370
    18
100
AcDbLine
 10
240.0455611834
 20
161.5961538462
 30
0.0
 11
238.5455611834
 21
160.5961538462
 31
0.0
  0
LINE
  5
116
330
1F
100
AcDbEntity
  8
0
  6
HIDDEN
 62
     7
370
    18
100
AcDbLine
 10
139.1086964274
 20
196.0426240946
 30
0.0
 11
138.6691555929
 21
197.4767802419
 31
0.0
  0
ARC
  5
117
330
1F
100
AcDbEntity
  8
0
  6
HIDDEN
 62
     7
370
    18
100
AcDbCircle
 10
138.2296147583
 20
198.9109363892
 30
0.0
 40
1.500000000000018
100
AcDbArc
 50
191.9654723948
 51
287.0392786642
  0
LINE
  5
118
330
1F
100
AcDbEntity
  8
0
  6
HIDDEN
 62
     7
370
    18
100
AcDbLine
 10
240.0455611834
 20
161.5961538462
 30
0.0
 11
240.0455611834
 21
197.2033127792
 31
0.0
  0
LINE
  5
119
330
1F
100
AcDbEntity
  8
0
  6
HIDDEN
 62
     7
370
    18
100
AcDbLine
 10
238.5455611834
 20
197.2033127792
 30
0.0
 11
240.0455611834
 21
197.2033127792
 31
0.0
  0
LINE
  5
11A
330
1F
100
AcDbEntity
  8
0
  6
HIDDEN
 62
     7
370
    18
100
AcDbLine
 10
234.3902816803
 20
202.1314409515
 30
0.0
 11
234.6436978294
 21
203.6098794032
 31
0.0
  0
ARC
  5
11B
330
1F
100
AcDbEntity
  8
0
  6
HIDDEN
 62
     7
370
    18
100
AcDbCircle
 10
199.5455611834
 20
-1.1538461538
 30
0.0
 40
207.7500000000002
100
AcDbArc
 50
80.2735675533
 51
107.0392786642
  0
ARC
  5
11C
330
1F
100
AcDbEntity
  8
0
  6
HIDDEN
 62
     7
370
    18
100
AcDbCircle
 10
233.5455611834
 20
197.2033127792
 30
0.0
 40
6.500000000000021
100
AcDbArc
 50
0.0
 51
80.2735675533
  0
LINE
  5
11D
330
1F
100
AcDbEntity
  8
0
  6
HIDDEN
 62
     7
370
    18
100
AcDbLine
 10
263.5455611834
 20
123.7961538462
 30
0.0
 11
239.5455611834
 21
123.7961538462
 31
0.0
  0
LINE
  5
11E
330
1F
100
AcDbEntity
  8
0
  6
HIDDEN
 62
     7
370
    18
100
AcDbLine
 10
255.9455611834
 20
99.6364950306
 30
0.0
 11
247.1455611834
 21
99.6364950306
 31
0.0
  0
LINE
  5
11F
330
1F
100
AcDbEntity
  8
0
  6
HIDDEN
 62
     7
370
    18
100
AcDbLine
 10
253.3785914614
 20
102.0961538462
 30
0.0
 11
253.3785914614
 21
123.7961538462
 31
0.0
  0
LINE
  5
120
330
1F
100
AcDbEntity
  8
0
  6
HIDDEN
 62
     7
370
    18
100
AcDbLine
 10
249.7125309055
 20
123.7961538462
 30
0.0
 11
249.7125309055
 21
102.0961538462
 31
0.0
  0
SPLINE
  5
121
330
1F
100
AcDbEntity
  8
0
  6
HIDDEN
 62
     7
370
    18
100
AcDbSpline
210
0.0
220
0.0
230
1.0
 70
     8
 71
     3
 72
    10
 73
     6
 74
     0
 42
0.000000001
 43
0.00000001
 40
0.0
 40
0.0
 40
0.0
 40
0.0
 40
0.1973047252887354
 40
0.6351163825582786
 40
1.0
 40
1.0
 40
1.0
 40
1.0
 10
247.5455611834395
 20
116.3961538461538
 30
0.0
 10
247.5049052846311
 20
116.3044406388655
 30
0.0
 10
247.3740354975893
 20
116.0092193239147
 30
0.0
 10
247.1866330043847
 20
115.6684598752517
 30
0.0
 10
247.1628797563145
 20
115.6267573673122
 30
0.0
 10
247.152082170537
 20
115.6078005322184
 30
0.0
  0
LINE
  5
122
330
1F
100
AcDbEntity
  8
0
  6
HIDDEN
 62
     7
370
    18
100
AcDbLine
 10
255.5455611834
 20
102.0961538462
 30
0.0
 11
255.5455611834
 21
123.7961538462
 31
0.0
  0
LINE
  5
123
330
1F
100
AcDbEntity
  8
0
  6
HIDDEN
 62
     7
370
    18
100
AcDbLine
 10
247.5455611834
 20
102.0961538462
 30
0.0
 11
247.5455611834
 21
123.7961538462
 31
0.0
  0
LINE
  5
124
330
1F
100
AcDbEntity
  8
0
  6
HIDDEN
 62
     7
370
    18
100
AcDbLine
 10
253.3785914614
 20
102.0961538462
 30
0.0
 11
255.5455611834
 21
102.0961538462
 31
0.0
  0
LINE
  5
125
330
1F
100
AcDbEntity
  8
0
  6
HIDDEN
 62
     7
370
    18
100
AcDbLine
 10
247.5455611834
 20
102.0961538462
 30
0.0
 11
249.7125309055
 21
102.0961538462
 31
0.0
  0
LINE
  5
126
330
1F
100
AcDbEntity
  8
0
  6
HIDDEN
 62
     7
370
    18
100
AcDbLine
 10
239.2955611834
 20
115.5961538462
 30
0.0
 11
239.2955611834
 21
120.5961538462
 31
0.0
  0
SPLINE
  5
127
330
1F
100
AcDbEntity
  8
0
  6
HIDDEN
 62
     7
370
    18
100
AcDbSpline
210
0.0
220
0.0
230
1.0
 70
     8
 71
     3
 72
    11
 73
     7
 74
     0
 42
0.000000001
 43
0.00000001
 40
0.0
 40
0.0
 40
0.0
 40
0.0
 40
0.0515664383832378
 40
0.4057332276994018
 40
0.7634485454350067
 40
1.0
 40
1.0
 40
1.0
 40
1.0
 10
247.154372115816
 20
120.5804487657226
 30
0.0
 10
247.1515107756608
 20
120.5855565602169
 30
0.0
 10
247.1289972801956
 20
120.6257455283045
 30
0.0
 10
247.217539222747
 20
120.4688278775743
 30
0.0
 10
247.3717063345492
 20
120.1843556887281
 30
0.0
 10
247.4960610448312
 20
119.9066830901645
 30
0.0
 10
247.5455611834395
 20
119.7961538461538
 30
0.0
  0
ARC
  5
128
330
1F
100
AcDbEntity
  8
0
  6
HIDDEN
 62
     7
370
    18
100
AcDbCircle
 10
199.5455611834
 20
288.3461538462
 30
0.0
 40
214.7499999999999
100
AcDbArc
 50
252.6891724
 51
287.19907729
  0
LINE
  5
129
330
1F
100
AcDbEntity
  8
0
  6
HIDDEN
 62
     7
370
    18
100
AcDbLine
 10
135.6455611834
 20
83.3233441395
 30
0.0
 11
135.1992282382
 21
81.8912872615
 31
0.0
  0
LINE
  5
12A
330
1F
100
AcDbEntity
  8
0
  6
HIDDEN
 62
     7
370
    18
100
AcDbLine
 10
263.0455611834
 20
83.199102929
 30
0.0
 11
263.4891001823
 21
81.7661782427
 31
0.0
  0
LINE
  5
12B
330
1F
100
AcDbEntity
  8
0
  6
HIDDEN
 62
     7
370
    18
100
AcDbLine
 10
135.6455611834
 20
83.3233441395
 30
0.0
 11
136.7622056859
 21
88.5923546052
 31
0.0
  0
LINE
  5
12C
330
1F
100
AcDbEntity
  8
0
  6
HIDDEN
 62
     7
370
    18
100
AcDbLine
 10
136.7622056859
 20
88.5923546052
 30
0.0
 11
135.2947966134
 21
88.9033379074
 31
0.0
  0
LINE
  5
12D
330
1F
100
AcDbEntity
  8
0
  6
HIDDEN
 62
     7
370
    18
100
AcDbLine
 10
135.6455611834
 20
83.3233441395
 30
0.0
 11
134.178152111
 21
83.6343274416
 31
0.0
  0
LINE
  5
12E
330
1F
100
AcDbEntity
  8
0
  6
HIDDEN
 62
     7
370
    18
100
AcDbLine
 10
263.0455611834
 20
125.5961538462
 30
0.0
 11
263.0455611834
 21
83.199102929
 31
0.0
  0
LINE
  5
12F
330
1F
100
AcDbEntity
  8
0
  6
HIDDEN
 62
     7
370
    18
100
AcDbLine
 10
263.0455611834
 20
83.199102929
 30
0.0
 11
264.5455611834
 21
83.199102929
 31
0.0
  0
LINE
  5
130
330
1F
100
AcDbEntity
  8
0
  6
HIDDEN
 62
     7
370
    18
100
AcDbLine
 10
264.5455611834
 20
126.5961538462
 30
0.0
 11
263.0455611834
 21
125.5961538462
 31
0.0
  0
LINE
  5
131
330
1F
100
AcDbEntity
  8
0
  6
HIDDEN
 62
     7
370
    18
100
AcDbLine
 10
138.6691555929
 20
89.7155274504
 30
0.0
 11
139.1086964274
 21
91.1496835977
 31
0.0
  0
ARC
  5
132
330
1F
100
AcDbEntity
  8
0
  6
HIDDEN
 62
     7
370
    18
100
AcDbCircle
 10
199.5455611834
 20
288.3461538462
 30
0.0
 40
207.7500000000002
100
AcDbArc
 50
252.9607213358
 51
279.7264324467
  0
LINE
  5
133
330
1F
100
AcDbEntity
  8
0
  6
HIDDEN
 62
     7
370
    18
100
AcDbLine
 10
234.3902816803
 20
85.0608667408
 30
0.0
 11
234.6436978294
 21
83.5824282892
 31
0.0
  0
ARC
  5
134
330
1F
100
AcDbEntity
  8
0
  6
HIDDEN
 62
     7
370
    18
100
AcDbCircle
 10
233.5455611834
 20
89.9889949131
 30
0.0
 40
6.5
100
AcDbArc
 50
279.7264324467
 51
0.0
  0
LINE
  5
135
330
1F
100
AcDbEntity
  8
0
  6
HIDDEN
 62
     7
370
    18
100
AcDbLine
 10
238.5455611834
 20
89.9889949131
 30
0.0
 11
240.0455611834
 21
89.9889949131
 31
0.0
  0
ARC
  5
136
330
1F
100
AcDbEntity
  8
0
  6
HIDDEN
 62
     7
370
    18
100
AcDbCircle
 10
138.2296147583
 20
88.2813713031
 30
0.0
 40
1.500000000000006
100
AcDbArc
 50
72.9607213358
 51
168.0345276052
  0
LINE
  5
137
330
1F
100
AcDbEntity
  8
0
  6
HIDDEN
 62
     7
370
    18
100
AcDbLine
 10
240.0455611834
 20
89.9889949131
 30
0.0
 11
240.0455611834
 21
125.5961538462
 31
0.0
  0
LINE
  5
138
330
1F
100
AcDbEntity
  8
0
  6
HIDDEN
 62
     7
370
    18
100
AcDbLine
 10
238.5455611834
 20
126.5961538462
 30
0.0
 11
240.0455611834
 21
125.5961538462
 31
0.0
  0
LINE
  5
139
330
1F
100
AcDbEntity
  8
0
  6
HIDDEN
 62
     7
370
    18
100
AcDbLine
 10
239.0455611834
 20
127.0961538462
 30
0.0
 11
240.0455611834
 21
125.5961538462
 31
0.0
  0
LINE
  5
13A
330
1F
100
AcDbEntity
  8
0
  6
HIDDEN
 62
     7
370
    18
100
AcDbLine
 10
240.0455611834
 20
125.5961538462
 30
0.0
 11
263.0455611834
 21
125.5961538462
 31
0.0
  0
LINE
  5
13B
330
1F
100
AcDbEntity
  8
0
  6
HIDDEN
 62
     7
370
    18
100
AcDbLine
 10
264.0455611834
 20
127.0961538462
 30
0.0
 11
263.0455611834
 21
125.5961538462
 31
0.0
  0
LINE
  5
13C
330
1F
100
AcDbEntity
  8
0
  6
HIDDEN
 62
     7
370
    18
100
AcDbLine
 10
244.9455611835
 20
121.0961538461
 30
0.0
 11
238.8455611834
 21
121.0961538461
 31
0.0
  0
LINE
  5
13D
330
1F
100
AcDbEntity
  8
0
  6
HIDDEN
 62
     7
370
    18
100
AcDbLine
 10
238.8455611834
 20
115.0961538462
 30
0.0
 11
244.9455611835
 21
115.0961538462
 31
0.0
  0
LINE
  5
13E
330
1F
100
AcDbEntity
  8
0
  6
HIDDEN
 62
     7
370
    18
100
AcDbLine
 10
244.9455611835
 20
115.0961538462
 30
0.0
 11
245.9455611834
 21
116.0961538462
 31
0.0
  0
LINE
  5
13F
330
1F
100
AcDbEntity
  8
0
  6
HIDDEN
 62
     7
370
    18
100
AcDbLine
 10
245.9455611834
 20
120.0961538461
 30
0.0
 11
244.9455611835
 21
121.0961538461
 31
0.0
  0
LINE
  5
140
330
1F
100
AcDbEntity
  8
0
  6
HIDDEN
 62
     7
370
    18
100
AcDbLine
 10
238.8455611834
 20
121.0961538461
 30
0.0
 11
238.5455611834
 21
120.7961538461
 31
0.0
  0
LINE
  5
141
330
1F
100
AcDbEntity
  8
0
  6
HIDDEN
 62
     7
370
    18
100
AcDbLine
 10
238.5455611834
 20
115.3961538462
 30
0.0
 11
238.8455611834
 21
115.0961538462
 31
0.0
  0
ARC
  5
142
330
1F
100
AcDbEntity
  8
0
  6
HIDDEN
 62
     7
370
    18
100
AcDbCircle
 10
246.0455611834
 20
119.5863426719
 30
0.0
 40
0.1000000000000063
100
AcDbArc
 50
180.0
 51
264.0938588867
  0
ARC
  5
143
330
1F
100
AcDbEntity
  8
0
  6
HIDDEN
 62
     7
370
    18
100
AcDbCircle
 10
246.0455611834
 20
116.6059650204
 30
0.0
 40
0.1000000000000063
100
AcDbArc
 50
95.9061411133
 51
180.0
  0
SPLINE
  5
144
330
1F
100
AcDbEntity
  8
0
  6
HIDDEN
 62
     7
370
    18
100
AcDbSpline
210
0.0
220
0.0
230
1.0
 70
     8
 71
     3
 72
    12
 73
     8
 74
     0
 42
0.000000001
 43
0.00000001
 40
0.0
 40
0.0
 40
0.0
 40
0.0
 40
0.1868596471379946
 40
0.373696682527132
 40
0.5605588051148948
 40
0.7803621958970712
 40
1.0
 40
1.0
 40
1.0
 40
1.0
 10
247.6100512205782
 20
119.4940157332279
 30
0.0
 10
247.5921896074581
 20
119.5002349400018
 30
0.0
 10
247.5564685426385
 20
119.5126726009679
 30
0.0
 10
247.4988322613693
 20
119.5046950825235
 30
0.0
 10
247.4458971070916
 20
119.4761047853848
 30
0.0
 10
247.4041922214093
 20
119.4250381125179
 30
0.0
 10
247.3984374733307
 20
119.3807315760316
 30
0.0
 10
247.3955611835201
 20
119.358586655404
 30
0.0
  0
SPLINE
  5
145
330
1F
100
AcDbEntity
  8
0
  6
HIDDEN
 62
     7
370
    18
100
AcDbSpline
210
0.0
220
0.0
230
1.0
 70
     8
 71
     3
 72
    12
 73
     8
 74
     0
 42
0.000000001
 43
0.00000001
 40
0.0
 40
0.0
 40
0.0
 40
0.0
 40
0.1867856628020948
 40
0.3736144035414757
 40
0.5604714012174233
 40
0.7802755325245303
 40
1.0
 40
1.0
 40
1.0
 40
1.0
 10
247.3955611835201
 20
116.8337210369037
 30
0.0
 10
247.3976233552945
 20
116.8149280763378
 30
0.0
 10
247.401748174437
 20
116.7773378210299
 30
0.0
 10
247.4337175267777
 20
116.7287326345837
 30
0.0
 10
247.4822821115862
 20
116.6932234986209
 30
0.0
 10
247.5463249713402
 20
116.6775141026219
 30
0.0
 10
247.5888117043822
 20
116.6913668438559
 30
0.0
 10
247.6100512205782
 20
116.6982919590797
 30
0.0
  0
LINE
  5
146
330
1F
100
AcDbEntity
  8
0
  6
HIDDEN
 62
     7
370
    18
100
AcDbLine
 10
247.6100512206
 20
116.6982919591
 30
0.0
 11
250.5455611834
 21
118.0961538462
 31
0.0
  0
LINE
  5
147
330
1F
100
AcDbEntity
  8
0
  6
HIDDEN
 62
     7
370
    18
100
AcDbLine
 10
250.5455611834
 20
118.0961538462
 30
0.0
 11
247.6100512206
 21
119.4940157332
 31
0.0
  0
LINE
  5
148
330
1F
100
AcDbEntity
  8
0
  6
HIDDEN
 62
     7
370
    18
100
AcDbLine
 10
246.0352712683
 20
116.7054341998
 30
0.0
 11
247.3955611835
 21
116.8461538462
 31
0.0
  0
LINE
  5
149
330
1F
100
AcDbEntity
  8
0
  6
HIDDEN
 62
     7
370
    18
100
AcDbLine
 10
247.3955611835
 20
119.3461538461
 30
0.0
 11
246.0352712683
 21
119.4868734925
 31
0.0
  0
LINE
  5
14A
330
1F
100
AcDbEntity
  8
0
  6
HIDDEN
 62
     7
370
    18
100
AcDbLine
 10
244.9455611835
 20
172.0961538461
 30
0.0
 11
238.8455611834
 21
172.0961538461
 31
0.0
  0
LINE
  5
14B
330
1F
100
AcDbEntity
  8
0
  6
HIDDEN
 62
     7
370
    18
100
AcDbLine
 10
238.8455611834
 20
166.0961538462
 30
0.0
 11
244.9455611835
 21
166.0961538462
 31
0.0
  0
LINE
  5
14C
330
1F
100
AcDbEntity
  8
0
  6
HIDDEN
 62
     7
370
    18
100
AcDbLine
 10
244.9455611835
 20
166.0961538462
 30
0.0
 11
245.9455611834
 21
167.0961538462
 31
0.0
  0
LINE
  5
14D
330
1F
100
AcDbEntity
  8
0
  6
HIDDEN
 62
     7
370
    18
100
AcDbLine
 10
245.9455611834
 20
171.0961538461
 30
0.0
 11
244.9455611835
 21
172.0961538461
 31
0.0
  0
LINE
  5
14E
330
1F
100
AcDbEntity
  8
0
  6
HIDDEN
 62
     7
370
    18
100
AcDbLine
 10
238.8455611834
 20
172.0961538461
 30
0.0
 11
238.5455611834
 21
171.7961538461
 31
0.0
  0
LINE
  5
14F
330
1F
100
AcDbEntity
  8
0
  6
HIDDEN
 62
     7
370
    18
100
AcDbLine
 10
238.5455611834
 20
166.3961538462
 30
0.0
 11
238.8455611834
 21
166.0961538462
 31
0.0
  0
ARC
  5
150
330
1F
100
AcDbEntity
  8
0
  6
HIDDEN
 62
     7
370
    18
100
AcDbCircle
 10
246.0455611834
 20
170.5863426719
 30
0.0
 40
0.0999999999999943
100
AcDbArc
 50
180.0
 51
264.0938588867
  0
ARC
  5
151
330
1F
100
AcDbEntity
  8
0
  6
HIDDEN
 62
     7
370
    18
100
AcDbCircle
 10
246.0455611834
 20
167.6059650204
 30
0.0
 40
0.1000000000000063
100
AcDbArc
 50
95.9061411133
 51
180.0
  0
SPLINE
  5
152
330
1F
100
AcDbEntity
  8
0
  6
HIDDEN
 62
     7
370
    18
100
AcDbSpline
210
0.0
220
0.0
230
1.0
 70
     8
 71
     3
 72
    12
 73
     8
 74
     0
 42
0.000000001
 43
0.00000001
 40
0.0
 40
0.0
 40
0.0
 40
0.0
 40
0.186859647137993
 40
0.3736966825271317
 40
0.5605588051148916
 40
0.7803621958970771
 40
1.0
 40
1.0
 40
1.0
 40
1.0
 10
247.6100512205782
 20
170.4940157332279
 30
0.0
 10
247.5921896074581
 20
170.5002349400018
 30
0.0
 10
247.5564685426385
 20
170.5126726009679
 30
0.0
 10
247.4988322613693
 20
170.5046950825235
 30
0.0
 10
247.4458971070916
 20
170.4761047853848
 30
0.0
 10
247.4041922214093
 20
170.4250381125179
 30
0.0
 10
247.3984374733307
 20
170.3807315760316
 30
0.0
 10
247.3955611835201
 20
170.358586655404
 30
0.0
  0
SPLINE
  5
153
330
1F
100
AcDbEntity
  8
0
  6
HIDDEN
 62
     7
370
    18
100
AcDbSpline
210
0.0
220
0.0
230
1.0
 70
     8
 71
     3
 72
    12
 73
     8
 74
     0
 42
0.000000001
 43
0.00000001
 40
0.0
 40
0.0
 40
0.0
 40
0.0
 40
0.1867856628020805
 40
0.3736144035414642
 40
0.5604714012174213
 40
0.7802755325245291
 40
1.0
 40
1.0
 40
1.0
 40
1.0
 10
247.3955611835201
 20
167.8337210369037
 30
0.0
 10
247.3976233552945
 20
167.8149280763378
 30
0.0
 10
247.401748174437
 20
167.77733782103
 30
0.0
 10
247.4337175267777
 20
167.7287326345837
 30
0.0
 10
247.4822821115862
 20
167.6932234986209
 30
0.0
 10
247.5463249713402
 20
167.6775141026219
 30
0.0
 10
247.5888117043822
 20
167.6913668438559
 30
0.0
 10
247.6100512205782
 20
167.6982919590797
 30
0.0
  0
LINE
  5
154
330
1F
100
AcDbEntity
  8
0
  6
HIDDEN
 62
     7
370
    18
100
AcDbLine
 10
247.6100512206
 20
167.6982919591
 30
0.0
 11
250.5455611834
 21
169.0961538462
 31
0.0
  0
LINE
  5
155
330
1F
100
AcDbEntity
  8
0
  6
HIDDEN
 62
     7
370
    18
100
AcDbLine
 10
250.5455611834
 20
169.0961538462
 30
0.0
 11
247.6100512206
 21
170.4940157332
 31
0.0
  0
LINE
  5
156
330
1F
100
AcDbEntity
  8
0
  6
HIDDEN
 62
     7
370
    18
100
AcDbLine
 10
246.0352712683
 20
167.7054341998
 30
0.0
 11
247.3955611835
 21
167.8461538462
 31
0.0
  0
LINE
  5
157
330
1F
100
AcDbEntity
  8
0
  6
HIDDEN
 62
     7
370
    18
100
AcDbLine
 10
247.3955611835
 20
170.3461538461
 30
0.0
 11
246.0352712683
 21
170.4868734925
 31
0.0
  0
LINE
  5
158
330
1F
100
AcDbEntity
  8
0
  6
HIDDEN
 62
     7
370
    18
100
AcDbLine
 10
263.0455611834
 20
123.7961538462
 30
0.0
 11
263.0455611834
 21
127.0961538462
 31
0.0
  0
LINE
  5
159
330
1F
100
AcDbEntity
  8
0
  6
HIDDEN
 62
     7
370
    18
100
AcDbLine
 10
240.0455611834
 20
127.0961538462
 30
0.0
 11
240.0455611834
 21
123.7961538462
 31
0.0
  0
LINE
  5
15A
330
1F
100
AcDbEntity
  8
0
  6
HIDDEN
 62
     7
370
    18
100
AcDbLine
 10
260.6455611834
 20
123.7961538462
 30
0.0
 11
260.6455611834
 21
131.7961538462
 31
0.0
  0
LINE
  5
15B
330
1F
100
AcDbEntity
  8
0
  6
HIDDEN
 62
     7
370
    18
100
AcDbLine
 10
242.4455611834
 20
131.7961538462
 30
0.0
 11
242.4455611834
 21
123.7961538462
 31
0.0
  0
LINE
  5
15C
330
1F
100
AcDbEntity
  8
0
  6
HIDDEN
 62
     7
370
    18
100
AcDbLine
 10
240.0455611834
 20
163.3961538462
 30
0.0
 11
240.0455611834
 21
160.0961538462
 31
0.0
  0
LINE
  5
15D
330
1F
100
AcDbEntity
  8
0
  6
HIDDEN
 62
     7
370
    18
100
AcDbLine
 10
263.0455611834
 20
160.0961538462
 30
0.0
 11
263.0455611834
 21
163.3961538462
 31
0.0
  0
LINE
  5
15E
330
1F
100
AcDbEntity
  8
0
  6
HIDDEN
 62
     7
370
    18
100
AcDbLine
 10
242.4455611834
 20
163.3961538462
 30
0.0
 11
242.4455611834
 21
155.3961538462
 31
0.0
  0
LINE
  5
15F
330
1F
100
AcDbEntity
  8
0
  6
HIDDEN
 62
     7
370
    18
100
AcDbLine
 10
260.6455611834
 20
155.3961538462
 30
0.0
 11
260.6455611834
 21
163.3961538462
 31
0.0
  0
LINE
  5
160
330
1F
100
AcDbEntity
  8
0
  6
HIDDEN
 62
     7
370
    18
100
AcDbLine
 10
239.5455611834
 20
163.3961538462
 30
0.0
 11
239.5455611834
 21
160.0961538462
 31
0.0
  0
LINE
  5
161
330
1F
100
AcDbEntity
  8
0
  6
HIDDEN
 62
     7
370
    18
100
AcDbLine
 10
263.5455611834
 20
160.0961538462
 30
0.0
 11
263.5455611834
 21
163.3961538462
 31
0.0
  0
LINE
  5
162
330
1F
100
AcDbEntity
  8
0
  6
HIDDEN
 62
     7
370
    18
100
AcDbLine
 10
255.9455611834
 20
187.5558126617
 30
0.0
 11
251.5455611834
 21
190.0961538462
 31
0.0
  0
LINE
  5
163
330
1F
100
AcDbEntity
  8
0
  6
HIDDEN
 62
     7
370
    18
100
AcDbLine
 10
251.5455611834
 20
190.0961538462
 30
0.0
 11
247.1455611834
 21
187.5558126617
 31
0.0
  0
LINE
  5
164
330
1F
100
AcDbEntity
  8
0
  6
HIDDEN
 62
     7
370
    18
100
AcDbLine
 10
247.1455611834
 20
187.5558126617
 30
0.0
 11
247.1455611834
 21
171.5845071601
 31
0.0
  0
LINE
  5
165
330
1F
100
AcDbEntity
  8
0
  6
HIDDEN
 62
     7
370
    18
100
AcDbLine
 10
255.9455611834
 20
163.3961538462
 30
0.0
 11
255.9455611834
 21
187.5558126617
 31
0.0
  0
LINE
  5
166
330
1F
100
AcDbEntity
  8
0
  6
HIDDEN
 62
     7
370
    18
100
AcDbLine
 10
238.5455611834
 20
165.8461538462
 30
0.0
 11
239.2955611834
 21
166.5961538462
 31
0.0
  0
LINE
  5
167
330
1F
100
AcDbEntity
  8
0
  6
HIDDEN
 62
     7
370
    18
100
AcDbLine
 10
239.2955611834
 20
171.5961538462
 30
0.0
 11
238.5455611834
 21
172.3461538462
 31
0.0
  0
LINE
  5
168
330
1F
100
AcDbEntity
  8
0
  6
HIDDEN
 62
     7
370
    18
100
AcDbLine
 10
239.2955611834
 20
166.5961538462
 30
0.0
 11
247.1543721158
 21
166.5961538462
 31
0.0
  0
LINE
  5
169
330
1F
100
AcDbEntity
  8
0
  6
HIDDEN
 62
     7
370
    18
100
AcDbLine
 10
247.151997557
 20
171.5961538462
 30
0.0
 11
239.2955611834
 21
171.5961538462
 31
0.0
  0
LINE
  5
16A
330
1F
100
AcDbEntity
  8
0
  6
HIDDEN
 62
     7
370
    18
100
AcDbLine
 10
247.1455611834
 20
166.6120250614
 30
0.0
 11
247.1455611834
 21
163.3961538462
 31
0.0
  0
LINE
  5
16B
330
1F
100
AcDbEntity
  8
0
  6
HIDDEN
 62
     7
370
    18
100
AcDbLine
 10
263.5455611834
 20
123.7961538462
 30
0.0
 11
263.5455611834
 21
127.0961538462
 31
0.0
  0
LINE
  5
16C
330
1F
100
AcDbEntity
  8
0
  6
HIDDEN
 62
     7
370
    18
100
AcDbLine
 10
239.5455611834
 20
127.0961538462
 30
0.0
 11
239.5455611834
 21
123.7961538462
 31
0.0
  0
LINE
  5
16D
330
1F
100
AcDbEntity
  8
0
  6
HIDDEN
 62
     7
370
    18
100
AcDbLine
 10
247.1455611834
 20
99.6364950306
 30
0.0
 11
251.5455611834
 21
97.0961538462
 31
0.0
  0
LINE
  5
16E
330
1F
100
AcDbEntity
  8
0
  6
HIDDEN
 62
     7
370
    18
100
AcDbLine
 10
251.5455611834
 20
97.0961538462
 30
0.0
 11
255.9455611834
 21
99.6364950306
 31
0.0
  0
LINE
  5
16F
330
1F
100
AcDbEntity
  8
0
  6
HIDDEN
 62
     7
370
    18
100
AcDbLine
 10
255.9455611834
 20
99.6364950306
 30
0.0
 11
255.9455611834
 21
123.7961538462
 31
0.0
  0
LINE
  5
170
330
1F
100
AcDbEntity
  8
0
  6
HIDDEN
 62
     7
370
    18
100
AcDbLine
 10
247.1455611834
 20
115.6078005322
 30
0.0
 11
247.1455611834
 21
99.6364950306
 31
0.0
  0
LINE
  5
171
330
1F
100
AcDbEntity
  8
0
  6
HIDDEN
 62
     7
370
    18
100
AcDbLine
 10
238.5455611834
 20
114.8461538462
 30
0.0
 11
239.2955611834
 21
115.5961538462
 31
0.0
  0
LINE
  5
172
330
1F
100
AcDbEntity
  8
0
  6
HIDDEN
 62
     7
370
    18
100
AcDbLine
 10
239.2955611834
 20
120.5961538462
 30
0.0
 11
238.5455611834
 21
121.3461538462
 31
0.0
  0
LINE
  5
173
330
1F
100
AcDbEntity
  8
0
  6
HIDDEN
 62
     7
370
    18
100
AcDbLine
 10
239.2955611834
 20
115.5961538462
 30
0.0
 11
247.151997557
 21
115.5961538462
 31
0.0
  0
LINE
  5
174
330
1F
100
AcDbEntity
  8
0
  6
HIDDEN
 62
     7
370
    18
100
AcDbLine
 10
247.1543721158
 20
120.5961538462
 30
0.0
 11
239.2955611834
 21
120.5961538462
 31
0.0
  0
LINE
  5
175
330
1F
100
AcDbEntity
  8
0
  6
HIDDEN
 62
     7
370
    18
100
AcDbLine
 10
247.1455611834
 20
123.7961538462
 30
0.0
 11
247.1455611834
 21
120.5802826309
 31
0.0
  0
LINE
  5
176
330
1F
100
AcDbEntity
  8
0
  6
HIDDEN
 62
     7
370
    18
100
AcDbLine
 10
255.3455611834
 20
103.5961538462
 30
0.0
 11
255.3455611834
 21
131.7961538462
 31
0.0
  0
LINE
  5
177
330
1F
100
AcDbEntity
  8
0
  6
HIDDEN
 62
     7
370
    18
100
AcDbLine
 10
255.3455611834
 20
155.3961538462
 30
0.0
 11
255.3455611834
 21
183.5961538462
 31
0.0
  0
LINE
  5
178
330
1F
100
AcDbEntity
  8
0
  6
HIDDEN
 62
     7
370
    18
100
AcDbLine
 10
247.7455611834
 20
183.5961538462
 30
0.0
 11
247.7455611834
 21
155.3961538462
 31
0.0
  0
LINE
  5
179
330
1F
100
AcDbEntity
  8
0
  6
HIDDEN
 62
     7
370
    18
100
AcDbLine
 10
247.7455611834
 20
131.7961538462
 30
0.0
 11
247.7455611834
 21
103.5961538462
 31
0.0
  0
ARC
  5
17A
330
1F
100
AcDbEntity
  8
0
  6
Continuous
 62
     7
370
    25
100
AcDbCircle
 10
135.6455611834
 20
250.9269230769
 30
0.0
 40
1.5
100
AcDbArc
 50
180.0
 51
270.0
  0
LINE
  5
17B
330
1F
100
AcDbEntity
  8
0
  6
Continuous
 62
     7
370
    25
100
AcDbLine
 10
134.1455611834
 20
277.9269230769
 30
0.0
 11
134.1455611834
 21
250.9269230769
 31
0.0
  0
ARC
  5
17C
330
1F
100
AcDbEntity
  8
0
  6
Continuous
 62
     7
370
    25
100
AcDbCircle
 10
135.6455611834
 20
277.9269230769
 30
0.0
 40
1.5
100
AcDbArc
 50
90.0
 51
180.0
  0
LINE
  5
17D
330
1F
100
AcDbEntity
  8
0
  6
Continuous
 62
     7
370
    25
100
AcDbLine
 10
263.0455611834
 20
249.4269230769
 30
0.0
 11
135.6455611834
 21
249.4269230769
 31
0.0
  0
LWPOLYLINE
  5
17E
330
1F
100
AcDbEntity
  8
0
  6
Continuous
 62
     7
370
    25
100
AcDbPolyline
 90
        9
 70
   128
 43
0.0
 10
135.6455611834
 20
249.4269230769
 10
135.5584859454
 20
249.4557451563
 10
135.47475696
 20
249.5411037782
 10
135.397591885
 20
249.6797186585
 10
135.3299561312
 20
249.8662629051
 10
135.2744489025
 20
250.0935677274
 10
135.2332033106
 20
250.3528979284
 10
135.2078044005
 20
250.6342875939
 10
135.1992282382
 20
250.9269230769
  0
LINE
  5
17F
330
1F
100
AcDbEntity
  8
0
  6
Continuous
 62
     7
370
    25
100
AcDbLine
 10
135.1992282382
 20
250.9269230769
 30
0.0
 11
263.4891001823
 21
250.9269230769
 31
0.0
  0
LWPOLYLINE
  5
180
330
1F
100
AcDbEntity
  8
0
  6
Continuous
 62
     7
370
    25
100
AcDbPolyline
 90
        9
 70
   128
 43
0.0
 10
263.0455611834
 20
249.4269230769
 10
263.1320913495
 20
249.4557451563
 10
263.2152962099
 20
249.5411037782
 10
263.2919782484
 20
249.6797186585
 10
263.3591906172
 20
249.8662629051
 10
263.4143503828
 20
250.0935677274
 10
263.4553377863
 20
250.3528979284
 10
263.4805777048
 20
250.6342875939
 10
263.4891001823
 20
250.9269230769
  0
LINE
  5
181
330
1F
100
AcDbEntity
  8
0
  6
Continuous
 62
     7
370
    25
100
AcDbLine
 10
263.4891001823
 20
277.9269230769
 30
0.0
 11
135.1992282382
 21
277.9269230769
 31
0.0
  0
LINE
  5
182
330
1F
100
AcDbEntity
  8
0
  6
Continuous
 62
     7
370
    25
100
AcDbLine
 10
263.4891001823
 20
250.9269230769
 30
0.0
 11
263.4891001823
 21
277.9269230769
 31
0.0
  0
LINE
  5
183
330
1F
100
AcDbEntity
  8
0
  6
Continuous
 62
     7
370
    25
100
AcDbLine
 10
135.1992282382
 20
250.9269230769
 30
0.0
 11
135.1992282382
 21
277.9269230769
 31
0.0
  0
LINE
  5
184
330
1F
100
AcDbEntity
  8
0
  6
Continuous
 62
     7
370
    25
100
AcDbLine
 10
135.6455611834
 20
279.4269230769
 30
0.0
 11
263.0455611834
 21
279.4269230769
 31
0.0
  0
LWPOLYLINE
  5
185
330
1F
100
AcDbEntity
  8
0
  6
Continuous
 62
     7
370
    25
100
AcDbPolyline
 90
        9
 70
   128
 43
0.0
 10
263.0455611834
 20
279.4269230769
 10
263.1320913495
 20
279.3981009975
 10
263.2152962099
 20
279.3127423757
 10
263.2919782484
 20
279.1741274954
 10
263.3591906172
 20
278.9875832487
 10
263.4143503828
 20
278.7602784265
 10
263.4553377863
 20
278.5009482255
 10
263.4805777048
 20
278.2195585599
 10
263.4891001823
 20
277.9269230769
  0
LWPOLYLINE
  5
186
330
1F
100
AcDbEntity
  8
0
  6
Continuous
 62
     7
370
    25
100
AcDbPolyline
 90
        9
 70
   128
 43
0.0
 10
135.1992282382
 20
277.9269230769
 10
135.2078044005
 20
278.2195585599
 10
135.2332033106
 20
278.5009482255
 10
135.2744489025
 20
278.7602784265
 10
135.3299561312
 20
278.9875832487
 10
135.397591885
 20
279.1741274954
 10
135.47475696
 20
279.3127423757
 10
135.5584859454
 20
279.3981009975
 10
135.6455611834
 20
279.4269230769
  0
LINE
  5
187
330
1F
100
AcDbEntity
  8
0
  6
Continuous
 62
     7
370
    25
100
AcDbLine
 10
263.4891001823
 20
250.9269230769
 30
0.0
 11
264.5455611834
 21
250.9269230769
 31
0.0
  0
ARC
  5
188
330
1F
100
AcDbEntity
  8
0
  6
Continuous
 62
     7
370
    25
100
AcDbCircle
 10
263.0455611834
 20
250.9269230769
 30
0.0
 40
1.5
100
AcDbArc
 50
270.0
 51
0.0
  0
LINE
  5
189
330
1F
100
AcDbEntity
  8
0
  6
Continuous
 62
     7
370
    25
100
AcDbLine
 10
264.5455611834
 20
277.9269230769
 30
0.0
 11
263.4891001823
 21
277.9269230769
 31
0.0
  0
LINE
  5
18A
330
1F
100
AcDbEntity
  8
0
  6
Continuous
 62
     7
370
    25
100
AcDbLine
 10
264.5455611834
 20
250.9269230769
 30
0.0
 11
264.5455611834
 21
277.9269230769
 31
0.0
  0
ARC
  5
18B
330
1F
100
AcDbEntity
  8
0
  6
Continuous
 62
     7
370
    25
100
AcDbCircle
 10
263.0455611834
 20
277.9269230769
 30
0.0
 40
1.5
100
AcDbArc
 50
0.0
 51
90.0
  0
LINE
  5
18C
330
1F
100
AcDbEntity
  8
0
  6
Continuous
 62
     8
370
    25
100
AcDbLine
 10
134.1455611834
 20
250.9269230769
 30
0.0
 11
135.1992282382
 21
250.9269230769
 31
0.0
  0
LINE
  5
18D
330
1F
100
AcDbEntity
  8
0
  6
Continuous
 62
     8
370
    25
100
AcDbLine
 10
135.1992282382
 20
277.9269230769
 30
0.0
 11
134.1455611834
 21
277.9269230769
 31
0.0
  0
LINE
  5
18E
330
1F
100
AcDbEntity
  8
0
  6
Continuous
 62
     7
370
    25
100
AcDbLine
 10
367.8307692308
 20
127.0961538462
 30
0.0
 11
367.8307692308
 21
127.5961538462
 31
0.0
  0
LINE
  5
18F
330
1F
100
AcDbEntity
  8
0
  6
Continuous
 62
     7
370
    25
100
AcDbLine
 10
344.8307692308
 20
127.5961538462
 30
0.0
 11
344.8307692308
 21
127.0961538462
 31
0.0
  0
LINE
  5
190
330
1F
100
AcDbEntity
  8
0
  6
Continuous
 62
     7
370
    25
100
AcDbLine
 10
366.2807692308
 20
127.5961538462
 30
0.0
 11
366.2807692308
 21
131.7961538462
 31
0.0
  0
LINE
  5
191
330
1F
100
AcDbEntity
  8
0
  6
Continuous
 62
     7
370
    25
100
AcDbLine
 10
346.3807692308
 20
131.7961538462
 30
0.0
 11
346.3807692308
 21
127.5961538462
 31
0.0
  0
LINE
  5
192
330
1F
100
AcDbEntity
  8
0
  6
Continuous
 62
     7
370
    25
100
AcDbLine
 10
344.8307692308
 20
160.0961538462
 30
0.0
 11
344.8307692308
 21
159.5961538462
 31
0.0
  0
LINE
  5
193
330
1F
100
AcDbEntity
  8
0
  6
Continuous
 62
     7
370
    25
100
AcDbLine
 10
367.8307692308
 20
159.5961538462
 30
0.0
 11
367.8307692308
 21
160.0961538462
 31
0.0
  0
LINE
  5
194
330
1F
100
AcDbEntity
  8
0
  6
Continuous
 62
     7
370
    25
100
AcDbLine
 10
346.3807692308
 20
159.5961538462
 30
0.0
 11
346.3807692308
 21
155.3961538462
 31
0.0
  0
LINE
  5
195
330
1F
100
AcDbEntity
  8
0
  6
Continuous
 62
     7
370
    25
100
AcDbLine
 10
366.2807692308
 20
155.3961538462
 30
0.0
 11
366.2807692308
 21
159.5961538462
 31
0.0
  0
ARC
  5
196
330
1F
100
AcDbEntity
  8
0
  6
Continuous
 62
     7
370
    25
100
AcDbCircle
 10
342.8307692308
 20
213.5961538462
 30
0.0
 40
1.500000000000057
100
AcDbArc
 50
90.0
 51
180.0
  0
LINE
  5
197
330
1F
100
AcDbEntity
  8
0
  6
Continuous
 62
     7
370
    25
100
AcDbLine
 10
369.8307692308
 20
215.0961538462
 30
0.0
 11
342.8307692308
 21
215.0961538462
 31
0.0
  0
ARC
  5
198
330
1F
100
AcDbEntity
  8
0
  6
Continuous
 62
     7
370
    25
100
AcDbCircle
 10
369.8307692308
 20
213.5961538462
 30
0.0
 40
1.5
100
AcDbArc
 50
0.0
 51
90.0
  0
ARC
  5
199
330
1F
100
AcDbEntity
  8
0
  6
Continuous
 62
     7
370
    25
100
AcDbCircle
 10
342.8307692308
 20
197.4109363892
 30
0.0
 40
1.500000000000057
100
AcDbArc
 50
180.0
 51
270.0
  0
LINE
  5
19A
330
1F
100
AcDbEntity
  8
0
  6
Continuous
 62
     7
370
    25
100
AcDbLine
 10
342.8307692308
 20
195.9109363892
 30
0.0
 11
369.8307692308
 21
195.9109363892
 31
0.0
  0
ARC
  5
19B
330
1F
100
AcDbEntity
  8
0
  6
Continuous
 62
     7
370
    25
100
AcDbCircle
 10
369.8307692308
 20
197.4109363892
 30
0.0
 40
1.5
100
AcDbArc
 50
270.0
 51
0.0
  0
ARC
  5
19C
330
1F
100
AcDbEntity
  8
0
  6
Continuous
 62
     7
370
    25
100
AcDbCircle
 10
342.8307692308
 20
73.5961538462
 30
0.0
 40
1.500000000000057
100
AcDbArc
 50
180.0
 51
270.0
  0
LINE
  5
19D
330
1F
100
AcDbEntity
  8
0
  6
Continuous
 62
     7
370
    25
100
AcDbLine
 10
342.8307692308
 20
72.0961538462
 30
0.0
 11
369.8307692308
 21
72.0961538462
 31
0.0
  0
ARC
  5
19E
330
1F
100
AcDbEntity
  8
0
  6
Continuous
 62
     7
370
    25
100
AcDbCircle
 10
369.8307692308
 20
73.5961538462
 30
0.0
 40
1.5
100
AcDbArc
 50
270.0
 51
0.0
  0
ARC
  5
19F
330
1F
100
AcDbEntity
  8
0
  6
Continuous
 62
     7
370
    25
100
AcDbCircle
 10
342.8307692308
 20
89.7813713031
 30
0.0
 40
1.500000000000057
100
AcDbArc
 50
90.0
 51
180.0
  0
LINE
  5
1A0
330
1F
100
AcDbEntity
  8
0
  6
Continuous
 62
     7
370
    25
100
AcDbLine
 10
369.8307692308
 20
91.2813713031
 30
0.0
 11
342.8307692308
 21
91.2813713031
 31
0.0
  0
ARC
  5
1A1
330
1F
100
AcDbEntity
  8
0
  6
Continuous
 62
     7
370
    25
100
AcDbCircle
 10
369.8307692308
 20
89.7813713031
 30
0.0
 40
1.5
100
AcDbArc
 50
0.0
 51
90.0
  0
LINE
  5
1A2
330
1F
100
AcDbEntity
  8
0
  6
Continuous
 62
     7
370
    25
100
AcDbLine
 10
352.3307692308
 20
131.7961538462
 30
0.0
 11
352.3307692308
 21
155.3961538462
 31
0.0
  0
LINE
  5
1A3
330
1F
100
AcDbEntity
  8
0
  6
Continuous
 62
     7
370
    25
100
AcDbLine
 10
356.2307692308
 20
131.7961538462
 30
0.0
 11
356.2307692308
 21
155.3961538462
 31
0.0
  0
LINE
  5
1A4
330
1F
100
AcDbEntity
  8
0
  6
Continuous
 62
     7
370
    25
100
AcDbLine
 10
356.4307692308
 20
131.7961538462
 30
0.0
 11
356.4307692308
 21
155.3961538462
 31
0.0
  0
LINE
  5
1A5
330
1F
100
AcDbEntity
  8
0
  6
Continuous
 62
     7
370
    25
100
AcDbLine
 10
360.3307692308
 20
155.3961538462
 30
0.0
 11
360.3307692308
 21
131.7961538462
 31
0.0
  0
LINE
  5
1A6
330
1F
100
AcDbEntity
  8
0
  6
Continuous
 62
     7
370
    25
100
AcDbLine
 10
355.9663400212
 20
119.787334307
 30
0.0
 11
354.6839493845
 21
118.6261391232
 31
0.0
  0
LINE
  5
1A7
330
1F
100
AcDbEntity
  8
0
  6
Continuous
 62
     7
370
    25
100
AcDbLine
 10
354.6839493845
 20
118.6261391232
 30
0.0
 11
355.0483785941
 21
116.9349586623
 31
0.0
  0
LINE
  5
1A8
330
1F
100
AcDbEntity
  8
0
  6
Continuous
 62
     7
370
    25
100
AcDbLine
 10
355.0483785941
 20
116.9349586623
 30
0.0
 11
356.6951984403
 21
116.4049733853
 31
0.0
  0
LINE
  5
1A9
330
1F
100
AcDbEntity
  8
0
  6
Continuous
 62
     7
370
    25
100
AcDbLine
 10
356.6951984403
 20
116.4049733853
 30
0.0
 11
357.977589077
 21
117.5661685691
 31
0.0
  0
LINE
  5
1AA
330
1F
100
AcDbEntity
  8
0
  6
Continuous
 62
     7
370
    25
100
AcDbLine
 10
357.977589077
 20
117.5661685691
 30
0.0
 11
357.6131598675
 21
119.25734903
 31
0.0
  0
LINE
  5
1AB
330
1F
100
AcDbEntity
  8
0
  6
Continuous
 62
     7
370
    25
100
AcDbLine
 10
357.6131598675
 20
119.25734903
 30
0.0
 11
355.9663400212
 21
119.787334307
 31
0.0
  0
CIRCLE
  5
1AC
330
1F
100
AcDbEntity
  8
0
  6
Continuous
 62
     7
370
    25
100
AcDbCircle
 10
356.3307692308
 20
118.0961538462
 30
0.0
 40
2.699999999961076
  0
CIRCLE
  5
1AD
330
1F
100
AcDbEntity
  8
0
  6
Continuous
 62
     7
370
    25
100
AcDbCircle
 10
356.3307692308
 20
118.0961538462
 30
0.0
 40
2.999999999958924
  0
LINE
  5
1AE
330
1F
100
AcDbEntity
  8
0
  6
Continuous
 62
     7
370
    25
100
AcDbLine
 10
355.9663400212
 20
170.787334307
 30
0.0
 11
354.6839493845
 21
169.6261391232
 31
0.0
  0
LINE
  5
1AF
330
1F
100
AcDbEntity
  8
0
  6
Continuous
 62
     7
370
    25
100
AcDbLine
 10
354.6839493845
 20
169.6261391232
 30
0.0
 11
355.0483785941
 21
167.9349586623
 31
0.0
  0
LINE
  5
1B0
330
1F
100
AcDbEntity
  8
0
  6
Continuous
 62
     7
370
    25
100
AcDbLine
 10
355.0483785941
 20
167.9349586623
 30
0.0
 11
356.6951984403
 21
167.4049733853
 31
0.0
  0
LINE
  5
1B1
330
1F
100
AcDbEntity
  8
0
  6
Continuous
 62
     7
370
    25
100
AcDbLine
 10
356.6951984403
 20
167.4049733853
 30
0.0
 11
357.977589077
 21
168.5661685691
 31
0.0
  0
LINE
  5
1B2
330
1F
100
AcDbEntity
  8
0
  6
Continuous
 62
     7
370
    25
100
AcDbLine
 10
357.977589077
 20
168.5661685691
 30
0.0
 11
357.6131598675
 21
170.25734903
 31
0.0
  0
LINE
  5
1B3
330
1F
100
AcDbEntity
  8
0
  6
Continuous
 62
     7
370
    25
100
AcDbLine
 10
357.6131598675
 20
170.25734903
 30
0.0
 11
355.9663400212
 21
170.787334307
 31
0.0
  0
CIRCLE
  5
1B4
330
1F
100
AcDbEntity
  8
0
  6
Continuous
 62
     7
370
    25
100
AcDbCircle
 10
356.3307692308
 20
169.0961538462
 30
0.0
 40
2.699999999961135
  0
CIRCLE
  5
1B5
330
1F
100
AcDbEntity
  8
0
  6
Continuous
 62
     7
370
    25
100
AcDbCircle
 10
356.3307692308
 20
169.0961538462
 30
0.0
 40
2.999999999958932
  0
LINE
  5
1B6
330
1F
100
AcDbEntity
  8
0
  6
Continuous
 62
     7
370
    25
100
AcDbLine
 10
367.8307692308
 20
127.5961538462
 30
0.0
 11
344.8307692308
 21
127.5961538462
 31
0.0
  0
LINE
  5
1B7
330
1F
100
AcDbEntity
  8
0
  6
Continuous
 62
     7
370
    25
100
AcDbLine
 10
366.2807692308
 20
131.7961538462
 30
0.0
 11
346.3807692308
 21
131.7961538462
 31
0.0
  0
LINE
  5
1B8
330
1F
100
AcDbEntity
  8
0
  6
Continuous
 62
     7
370
    25
100
AcDbLine
 10
344.8307692308
 20
159.5961538462
 30
0.0
 11
367.8307692308
 21
159.5961538462
 31
0.0
  0
LINE
  5
1B9
330
1F
100
AcDbEntity
  8
0
  6
Continuous
 62
     7
370
    25
100
AcDbLine
 10
346.3807692308
 20
155.3961538462
 30
0.0
 11
366.2807692308
 21
155.3961538462
 31
0.0
  0
ARC
  5
1BA
330
1F
100
AcDbEntity
  8
0
  6
Continuous
 62
     7
370
    25
100
AcDbCircle
 10
342.4718876665
 20
205.5999965143
 30
0.0
 40
2.073312904089396
100
AcDbArc
 50
236.606632872
 51
279.9678590702
  0
ARC
  5
1BB
330
1F
100
AcDbEntity
  8
0
  6
Continuous
 62
     7
370
    25
100
AcDbCircle
 10
342.7975670478
 20
203.8341861111
 30
0.0
 40
1.46721004167125
100
AcDbArc
 50
88.703316292
 51
178.6417846078
  0
LINE
  5
1BC
330
1F
100
AcDbEntity
  8
0
  6
Continuous
 62
     7
370
    25
100
AcDbLine
 10
342.8307692308
 20
205.3010204308
 30
0.0
 11
342.8307692308
 21
203.5579802507
 31
0.0
  0
LINE
  5
1BD
330
1F
100
AcDbEntity
  8
0
  6
Continuous
 62
     7
370
    25
100
AcDbLine
 10
369.8307692308
 20
205.3010204308
 30
0.0
 11
342.8307692308
 21
205.3010204308
 31
0.0
  0
LINE
  5
1BE
330
1F
100
AcDbEntity
  8
0
  6
Continuous
 62
     7
370
    25
100
AcDbLine
 10
369.8307692308
 20
203.5579802507
 30
0.0
 11
369.8307692308
 21
205.3010204308
 31
0.0
  0
LINE
  5
1BF
330
1F
100
AcDbEntity
  8
0
  6
Continuous
 62
     7
370
    25
100
AcDbLine
 10
369.8307692308
 20
203.5579802507
 30
0.0
 11
342.8307692308
 21
203.5579802507
 31
0.0
  0
ARC
  5
1C0
330
1F
100
AcDbEntity
  8
0
  6
Continuous
 62
     7
370
    25
100
AcDbCircle
 10
370.1896507951
 20
205.5999965143
 30
0.0
 40
2.073312904088947
100
AcDbArc
 50
260.0321409298
 51
303.393367128
  0
ARC
  5
1C1
330
1F
100
AcDbEntity
  8
0
  6
Continuous
 62
     7
370
    25
100
AcDbCircle
 10
369.8639714138
 20
203.8341861111
 30
0.0
 40
1.467210041671188
100
AcDbArc
 50
1.3582153922
 51
91.296683708
  0
LINE
  5
1C2
330
1F
100
AcDbEntity
  8
0
  6
Continuous
 62
     7
370
    25
100
AcDbLine
 10
342.8307692308
 20
203.5579802507
 30
0.0
 11
342.8307692308
 21
198.2889697849
 31
0.0
  0
ARC
  5
1C3
330
1F
100
AcDbEntity
  8
0
  6
Continuous
 62
     7
370
    25
100
AcDbCircle
 10
342.4718876665
 20
200.3309860486
 30
0.0
 40
2.073312904089218
100
AcDbArc
 50
236.606632872
 51
279.9678590702
  0
LINE
  5
1C4
330
1F
100
AcDbEntity
  8
0
  6
Continuous
 62
     7
370
    25
100
AcDbLine
 10
341.3307692308
 20
198.5999530871
 30
0.0
 11
341.3307692308
 21
203.8689635528
 31
0.0
  0
LINE
  5
1C5
330
1F
100
AcDbEntity
  8
0
  6
Continuous
 62
     7
370
    25
100
AcDbLine
 10
369.8307692308
 20
198.2889697849
 30
0.0
 11
369.8307692308
 21
203.5579802507
 31
0.0
  0
LINE
  5
1C6
330
1F
100
AcDbEntity
  8
0
  6
Continuous
 62
     7
370
    25
100
AcDbLine
 10
369.8307692308
 20
198.2889697849
 30
0.0
 11
342.8307692308
 21
198.2889697849
 31
0.0
  0
LINE
  5
1C7
330
1F
100
AcDbEntity
  8
0
  6
Continuous
 62
     7
370
    25
100
AcDbLine
 10
371.3307692308
 20
203.8689635528
 30
0.0
 11
371.3307692308
 21
198.5999530871
 31
0.0
  0
ARC
  5
1C8
330
1F
100
AcDbEntity
  8
0
  6
Continuous
 62
     7
370
    25
100
AcDbCircle
 10
370.1896507951
 20
200.3309860486
 30
0.0
 40
2.073312904089041
100
AcDbArc
 50
260.0321409298
 51
303.393367128
  0
LINE
  5
1C9
330
1F
100
AcDbEntity
  8
0
  6
Continuous
 62
     7
370
    25
100
AcDbLine
 10
341.3307692308
 20
203.8689635528
 30
0.0
 11
341.3307692308
 21
213.5961538462
 31
0.0
  0
LINE
  5
1CA
330
1F
100
AcDbEntity
  8
0
  6
Continuous
 62
     7
370
    25
100
AcDbLine
 10
371.3307692308
 20
213.5961538462
 30
0.0
 11
371.3307692308
 21
203.8689635528
 31
0.0
  0
LINE
  5
1CB
330
1F
100
AcDbEntity
  8
0
  6
Continuous
 62
     7
370
    25
100
AcDbLine
 10
341.3307692308
 20
197.4109363892
 30
0.0
 11
341.3307692308
 21
198.5999530871
 31
0.0
  0
LINE
  5
1CC
330
1F
100
AcDbEntity
  8
0
  6
Continuous
 62
     7
370
    25
100
AcDbLine
 10
371.3307692308
 20
198.5999530871
 30
0.0
 11
371.3307692308
 21
197.4109363892
 31
0.0
  0
LINE
  5
1CD
330
1F
100
AcDbEntity
  8
0
  6
Continuous
 62
     7
370
    25
100
AcDbLine
 10
341.3307692308
 20
197.2033127792
 30
0.0
 11
341.3307692308
 21
197.4109363892
 31
0.0
  0
LINE
  5
1CE
330
1F
100
AcDbEntity
  8
0
  6
Continuous
 62
     7
370
    25
100
AcDbLine
 10
371.3307692308
 20
197.4109363892
 30
0.0
 11
371.3307692308
 21
197.2033127792
 31
0.0
  0
ELLIPSE
  5
1CF
330
1F
100
AcDbEntity
  8
0
  6
Continuous
 62
     7
370
    25
100
AcDbEllipse
 10
342.8307692308
 20
161.5961538462
 30
0.0
 11
1.5
 21
0.0
 31
0.0
210
0.0
220
0.0
230
1.0
 40
0.6666666667
 41
3.141592653589793
 42
4.712388980384699
  0
LINE
  5
1D0
330
1F
100
AcDbEntity
  8
0
  6
Continuous
 62
     7
370
    25
100
AcDbLine
 10
341.3307692308
 20
161.5961538462
 30
0.0
 11
341.3307692308
 21
197.2033127792
 31
0.0
  0
LINE
  5
1D1
330
1F
100
AcDbEntity
  8
0
  6
Continuous
 62
     7
370
    25
100
AcDbLine
 10
369.8307692308
 20
160.5961538462
 30
0.0
 11
342.8307692308
 21
160.5961538462
 31
0.0
  0
CIRCLE
  5
1D2
330
1F
100
AcDbEntity
  8
0
  6
Continuous
 62
     7
370
    25
100
AcDbCircle
 10
356.3307692308
 20
169.0961538462
 30
0.0
 40
3.249999999999943
  0
LINE
  5
1D3
330
1F
100
AcDbEntity
  8
0
  6
Continuous
 62
     7
370
    25
100
AcDbLine
 10
342.8307692308
 20
160.5961538462
 30
0.0
 11
342.8307692308
 21
160.0961538462
 31
0.0
  0
ARC
  5
1D4
330
1F
100
AcDbEntity
  8
0
  6
Continuous
 62
     7
370
    25
100
AcDbCircle
 10
342.8307692308
 20
161.5961538462
 30
0.0
 40
1.500000000000057
100
AcDbArc
 50
180.0
 51
270.0
  0
LINE
  5
1D5
330
1F
100
AcDbEntity
  8
0
  6
Continuous
 62
     7
370
    25
100
AcDbLine
 10
369.8307692308
 20
160.0961538462
 30
0.0
 11
369.8307692308
 21
160.5961538462
 31
0.0
  0
LINE
  5
1D6
330
1F
100
AcDbEntity
  8
0
  6
Continuous
 62
     7
370
    25
100
AcDbLine
 10
369.8307692308
 20
160.0961538462
 30
0.0
 11
342.8307692308
 21
160.0961538462
 31
0.0
  0
ELLIPSE
  5
1D7
330
1F
100
AcDbEntity
  8
0
  6
Continuous
 62
     7
370
    25
100
AcDbEllipse
 10
369.8307692308
 20
161.5961538462
 30
0.0
 11
1.5
 21
0.0
 31
0.0
210
0.0
220
0.0
230
1.0
 40
0.6666666667
 41
4.712388980384699
 42
6.283185307179586
  0
LINE
  5
1D8
330
1F
100
AcDbEntity
  8
0
  6
Continuous
 62
     7
370
    25
100
AcDbLine
 10
371.3307692308
 20
197.2033127792
 30
0.0
 11
371.3307692308
 21
161.5961538462
 31
0.0
  0
ARC
  5
1D9
330
1F
100
AcDbEntity
  8
0
  6
Continuous
 62
     7
370
    25
100
AcDbCircle
 10
369.8307692308
 20
161.5961538462
 30
0.0
 40
1.5
100
AcDbArc
 50
270.0
 51
0.0
  0
ARC
  5
1DA
330
1F
100
AcDbEntity
  8
0
  6
Continuous
 62
     7
370
    25
100
AcDbCircle
 10
342.4718876665
 20
81.592311178
 30
0.0
 40
2.073312904089132
100
AcDbArc
 50
80.0321409298
 51
123.393367128
  0
LINE
  5
1DB
330
1F
100
AcDbEntity
  8
0
  6
Continuous
 62
     7
370
    25
100
AcDbLine
 10
342.8307692308
 20
83.6343274416
 30
0.0
 11
342.8307692308
 21
81.8912872615
 31
0.0
  0
ARC
  5
1DC
330
1F
100
AcDbEntity
  8
0
  6
Continuous
 62
     7
370
    25
100
AcDbCircle
 10
342.7975670478
 20
83.3581215812
 30
0.0
 40
1.467210041671249
100
AcDbArc
 50
181.3582153922
 51
271.296683708
  0
LINE
  5
1DD
330
1F
100
AcDbEntity
  8
0
  6
Continuous
 62
     7
370
    25
100
AcDbLine
 10
369.8307692308
 20
81.8912872615
 30
0.0
 11
369.8307692308
 21
83.6343274416
 31
0.0
  0
LINE
  5
1DE
330
1F
100
AcDbEntity
  8
0
  6
Continuous
 62
     7
370
    25
100
AcDbLine
 10
342.8307692308
 20
81.8912872615
 30
0.0
 11
369.8307692308
 21
81.8912872615
 31
0.0
  0
LINE
  5
1DF
330
1F
100
AcDbEntity
  8
0
  6
Continuous
 62
     7
370
    25
100
AcDbLine
 10
342.8307692308
 20
83.6343274416
 30
0.0
 11
369.8307692308
 21
83.6343274416
 31
0.0
  0
ARC
  5
1E0
330
1F
100
AcDbEntity
  8
0
  6
Continuous
 62
     7
370
    25
100
AcDbCircle
 10
370.1896507951
 20
81.592311178
 30
0.0
 40
2.073312904088836
100
AcDbArc
 50
56.606632872
 51
99.9678590702
  0
ARC
  5
1E1
330
1F
100
AcDbEntity
  8
0
  6
Continuous
 62
     7
370
    25
100
AcDbCircle
 10
369.8639714138
 20
83.3581215812
 30
0.0
 40
1.467210041671134
100
AcDbArc
 50
268.703316292
 51
358.6417846078
  0
LINE
  5
1E2
330
1F
100
AcDbEntity
  8
0
  6
Continuous
 62
     7
370
    25
100
AcDbLine
 10
341.3307692308
 20
83.3233441395
 30
0.0
 11
341.3307692308
 21
88.5923546052
 31
0.0
  0
ARC
  5
1E3
330
1F
100
AcDbEntity
  8
0
  6
Continuous
 62
     7
370
    25
100
AcDbCircle
 10
342.4718876665
 20
86.8613216437
 30
0.0
 40
2.073312904089162
100
AcDbArc
 50
80.0321409298
 51
123.393367128
  0
LINE
  5
1E4
330
1F
100
AcDbEntity
  8
0
  6
Continuous
 62
     7
370
    25
100
AcDbLine
 10
342.8307692308
 20
88.9033379074
 30
0.0
 11
342.8307692308
 21
83.6343274416
 31
0.0
  0
LINE
  5
1E5
330
1F
100
AcDbEntity
  8
0
  6
Continuous
 62
     7
370
    25
100
AcDbLine
 10
369.8307692308
 20
83.6343274416
 30
0.0
 11
369.8307692308
 21
88.9033379074
 31
0.0
  0
LINE
  5
1E6
330
1F
100
AcDbEntity
  8
0
  6
Continuous
 62
     7
370
    25
100
AcDbLine
 10
342.8307692308
 20
88.9033379074
 30
0.0
 11
369.8307692308
 21
88.9033379074
 31
0.0
  0
ARC
  5
1E7
330
1F
100
AcDbEntity
  8
0
  6
Continuous
 62
     7
370
    25
100
AcDbCircle
 10
370.1896507951
 20
86.8613216437
 30
0.0
 40
2.073312904089064
100
AcDbArc
 50
56.606632872
 51
99.9678590702
  0
LINE
  5
1E8
330
1F
100
AcDbEntity
  8
0
  6
Continuous
 62
     7
370
    25
100
AcDbLine
 10
371.3307692308
 20
88.5923546052
 30
0.0
 11
371.3307692308
 21
83.3233441395
 31
0.0
  0
LINE
  5
1E9
330
1F
100
AcDbEntity
  8
0
  6
Continuous
 62
     7
370
    25
100
AcDbLine
 10
341.3307692308
 20
73.5961538462
 30
0.0
 11
341.3307692308
 21
83.3233441395
 31
0.0
  0
LINE
  5
1EA
330
1F
100
AcDbEntity
  8
0
  6
Continuous
 62
     7
370
    25
100
AcDbLine
 10
371.3307692308
 20
83.3233441395
 30
0.0
 11
371.3307692308
 21
73.5961538462
 31
0.0
  0
LINE
  5
1EB
330
1F
100
AcDbEntity
  8
0
  6
Continuous
 62
     7
370
    25
100
AcDbLine
 10
341.3307692308
 20
88.5923546052
 30
0.0
 11
341.3307692308
 21
89.7813713031
 31
0.0
  0
LINE
  5
1EC
330
1F
100
AcDbEntity
  8
0
  6
Continuous
 62
     7
370
    25
100
AcDbLine
 10
371.3307692308
 20
89.7813713031
 30
0.0
 11
371.3307692308
 21
88.5923546052
 31
0.0
  0
LINE
  5
1ED
330
1F
100
AcDbEntity
  8
0
  6
Continuous
 62
     7
370
    25
100
AcDbLine
 10
341.3307692308
 20
89.7813713031
 30
0.0
 11
341.3307692308
 21
89.9889949131
 31
0.0
  0
LINE
  5
1EE
330
1F
100
AcDbEntity
  8
0
  6
Continuous
 62
     7
370
    25
100
AcDbLine
 10
371.3307692308
 20
89.9889949131
 30
0.0
 11
371.3307692308
 21
89.7813713031
 31
0.0
  0
ELLIPSE
  5
1EF
330
1F
100
AcDbEntity
  8
0
  6
Continuous
 62
     7
370
    25
100
AcDbEllipse
 10
342.8307692308
 20
125.5961538462
 30
0.0
 11
1.5
 21
0.0
 31
0.0
210
0.0
220
0.0
230
1.0
 40
0.6666666667
 41
1.570796326794897
 42
3.141592653589793
  0
LINE
  5
1F0
330
1F
100
AcDbEntity
  8
0
  6
Continuous
 62
     7
370
    25
100
AcDbLine
 10
341.3307692308
 20
89.9889949131
 30
0.0
 11
341.3307692308
 21
125.5961538462
 31
0.0
  0
LINE
  5
1F1
330
1F
100
AcDbEntity
  8
0
  6
Continuous
 62
     7
370
    25
100
AcDbLine
 10
342.8307692308
 20
126.5961538462
 30
0.0
 11
369.8307692308
 21
126.5961538462
 31
0.0
  0
CIRCLE
  5
1F2
330
1F
100
AcDbEntity
  8
0
  6
Continuous
 62
     7
370
    25
100
AcDbCircle
 10
356.3307692308
 20
118.0961538462
 30
0.0
 40
3.25
  0
ARC
  5
1F3
330
1F
100
AcDbEntity
  8
0
  6
Continuous
 62
     7
370
    25
100
AcDbCircle
 10
342.8307692308
 20
125.5961538462
 30
0.0
 40
1.500000000000057
100
AcDbArc
 50
90.0
 51
180.0
  0
LINE
  5
1F4
330
1F
100
AcDbEntity
  8
0
  6
Continuous
 62
     7
370
    25
100
AcDbLine
 10
342.8307692308
 20
127.0961538462
 30
0.0
 11
342.8307692308
 21
126.5961538462
 31
0.0
  0
LINE
  5
1F5
330
1F
100
AcDbEntity
  8
0
  6
Continuous
 62
     7
370
    25
100
AcDbLine
 10
369.8307692308
 20
126.5961538462
 30
0.0
 11
369.8307692308
 21
127.0961538462
 31
0.0
  0
LINE
  5
1F6
330
1F
100
AcDbEntity
  8
0
  6
Continuous
 62
     7
370
    25
100
AcDbLine
 10
342.8307692308
 20
127.0961538462
 30
0.0
 11
369.8307692308
 21
127.0961538462
 31
0.0
  0
ELLIPSE
  5
1F7
330
1F
100
AcDbEntity
  8
0
  6
Continuous
 62
     7
370
    25
100
AcDbEllipse
 10
369.8307692308
 20
125.5961538462
 30
0.0
 11
1.5
 21
0.0
 31
0.0
210
0.0
220
0.0
230
1.0
 40
0.6666666667
 41
0.0
 42
1.570796326794935
  0
LINE
  5
1F8
330
1F
100
AcDbEntity
  8
0
  6
Continuous
 62
     7
370
    25
100
AcDbLine
 10
371.3307692308
 20
125.5961538462
 30
0.0
 11
371.3307692308
 21
89.9889949131
 31
0.0
  0
ARC
  5
1F9
330
1F
100
AcDbEntity
  8
0
  6
Continuous
 62
     7
370
    25
100
AcDbCircle
 10
369.8307692308
 20
125.5961538462
 30
0.0
 40
1.5
100
AcDbArc
 50
0.0
 51
90.0
  0
LINE
  5
1FA
330
1F
100
AcDbEntity
  8
0
  6
Continuous
 62
     8
370
    25
100
AcDbLine
 10
352.5307692308
 20
155.3961538462
 30
0.0
 11
352.5307692308
 21
131.7961538462
 31
0.0
  0
LINE
  5
1FB
330
1F
100
AcDbEntity
  8
0
  6
Continuous
 62
     8
370
    25
100
AcDbLine
 10
360.1307692308
 20
131.7961538462
 30
0.0
 11
360.1307692308
 21
155.3961538462
 31
0.0
  0
LINE
  5
1FC
330
1F
100
AcDbEntity
  8
0
  6
Continuous
 62
     8
370
    25
100
AcDbLine
 10
342.8307692308
 20
215.0961538462
 30
0.0
 11
342.8307692308
 21
205.3010204308
 31
0.0
  0
LINE
  5
1FD
330
1F
100
AcDbEntity
  8
0
  6
Continuous
 62
     8
370
    25
100
AcDbLine
 10
369.8307692308
 20
205.3010204308
 30
0.0
 11
369.8307692308
 21
215.0961538462
 31
0.0
  0
LINE
  5
1FE
330
1F
100
AcDbEntity
  8
0
  6
Continuous
 62
     8
370
    25
100
AcDbLine
 10
342.8307692308
 20
198.2889697849
 30
0.0
 11
342.8307692308
 21
195.9109363892
 31
0.0
  0
LINE
  5
1FF
330
1F
100
AcDbEntity
  8
0
  6
Continuous
 62
     8
370
    25
100
AcDbLine
 10
369.8307692308
 20
195.9109363892
 30
0.0
 11
369.8307692308
 21
198.2889697849
 31
0.0
  0
LINE
  5
200
330
1F
100
AcDbEntity
  8
0
  6
Continuous
 62
     8
370
    25
100
AcDbLine
 10
341.3452079104
 20
197.2033127792
 30
0.0
 11
341.3307692308
 21
197.2033127792
 31
0.0
  0
LINE
  5
201
330
1F
100
AcDbEntity
  8
0
  6
Continuous
 62
     8
370
    25
100
AcDbLine
 10
371.3163305511
 20
197.2033127792
 30
0.0
 11
371.3307692308
 21
197.2033127792
 31
0.0
  0
LINE
  5
202
330
1F
100
AcDbEntity
  8
0
  6
Continuous
 62
     8
370
    25
100
AcDbLine
 10
342.8307692308
 20
195.9109363892
 30
0.0
 11
342.8307692308
 21
160.5961538462
 31
0.0
  0
LINE
  5
203
330
1F
100
AcDbEntity
  8
0
  6
Continuous
 62
     8
370
    25
100
AcDbLine
 10
369.8307692308
 20
160.5961538462
 30
0.0
 11
369.8307692308
 21
195.9109363892
 31
0.0
  0
LINE
  5
204
330
1F
100
AcDbEntity
  8
0
  6
Continuous
 62
     8
370
    25
100
AcDbLine
 10
342.8307692308
 20
81.8912872615
 30
0.0
 11
342.8307692308
 21
72.0961538462
 31
0.0
  0
LINE
  5
205
330
1F
100
AcDbEntity
  8
0
  6
Continuous
 62
     8
370
    25
100
AcDbLine
 10
369.8307692308
 20
72.0961538462
 30
0.0
 11
369.8307692308
 21
81.8912872615
 31
0.0
  0
LINE
  5
206
330
1F
100
AcDbEntity
  8
0
  6
Continuous
 62
     8
370
    25
100
AcDbLine
 10
342.8307692308
 20
91.2813713031
 30
0.0
 11
342.8307692308
 21
88.9033379074
 31
0.0
  0
LINE
  5
207
330
1F
100
AcDbEntity
  8
0
  6
Continuous
 62
     8
370
    25
100
AcDbLine
 10
369.8307692308
 20
88.9033379074
 30
0.0
 11
369.8307692308
 21
91.2813713031
 31
0.0
  0
LINE
  5
208
330
1F
100
AcDbEntity
  8
0
  6
Continuous
 62
     8
370
    25
100
AcDbLine
 10
341.3452079104
 20
89.9889949131
 30
0.0
 11
341.3307692308
 21
89.9889949131
 31
0.0
  0
LINE
  5
209
330
1F
100
AcDbEntity
  8
0
  6
Continuous
 62
     8
370
    25
100
AcDbLine
 10
371.3163305511
 20
89.9889949131
 30
0.0
 11
371.3307692308
 21
89.9889949131
 31
0.0
  0
LINE
  5
20A
330
1F
100
AcDbEntity
  8
0
  6
Continuous
 62
     8
370
    25
100
AcDbLine
 10
342.8307692308
 20
126.5961538462
 30
0.0
 11
342.8307692308
 21
91.2813713031
 31
0.0
  0
LINE
  5
20B
330
1F
100
AcDbEntity
  8
0
  6
Continuous
 62
     8
370
    25
100
AcDbLine
 10
369.8307692308
 20
91.2813713031
 30
0.0
 11
369.8307692308
 21
126.5961538462
 31
0.0
  0
LINE
  5
20C
330
1F
100
AcDbEntity
  8
0
  6
Continuous
 62
     7
370
    25
100
AcDbLine
 10
67.7153846154
 20
127.0961538462
 30
0.0
 11
67.7153846154
 21
127.5961538462
 31
0.0
  0
LINE
  5
20D
330
1F
100
AcDbEntity
  8
0
  6
Continuous
 62
     7
370
    25
100
AcDbLine
 10
44.7153846154
 20
127.5961538462
 30
0.0
 11
44.7153846154
 21
127.0961538462
 31
0.0
  0
LINE
  5
20E
330
1F
100
AcDbEntity
  8
0
  6
Continuous
 62
     7
370
    25
100
AcDbLine
 10
66.1653846154
 20
127.5961538462
 30
0.0
 11
66.1653846154
 21
131.7961538462
 31
0.0
  0
LINE
  5
20F
330
1F
100
AcDbEntity
  8
0
  6
Continuous
 62
     7
370
    25
100
AcDbLine
 10
46.2653846154
 20
131.7961538462
 30
0.0
 11
46.2653846154
 21
127.5961538462
 31
0.0
  0
LINE
  5
210
330
1F
100
AcDbEntity
  8
0
  6
Continuous
 62
     7
370
    25
100
AcDbLine
 10
44.7153846154
 20
160.0961538462
 30
0.0
 11
44.7153846154
 21
159.5961538462
 31
0.0
  0
LINE
  5
211
330
1F
100
AcDbEntity
  8
0
  6
Continuous
 62
     7
370
    25
100
AcDbLine
 10
67.7153846154
 20
159.5961538462
 30
0.0
 11
67.7153846154
 21
160.0961538462
 31
0.0
  0
LINE
  5
212
330
1F
100
AcDbEntity
  8
0
  6
Continuous
 62
     7
370
    25
100
AcDbLine
 10
46.2653846154
 20
159.5961538462
 30
0.0
 11
46.2653846154
 21
155.3961538462
 31
0.0
  0
LINE
  5
213
330
1F
100
AcDbEntity
  8
0
  6
Continuous
 62
     7
370
    25
100
AcDbLine
 10
66.1653846154
 20
155.3961538462
 30
0.0
 11
66.1653846154
 21
159.5961538462
 31
0.0
  0
ARC
  5
214
330
1F
100
AcDbEntity
  8
0
  6
Continuous
 62
     7
370
    25
100
AcDbCircle
 10
69.7153846154
 20
213.5961538462
 30
0.0
 40
1.5
100
AcDbArc
 50
0.0
 51
90.0
  0
LINE
  5
215
330
1F
100
AcDbEntity
  8
0
  6
Continuous
 62
     7
370
    25
100
AcDbLine
 10
69.7153846154
 20
215.0961538462
 30
0.0
 11
42.7153846154
 21
215.0961538462
 31
0.0
  0
ARC
  5
216
330
1F
100
AcDbEntity
  8
0
  6
Continuous
 62
     7
370
    25
100
AcDbCircle
 10
42.7153846154
 20
213.5961538462
 30
0.0
 40
1.500000000000007
100
AcDbArc
 50
90.0
 51
180.0
  0
ARC
  5
217
330
1F
100
AcDbEntity
  8
0
  6
Continuous
 62
     7
370
    25
100
AcDbCircle
 10
69.7153846154
 20
73.5961538462
 30
0.0
 40
1.5
100
AcDbArc
 50
270.0
 51
0.0
  0
LINE
  5
218
330
1F
100
AcDbEntity
  8
0
  6
Continuous
 62
     7
370
    25
100
AcDbLine
 10
42.7153846154
 20
72.0961538462
 30
0.0
 11
69.7153846154
 21
72.0961538462
 31
0.0
  0
ARC
  5
219
330
1F
100
AcDbEntity
  8
0
  6
Continuous
 62
     7
370
    25
100
AcDbCircle
 10
42.7153846154
 20
73.5961538462
 30
0.0
 40
1.500000000000007
100
AcDbArc
 50
180.0
 51
270.0
  0
LINE
  5
21A
330
1F
100
AcDbEntity
  8
0
  6
Continuous
 62
     7
370
    25
100
AcDbLine
 10
60.2153846154
 20
155.3961538462
 30
0.0
 11
60.2153846154
 21
131.7961538462
 31
0.0
  0
LINE
  5
21B
330
1F
100
AcDbEntity
  8
0
  6
Continuous
 62
     7
370
    25
100
AcDbLine
 10
56.3153846154
 20
131.7961538462
 30
0.0
 11
56.3153846154
 21
155.3961538462
 31
0.0
  0
LINE
  5
21C
330
1F
100
AcDbEntity
  8
0
  6
Continuous
 62
     7
370
    25
100
AcDbLine
 10
56.1153846154
 20
131.7961538462
 30
0.0
 11
56.1153846154
 21
155.3961538462
 31
0.0
  0
LINE
  5
21D
330
1F
100
AcDbEntity
  8
0
  6
Continuous
 62
     7
370
    25
100
AcDbLine
 10
52.2153846154
 20
131.7961538462
 30
0.0
 11
52.2153846154
 21
155.3961538462
 31
0.0
  0
LINE
  5
21E
330
1F
100
AcDbEntity
  8
0
  6
Continuous
 62
     7
370
    25
100
AcDbLine
 10
44.7907922777
 20
127.5961538462
 30
0.0
 11
44.7153846154
 21
127.5961538462
 31
0.0
  0
LINE
  5
21F
330
1F
100
AcDbEntity
  8
0
  6
Continuous
 62
     7
370
    25
100
AcDbLine
 10
67.7153846154
 20
127.5961538462
 30
0.0
 11
44.7907922777
 21
127.5961538462
 31
0.0
  0
LINE
  5
220
330
1F
100
AcDbEntity
  8
0
  6
Continuous
 62
     7
370
    25
100
AcDbLine
 10
46.3306286363
 20
131.7961538462
 30
0.0
 11
46.2653846154
 21
131.7961538462
 31
0.0
  0
LINE
  5
221
330
1F
100
AcDbEntity
  8
0
  6
Continuous
 62
     7
370
    25
100
AcDbLine
 10
66.1653846154
 20
131.7961538462
 30
0.0
 11
46.3306286363
 21
131.7961538462
 31
0.0
  0
LINE
  5
222
330
1F
100
AcDbEntity
  8
0
  6
Continuous
 62
     7
370
    25
100
AcDbLine
 10
64.4239071025
 20
159.5961538462
 30
0.0
 11
67.7153846154
 21
159.5961538462
 31
0.0
  0
LINE
  5
223
330
1F
100
AcDbEntity
  8
0
  6
Continuous
 62
     7
370
    25
100
AcDbLine
 10
44.7153846154
 20
159.5961538462
 30
0.0
 11
64.4239071025
 21
159.5961538462
 31
0.0
  0
LINE
  5
224
330
1F
100
AcDbEntity
  8
0
  6
Continuous
 62
     7
370
    25
100
AcDbLine
 10
63.3175410281
 20
155.3961538462
 30
0.0
 11
66.1653846154
 21
155.3961538462
 31
0.0
  0
LINE
  5
225
330
1F
100
AcDbEntity
  8
0
  6
Continuous
 62
     7
370
    25
100
AcDbLine
 10
46.2653846154
 20
155.3961538462
 30
0.0
 11
63.3175410281
 21
155.3961538462
 31
0.0
  0
LINE
  5
226
330
1F
100
AcDbEntity
  8
0
  6
Continuous
 62
     7
370
    25
100
AcDbLine
 10
71.2153846154
 20
203.9932047633
 30
0.0
 11
69.7153846154
 21
203.9932047633
 31
0.0
  0
LINE
  5
227
330
1F
100
AcDbEntity
  8
0
  6
Continuous
 62
     7
370
    25
100
AcDbLine
 10
69.7153846154
 20
203.9932047633
 30
0.0
 11
69.7153846154
 21
205.4261294496
 31
0.0
  0
ARC
  5
228
330
1F
100
AcDbEntity
  8
0
  6
Continuous
 62
     7
370
    25
100
AcDbCircle
 10
69.7481724226
 20
203.9588821563
 30
0.0
 40
1.467613593529154
100
AcDbArc
 50
1.3400801398
 51
91.2801457356
  0
LINE
  5
229
330
1F
100
AcDbEntity
  8
0
  6
Continuous
 62
     7
370
    25
100
AcDbLine
 10
71.2153846154
 20
203.9932047633
 30
0.0
 11
71.2153846154
 21
161.5961538462
 31
0.0
  0
ELLIPSE
  5
22A
330
1F
100
AcDbEntity
  8
0
  6
Continuous
 62
     7
370
    25
100
AcDbEllipse
 10
69.7153846154
 20
161.5961538462
 30
0.0
 11
1.5
 21
0.0
 31
0.0
210
0.0
220
0.0
230
1.0
 40
0.6666666667
 41
4.712388980384699
 42
6.283185307179586
  0
LINE
  5
22B
330
1F
100
AcDbEntity
  8
0
  6
Continuous
 62
     7
370
    25
100
AcDbLine
 10
69.7153846154
 20
160.5961538462
 30
0.0
 11
69.7153846154
 21
203.9932047633
 31
0.0
  0
LINE
  5
22C
330
1F
100
AcDbEntity
  8
0
  6
Continuous
 62
     7
370
    25
100
AcDbLine
 10
42.7153846154
 20
203.9932047633
 30
0.0
 11
69.7153846154
 21
203.9932047633
 31
0.0
  0
LINE
  5
22D
330
1F
100
AcDbEntity
  8
0
  6
Continuous
 62
     7
370
    25
100
AcDbLine
 10
42.7153846154
 20
205.4261294496
 30
0.0
 11
42.7153846154
 21
203.9932047633
 31
0.0
  0
LINE
  5
22E
330
1F
100
AcDbEntity
  8
0
  6
Continuous
 62
     7
370
    25
100
AcDbLine
 10
42.7153846154
 20
205.4261294496
 30
0.0
 11
69.7153846154
 21
205.4261294496
 31
0.0
  0
ARC
  5
22F
330
1F
100
AcDbEntity
  8
0
  6
Continuous
 62
     7
370
    25
100
AcDbCircle
 10
69.7153846154
 20
161.5961538462
 30
0.0
 40
1.5
100
AcDbArc
 50
270.0
 51
0.0
  0
LINE
  5
230
330
1F
100
AcDbEntity
  8
0
  6
Continuous
 62
     7
370
    25
100
AcDbLine
 10
69.7153846154
 20
160.0961538462
 30
0.0
 11
69.7153846154
 21
160.5961538462
 31
0.0
  0
LINE
  5
231
330
1F
100
AcDbEntity
  8
0
  6
Continuous
 62
     7
370
    25
100
AcDbLine
 10
42.7153846154
 20
160.5961538462
 30
0.0
 11
69.7153846154
 21
160.5961538462
 31
0.0
  0
LINE
  5
232
330
1F
100
AcDbEntity
  8
0
  6
Continuous
 62
     7
370
    25
100
AcDbLine
 10
42.7153846154
 20
203.9932047633
 30
0.0
 11
42.7153846154
 21
160.5961538462
 31
0.0
  0
LINE
  5
233
330
1F
100
AcDbEntity
  8
0
  6
Continuous
 62
     7
370
    25
100
AcDbLine
 10
42.7153846154
 20
160.0961538462
 30
0.0
 11
69.7153846154
 21
160.0961538462
 31
0.0
  0
LINE
  5
234
330
1F
100
AcDbEntity
  8
0
  6
Continuous
 62
     7
370
    25
100
AcDbLine
 10
42.7153846154
 20
160.5961538462
 30
0.0
 11
42.7153846154
 21
160.0961538462
 31
0.0
  0
ARC
  5
235
330
1F
100
AcDbEntity
  8
0
  6
Continuous
 62
     7
370
    25
100
AcDbCircle
 10
42.6825968081
 20
203.9588821563
 30
0.0
 40
1.467613593529135
100
AcDbArc
 50
88.7198542644
 51
178.6599198602
  0
LINE
  5
236
330
1F
100
AcDbEntity
  8
0
  6
Continuous
 62
     7
370
    25
100
AcDbLine
 10
41.2153846154
 20
203.9932047633
 30
0.0
 11
42.7153846154
 21
203.9932047633
 31
0.0
  0
LINE
  5
237
330
1F
100
AcDbEntity
  8
0
  6
Continuous
 62
     7
370
    25
100
AcDbLine
 10
41.2153846154
 20
161.5961538462
 30
0.0
 11
41.2153846154
 21
203.9932047633
 31
0.0
  0
ELLIPSE
  5
238
330
1F
100
AcDbEntity
  8
0
  6
Continuous
 62
     7
370
    25
100
AcDbEllipse
 10
42.7153846154
 20
161.5961538462
 30
0.0
 11
1.499999999999993
 21
0.0
 31
0.0
210
0.0
220
0.0
230
1.0
 40
0.6666666667
 41
3.141592653589793
 42
4.712388980384699
  0
ARC
  5
239
330
1F
100
AcDbEntity
  8
0
  6
Continuous
 62
     7
370
    25
100
AcDbCircle
 10
42.7153846154
 20
161.5961538462
 30
0.0
 40
1.500000000000007
100
AcDbArc
 50
180.0
 51
270.0
  0
LINE
  5
23A
330
1F
100
AcDbEntity
  8
0
  6
Continuous
 62
     7
370
    25
100
AcDbLine
 10
71.2153846154
 20
213.5961538462
 30
0.0
 11
71.2153846154
 21
203.9932047633
 31
0.0
  0
LINE
  5
23B
330
1F
100
AcDbEntity
  8
0
  6
Continuous
 62
     7
370
    25
100
AcDbLine
 10
41.2153846154
 20
203.9932047633
 30
0.0
 11
41.2153846154
 21
213.5961538462
 31
0.0
  0
LINE
  5
23C
330
1F
100
AcDbEntity
  8
0
  6
Continuous
 62
     7
370
    25
100
AcDbLine
 10
71.2153846154
 20
125.5961538462
 30
0.0
 11
71.2153846154
 21
83.199102929
 31
0.0
  0
LINE
  5
23D
330
1F
100
AcDbEntity
  8
0
  6
Continuous
 62
     7
370
    25
100
AcDbLine
 10
71.2153846154
 20
83.199102929
 30
0.0
 11
69.7153846154
 21
83.199102929
 31
0.0
  0
LINE
  5
23E
330
1F
100
AcDbEntity
  8
0
  6
Continuous
 62
     7
370
    25
100
AcDbLine
 10
69.7153846154
 20
83.199102929
 30
0.0
 11
69.7153846154
 21
126.5961538462
 31
0.0
  0
ELLIPSE
  5
23F
330
1F
100
AcDbEntity
  8
0
  6
Continuous
 62
     7
370
    25
100
AcDbEllipse
 10
69.7153846154
 20
125.5961538462
 30
0.0
 11
1.500000000000014
 21
0.0
 31
0.0
210
0.0
220
0.0
230
1.0
 40
0.6666666667
 41
0.0
 42
1.570796326794897
  0
ARC
  5
240
330
1F
100
AcDbEntity
  8
0
  6
Continuous
 62
     7
370
    25
100
AcDbCircle
 10
69.7481724226
 20
83.233425536
 30
0.0
 40
1.467613593529168
100
AcDbArc
 50
268.7198542644
 51
358.6599198603
  0
LINE
  5
241
330
1F
100
AcDbEntity
  8
0
  6
Continuous
 62
     7
370
    25
100
AcDbLine
 10
69.7153846154
 20
81.7661782427
 30
0.0
 11
69.7153846154
 21
83.199102929
 31
0.0
  0
LINE
  5
242
330
1F
100
AcDbEntity
  8
0
  6
Continuous
 62
     7
370
    25
100
AcDbLine
 10
42.7153846154
 20
83.199102929
 30
0.0
 11
42.7153846154
 21
81.7661782427
 31
0.0
  0
LINE
  5
243
330
1F
100
AcDbEntity
  8
0
  6
Continuous
 62
     7
370
    25
100
AcDbLine
 10
69.7153846154
 20
83.199102929
 30
0.0
 11
42.7153846154
 21
83.199102929
 31
0.0
  0
LINE
  5
244
330
1F
100
AcDbEntity
  8
0
  6
Continuous
 62
     7
370
    25
100
AcDbLine
 10
69.7153846154
 20
81.7661782427
 30
0.0
 11
42.7153846154
 21
81.7661782427
 31
0.0
  0
LINE
  5
245
330
1F
100
AcDbEntity
  8
0
  6
Continuous
 62
     7
370
    25
100
AcDbLine
 10
42.7153846154
 20
126.5961538462
 30
0.0
 11
42.7153846154
 21
83.199102929
 31
0.0
  0
LINE
  5
246
330
1F
100
AcDbEntity
  8
0
  6
Continuous
 62
     7
370
    25
100
AcDbLine
 10
69.7153846154
 20
126.5961538462
 30
0.0
 11
42.7153846154
 21
126.5961538462
 31
0.0
  0
ARC
  5
247
330
1F
100
AcDbEntity
  8
0
  6
Continuous
 62
     7
370
    25
100
AcDbCircle
 10
69.7153846154
 20
125.5961538462
 30
0.0
 40
1.500000000000014
100
AcDbArc
 50
0.0
 51
90.0
  0
LINE
  5
248
330
1F
100
AcDbEntity
  8
0
  6
Continuous
 62
     7
370
    25
100
AcDbLine
 10
69.7153846154
 20
126.5961538462
 30
0.0
 11
69.7153846154
 21
127.0961538462
 31
0.0
  0
LINE
  5
249
330
1F
100
AcDbEntity
  8
0
  6
Continuous
 62
     7
370
    25
100
AcDbLine
 10
42.7153846154
 20
127.0961538462
 30
0.0
 11
42.7153846154
 21
126.5961538462
 31
0.0
  0
LINE
  5
24A
330
1F
100
AcDbEntity
  8
0
  6
Continuous
 62
     7
370
    25
100
AcDbLine
 10
69.7153846154
 20
127.0961538462
 30
0.0
 11
42.7153846154
 21
127.0961538462
 31
0.0
  0
LINE
  5
24B
330
1F
100
AcDbEntity
  8
0
  6
Continuous
 62
     7
370
    25
100
AcDbLine
 10
41.2153846154
 20
83.199102929
 30
0.0
 11
41.2153846154
 21
125.5961538462
 31
0.0
  0
ELLIPSE
  5
24C
330
1F
100
AcDbEntity
  8
0
  6
Continuous
 62
     7
370
    25
100
AcDbEllipse
 10
42.7153846154
 20
125.5961538462
 30
0.0
 11
1.5
 21
0.0
 31
0.0
210
0.0
220
0.0
230
1.0
 40
0.6666666667
 41
1.570796326794897
 42
3.141592653589793
  0
LINE
  5
24D
330
1F
100
AcDbEntity
  8
0
  6
Continuous
 62
     7
370
    25
100
AcDbLine
 10
41.2153846154
 20
83.199102929
 30
0.0
 11
42.7153846154
 21
83.199102929
 31
0.0
  0
ARC
  5
24E
330
1F
100
AcDbEntity
  8
0
  6
Continuous
 62
     7
370
    25
100
AcDbCircle
 10
42.6825968081
 20
83.233425536
 30
0.0
 40
1.467613593529154
100
AcDbArc
 50
181.3400801398
 51
271.2801457356
  0
ARC
  5
24F
330
1F
100
AcDbEntity
  8
0
  6
Continuous
 62
     7
370
    25
100
AcDbCircle
 10
42.7153846154
 20
125.5961538462
 30
0.0
 40
1.500000000000007
100
AcDbArc
 50
90.0
 51
180.0
  0
LINE
  5
250
330
1F
100
AcDbEntity
  8
0
  6
Continuous
 62
     7
370
    25
100
AcDbLine
 10
71.2153846154
 20
83.199102929
 30
0.0
 11
71.2153846154
 21
73.5961538462
 31
0.0
  0
LINE
  5
251
330
1F
100
AcDbEntity
  8
0
  6
Continuous
 62
     7
370
    25
100
AcDbLine
 10
41.2153846154
 20
73.5961538462
 30
0.0
 11
41.2153846154
 21
83.199102929
 31
0.0
  0
LINE
  5
252
330
1F
100
AcDbEntity
  8
0
  6
Continuous
 62
     8
370
    25
100
AcDbLine
 10
60.0153846154
 20
131.7961538462
 30
0.0
 11
60.0153846154
 21
155.3961538462
 31
0.0
  0
LINE
  5
253
330
1F
100
AcDbEntity
  8
0
  6
Continuous
 62
     8
370
    25
100
AcDbLine
 10
52.4153846154
 20
155.3961538462
 30
0.0
 11
52.4153846154
 21
131.7961538462
 31
0.0
  0
LINE
  5
254
330
1F
100
AcDbEntity
  8
0
  6
Continuous
 62
     8
370
    25
100
AcDbLine
 10
69.7153846154
 20
205.4261294496
 30
0.0
 11
69.7153846154
 21
215.0961538462
 31
0.0
  0
LINE
  5
255
330
1F
100
AcDbEntity
  8
0
  6
Continuous
 62
     8
370
    25
100
AcDbLine
 10
42.7153846154
 20
215.0961538462
 30
0.0
 11
42.7153846154
 21
205.4261294496
 31
0.0
  0
LINE
  5
256
330
1F
100
AcDbEntity
  8
0
  6
Continuous
 62
     8
370
    25
100
AcDbLine
 10
69.7153846154
 20
72.0961538462
 30
0.0
 11
69.7153846154
 21
81.7661782427
 31
0.0
  0
LINE
  5
257
330
1F
100
AcDbEntity
  8
0
  6
Continuous
 62
     8
370
    25
100
AcDbLine
 10
42.7153846154
 20
81.7661782427
 30
0.0
 11
42.7153846154
 21
72.0961538462
 31
0.0
  0
ENDSEC
  0
SECTION
  2
OBJECTS
  0
DICTIONARY
  5
C
330
0
100
AcDbDictionary
281
     1
  3
ACAD_GROUP
350
D
  3
ACAD_LAYOUT
350
1A
  3
ACAD_MLINESTYLE
350
17
  3
ACAD_PLOTSETTINGS
350
19
  3
ACAD_PLOTSTYLENAME
350
E
  3
ACAD_SCALELIST
350
47
  0
DICTIONARY
  5
D
102
{ACAD_REACTORS
330
C
102
}
330
C
100
AcDbDictionary
281
     1
  0
DICTIONARY
  5
1A
102
{ACAD_REACTORS
330
C
102
}
330
C
100
AcDbDictionary
281
     1
  3
Layout1
350
1E
  3
Layout2
350
26
  3
Model
350
22
  0
DICTIONARY
  5
17
102
{ACAD_REACTORS
330
C
102
}
330
C
100
AcDbDictionary
281
     1
  3
Standard
350
18
  0
DICTIONARY
  5
19
102
{ACAD_REACTORS
330
C
102
}
330
C
100
AcDbDictionary
281
     1
  0
ACDBDICTIONARYWDFLT
  5
E
102
{ACAD_REACTORS
330
C
102
}
330
C
100
AcDbDictionary
281
     1
  3
Normal
350
F
100
AcDbDictionaryWithDefault
340
F
  0
DICTIONARY
  5
47
102
{ACAD_REACTORS
330
C
102
}
330
C
100
AcDbDictionary
281
     1
  3
A0
350
48
  3
A1
350
49
  3
A2
350
4A
  3
A3
350
4B
  3
A4
350
4C
  3
A5
350
4D
  3
A6
350
4E
  3
A7
350
4F
  3
A8
350
50
  3
A9
350
51
  3
B0
350
52
  3
B1
350
53
  3
B2
350
54
  3
B3
350
55
  3
B4
350
56
  3
B5
350
57
  3
B6
350
58
  3
B7
350
59
  3
B8
350
5A
  3
B9
350
5B
  3
C0
350
5C
  3
C1
350
5D
  3
C2
350
5E
  3
C3
350
5F
  3
C4
350
60
  3
C5
350
61
  3
C6
350
62
  3
C7
350
63
  3
C8
350
64
  3
C9
350
65
  3
D0
350
66
  3
D1
350
67
  3
D2
350
68
  0
LAYOUT
  5
1E
102
{ACAD_REACTORS
330
1A
102
}
330
1A
100
AcDbPlotSettings
  1

  2
none_device
  4

  6

 40
0.0
 41
0.0
 42
0.0
 43
0.0
 44
0.0
 45
0.0
 46
0.0
 47
0.0
 48
0.0
 49
0.0
140
0.0
141
0.0
142
1.0
143
1.0
 70
   688
 72
     1
 73
     0
 74
     5
  7

 75
    16
147
1.0
148
0.0
149
0.0
100
AcDbLayout
  1
Layout1
 70
     1
 71
     1
 10
0.0
 20
0.0
 11
420.0
 21
297.0
 12
0.0
 22
0.0
 32
0.0
 14
1.0000000000E+20
 24
1.0000000000E+20
 34
1.0000000000E+20
 15
-1.0000000000E+20
 25
-1.0000000000E+20
 35
-1.0000000000E+20
146
0.0
 13
0.0
 23
0.0
 33
0.0
 16
1.0
 26
0.0
 36
0.0
 17
0.0
 27
1.0
 37
0.0
 76
     0
330
1B
  0
LAYOUT
  5
26
102
{ACAD_REACTORS
330
1A
102
}
330
1A
100
AcDbPlotSettings
  1

  2
none_device
  4

  6

 40
0.0
 41
0.0
 42
0.0
 43
0.0
 44
0.0
 45
0.0
 46
0.0
 47
0.0
 48
0.0
 49
0.0
140
0.0
141
0.0
142
1.0
143
1.0
 70
   688
 72
     1
 73
     0
 74
     5
  7

 75
    16
147
1.0
148
0.0
149
0.0
100
AcDbLayout
  1
Layout2
 70
     1
 71
     2
 10
0.0
 20
0.0
 11
0.0
 21
0.0
 12
0.0
 22
0.0
 32
0.0
 14
0.0
 24
0.0
 34
0.0
 15
0.0
 25
0.0
 35
0.0
146
0.0
 13
0.0
 23
0.0
 33
0.0
 16
1.0
 26
0.0
 36
0.0
 17
0.0
 27
1.0
 37
0.0
 76
     0
330
23
  0
LAYOUT
  5
22
102
{ACAD_REACTORS
330
1A
102
}
330
1A
100
AcDbPlotSettings
  1

  2
none_device
  4
Letter_(8.50_x_11.00_Inches)
  6

 40
6.35
 41
6.35
 42
6.35000508
 43
6.35000508
 44
215.9
 45
279.4
 46
0.0
 47
0.0
 48
0.0
 49
0.0
140
0.0
141
0.0
142
1.0
143
1.0
 70
  1712
 72
     1
 73
     0
 74
     0
  7

 75
     0
147
1.0
148
0.0
149
0.0
100
AcDbLayout
  1
Model
 70
     1
 71
     0
 10
0.0
 20
0.0
 11
420.0
 21
297.0
 12
0.0
 22
0.0
 32
0.0
 14
0.0
 24
0.0
 34
0.0
 15
420.0
 25
297.0
 35
0.0
146
0.0
 13
0.0
 23
0.0
 33
0.0
 16
1.0
 26
0.0
 36
0.0
 17
0.0
 27
1.0
 37
0.0
 76
     0
330
1F
331
29
  0
MLINESTYLE
  5
18
102
{ACAD_REACTORS
330
17
102
}
330
17
100
AcDbMlineStyle
  2
Standard
 70
     0
  3

 62
   256
 51
90.0
 52
90.0
 71
     2
 49
0.5
 62
   256
  6
BYLAYER
 49
-0.5
 62
   256
  6
BYLAYER
  0
ACDBPLACEHOLDER
  5
F
102
{ACAD_REACTORS
330
E
102
}
330
E
  0
SCALE
  5
48
102
{ACAD_REACTORS
330
47
102
}
330
47
100
AcDbScale
 70
     0
300
1:1
140
1.0
141
1.0
290
     1
  0
SCALE
  5
49
102
{ACAD_REACTORS
330
47
102
}
330
47
100
AcDbScale
 70
     0
300
1:2
140
1.0
141
2.0
290
     0
  0
SCALE
  5
4A
102
{ACAD_REACTORS
330
47
102
}
330
47
100
AcDbScale
 70
     0
300
1:4
140
1.0
141
4.0
290
     0
  0
SCALE
  5
4B
102
{ACAD_REACTORS
330
47
102
}
330
47
100
AcDbScale
 70
     0
300
1:5
140
1.0
141
5.0
290
     0
  0
SCALE
  5
4C
102
{ACAD_REACTORS
330
47
102
}
330
47
100
AcDbScale
 70
     0
300
1:8
140
1.0
141
8.0
290
     0
  0
SCALE
  5
4D
102
{ACAD_REACTORS
330
47
102
}
330
47
100
AcDbScale
 70
     0
300
1:10
140
1.0
141
10.0
290
     0
  0
SCALE
  5
4E
102
{ACAD_REACTORS
330
47
102
}
330
47
100
AcDbScale
 70
     0
300
1:16
140
1.0
141
16.0
290
     0
  0
SCALE
  5
4F
102
{ACAD_REACTORS
330
47
102
}
330
47
100
AcDbScale
 70
     0
300
1:20
140
1.0
141
20.0
290
     0
  0
SCALE
  5
50
102
{ACAD_REACTORS
330
47
102
}
330
47
100
AcDbScale
 70
     0
300
1:30
140
1.0
141
30.0
290
     0
  0
SCALE
  5
51
102
{ACAD_REACTORS
330
47
102
}
330
47
100
AcDbScale
 70
     0
300
1:40
140
1.0
141
40.0
290
     0
  0
SCALE
  5
52
102
{ACAD_REACTORS
330
47
102
}
330
47
100
AcDbScale
 70
     0
300
1:50
140
1.0
141
50.0
290
     0
  0
SCALE
  5
53
102
{ACAD_REACTORS
330
47
102
}
330
47
100
AcDbScale
 70
     0
300
1:100
140
1.0
141
100.0
290
     0
  0
SCALE
  5
54
102
{ACAD_REACTORS
330
47
102
}
330
47
100
AcDbScale
 70
     0
300
2:1
140
2.0
141
1.0
290
     0
  0
SCALE
  5
55
102
{ACAD_REACTORS
330
47
102
}
330
47
100
AcDbScale
 70
     0
300
4:1
140
4.0
141
1.0
290
     0
  0
SCALE
  5
56
102
{ACAD_REACTORS
330
47
102
}
330
47
100
AcDbScale
 70
     0
300
8:1
140
8.0
141
1.0
290
     0
  0
SCALE
  5
57
102
{ACAD_REACTORS
330
47
102
}
330
47
100
AcDbScale
 70
     0
300
10:1
140
10.0
141
1.0
290
     0
  0
SCALE
  5
58
102
{ACAD_REACTORS
330
47
102
}
330
47
100
AcDbScale
 70
     0
300
100:1
140
100.0
141
1.0
290
     0
  0
SCALE
  5
59
102
{ACAD_REACTORS
330
47
102
}
330
47
100
AcDbScale
 70
     0
300
1/128" = 1'-0"
140
0.0078125
141
12.0
290
     0
  0
SCALE
  5
5A
102
{ACAD_REACTORS
330
47
102
}
330
47
100
AcDbScale
 70
     0
300
1/64" = 1'-0"
140
0.015625
141
12.0
290
     0
  0
SCALE
  5
5B
102
{ACAD_REACTORS
330
47
102
}
330
47
100
AcDbScale
 70
     0
300
1/32" = 1'-0"
140
0.03125
141
12.0
290
     0
  0
SCALE
  5
5C
102
{ACAD_REACTORS
330
47
102
}
330
47
100
AcDbScale
 70
     0
300
1/16" = 1'-0"
140
0.0625
141
12.0
290
     0
  0
SCALE
  5
5D
102
{ACAD_REACTORS
330
47
102
}
330
47
100
AcDbScale
 70
     0
300
3/32" = 1'-0"
140
0.09375
141
12.0
290
     0
  0
SCALE
  5
5E
102
{ACAD_REACTORS
330
47
102
}
330
47
100
AcDbScale
 70
     0
300
1/8" = 1'-0"
140
0.125
141
12.0
290
     0
  0
SCALE
  5
5F
102
{ACAD_REACTORS
330
47
102
}
330
47
100
AcDbScale
 70
     0
300
3/16" = 1'-0"
140
0.1875
141
12.0
290
     0
  0
SCALE
  5
60
102
{ACAD_REACTORS
330
47
102
}
330
47
100
AcDbScale
 70
     0
300
1/4" = 1'-0"
140
0.25
141
12.0
290
     0
  0
SCALE
  5
61
102
{ACAD_REACTORS
330
47
102
}
330
47
100
AcDbScale
 70
     0
300
3/8" = 1'-0"
140
0.375
141
12.0
290
     0
  0
SCALE
  5
62
102
{ACAD_REACTORS
330
47
102
}
330
47
100
AcDbScale
 70
     0
300
1/2" = 1'-0"
140
0.5
141
12.0
290
     0
  0
SCALE
  5
63
102
{ACAD_REACTORS
330
47
102
}
330
47
100
AcDbScale
 70
     0
300
3/4" = 1'-0"
140
0.75
141
12.0
290
     0
  0
SCALE
  5
64
102
{ACAD_REACTORS
330
47
102
}
330
47
100
AcDbScale
 70
     0
300
1" = 1'-0"
140
1.0
141
12.0
290
     0
  0
SCALE
  5
65
102
{ACAD_REACTORS
330
47
102
}
330
47
100
AcDbScale
 70
     0
300
1-1/2" = 1'-0"
140
1.5
141
12.0
290
     0
  0
SCALE
  5
66
102
{ACAD_REACTORS
330
47
102
}
330
47
100
AcDbScale
 70
     0
300
3" = 1'-0"
140
3.0
141
12.0
290
     0
  0
SCALE
  5
67
102
{ACAD_REACTORS
330
47
102
}
330
47
100
AcDbScale
 70
     0
300
6" = 1'-0"
140
6.0
141
12.0
290
     0
  0
SCALE
  5
68
102
{ACAD_REACTORS
330
47
102
}
330
47
100
AcDbScale
 70
     0
300
1'-0" = 1'-0"
140
12.0
141
12.0
290
     0
  0
ENDSEC
  0
EOF
